ISO-10303-21;
HEADER;
/* Generated by software containing ST-Developer
 * from STEP Tools, Inc. (www.steptools.com) 
 */
/* OPTION: using custom schema-name function */

FILE_DESCRIPTION(
/* description */ (''),
/* implementation_level */ '2;1');

FILE_NAME(
/* name */ 'aaa336261_a.stp',
/* time_stamp */ '2019-09-19T13:28:25+02:00',
/* author */ (''),
/* organization */ ('SMS'),
/* preprocessor_version */ 'ST-DEVELOPER v16.7',
/* originating_system */ 'SIEMENS PLM Software NX 12.0',
/* authorisation */ '');

FILE_SCHEMA (('AUTOMOTIVE_DESIGN { 1 0 10303 214 3 1 1 1 }'));
ENDSEC;

DATA;
#10=CONSTRUCTIVE_GEOMETRY_REPRESENTATION_RELATIONSHIP(
'supplemental geometry','',#26,#11);
#11=CONSTRUCTIVE_GEOMETRY_REPRESENTATION('supplemental geometry',(#197,
#198,#199),#362);
#12=GEOMETRICALLY_BOUNDED_WIREFRAME_SHAPE_REPRESENTATION(
'AAA336261_A-None',(#27),#362);
#13=SHAPE_REPRESENTATION_RELATIONSHIP('None',
'relationship between AAA336261_A-None and AAA336261_A-None',#26,#15);
#14=SHAPE_REPRESENTATION_RELATIONSHIP('None',
'relationship between AAA336261_A-None and AAA336261_A-None',#26,#12);
#15=ADVANCED_BREP_SHAPE_REPRESENTATION('AAA336261_A-None',(#33),#362);
#16=SHAPE_DEFINITION_REPRESENTATION(#17,#26);
#17=PRODUCT_DEFINITION_SHAPE('','',#18);
#18=PRODUCT_DEFINITION(' ','',#20,#19);
#19=PRODUCT_DEFINITION_CONTEXT('part definition',#25,'design');
#20=PRODUCT_DEFINITION_FORMATION_WITH_SPECIFIED_SOURCE(' ',' ',#22,
 .NOT_KNOWN.);
#21=PRODUCT_RELATED_PRODUCT_CATEGORY('part','',(#22));
#22=PRODUCT('AAA336261_A','AAA336261_A','MASTER_INSERT',(#23));
#23=PRODUCT_CONTEXT(' ',#25,'mechanical');
#24=APPLICATION_PROTOCOL_DEFINITION('international standard',
'automotive_design',2010,#25);
#25=APPLICATION_CONTEXT(
'core data for automotive mechanical design processes');
#26=SHAPE_REPRESENTATION('AAA336261_A-None',(#196),#362);
#27=GEOMETRIC_CURVE_SET('None',(#263,#264,#173));
#28=SURFACE_STYLE_USAGE(.BOTH.,#29);
#29=SURFACE_SIDE_STYLE('',(#30));
#30=SURFACE_STYLE_FILL_AREA(#31);
#31=FILL_AREA_STYLE('',(#32));
#32=FILL_AREA_STYLE_COLOUR('',#195);
#33=MANIFOLD_SOLID_BREP('CUT',#34);
#34=CLOSED_SHELL('',(#38,#39,#40,#41,#42,#43,#44,#45));
#35=CONICAL_SURFACE('',#206,2.60208521396521E-15,11.);
#36=CONICAL_SURFACE('',#210,2.60208521396521E-15,11.);
#37=CONICAL_SURFACE('',#212,2.60208521396521E-15,11.);
#38=ADVANCED_FACE('',(#51),#46,.T.);
#39=ADVANCED_FACE('',(#52),#47,.T.);
#40=ADVANCED_FACE('',(#53),#35,.T.);
#41=ADVANCED_FACE('',(#54),#48,.T.);
#42=ADVANCED_FACE('',(#55),#49,.T.);
#43=ADVANCED_FACE('',(#56),#36,.T.);
#44=ADVANCED_FACE('',(#57),#37,.T.);
#45=ADVANCED_FACE('',(#58),#50,.T.);
#46=PLANE('',#203);
#47=PLANE('',#204);
#48=PLANE('',#207);
#49=PLANE('',#208);
#50=PLANE('',#213);
#51=FACE_OUTER_BOUND('',#59,.T.);
#52=FACE_OUTER_BOUND('',#60,.T.);
#53=FACE_OUTER_BOUND('',#61,.T.);
#54=FACE_OUTER_BOUND('',#62,.T.);
#55=FACE_OUTER_BOUND('',#63,.T.);
#56=FACE_OUTER_BOUND('',#64,.T.);
#57=FACE_OUTER_BOUND('',#65,.T.);
#58=FACE_OUTER_BOUND('',#66,.T.);
#59=EDGE_LOOP('',(#73,#74,#75,#76,#77,#78));
#60=EDGE_LOOP('',(#79,#80,#81,#82));
#61=EDGE_LOOP('',(#83,#84,#85,#86));
#62=EDGE_LOOP('',(#87,#88,#89,#90));
#63=EDGE_LOOP('',(#91,#92,#93,#94));
#64=EDGE_LOOP('',(#95,#96,#97,#98));
#65=EDGE_LOOP('',(#99,#100,#101,#102));
#66=EDGE_LOOP('',(#103,#104,#105,#106,#107,#108));
#67=CIRCLE('',#200,0.175870616942058);
#68=CIRCLE('',#201,0.175870616942058);
#69=CIRCLE('',#202,0.175870616942058);
#70=CIRCLE('',#205,0.794000000000002);
#71=CIRCLE('',#209,0.794000000000002);
#72=CIRCLE('',#211,0.794000000000002);
#73=ORIENTED_EDGE('',*,*,#121,.F.);
#74=ORIENTED_EDGE('',*,*,#122,.T.);
#75=ORIENTED_EDGE('',*,*,#123,.F.);
#76=ORIENTED_EDGE('',*,*,#124,.T.);
#77=ORIENTED_EDGE('',*,*,#125,.F.);
#78=ORIENTED_EDGE('',*,*,#126,.T.);
#79=ORIENTED_EDGE('',*,*,#127,.F.);
#80=ORIENTED_EDGE('',*,*,#123,.T.);
#81=ORIENTED_EDGE('',*,*,#128,.T.);
#82=ORIENTED_EDGE('',*,*,#129,.T.);
#83=ORIENTED_EDGE('',*,*,#124,.F.);
#84=ORIENTED_EDGE('',*,*,#127,.T.);
#85=ORIENTED_EDGE('',*,*,#130,.F.);
#86=ORIENTED_EDGE('',*,*,#131,.F.);
#87=ORIENTED_EDGE('',*,*,#132,.F.);
#88=ORIENTED_EDGE('',*,*,#125,.T.);
#89=ORIENTED_EDGE('',*,*,#131,.T.);
#90=ORIENTED_EDGE('',*,*,#133,.T.);
#91=ORIENTED_EDGE('',*,*,#134,.F.);
#92=ORIENTED_EDGE('',*,*,#121,.T.);
#93=ORIENTED_EDGE('',*,*,#135,.T.);
#94=ORIENTED_EDGE('',*,*,#136,.T.);
#95=ORIENTED_EDGE('',*,*,#122,.F.);
#96=ORIENTED_EDGE('',*,*,#134,.T.);
#97=ORIENTED_EDGE('',*,*,#137,.F.);
#98=ORIENTED_EDGE('',*,*,#128,.F.);
#99=ORIENTED_EDGE('',*,*,#126,.F.);
#100=ORIENTED_EDGE('',*,*,#132,.T.);
#101=ORIENTED_EDGE('',*,*,#138,.F.);
#102=ORIENTED_EDGE('',*,*,#135,.F.);
#103=ORIENTED_EDGE('',*,*,#129,.F.);
#104=ORIENTED_EDGE('',*,*,#137,.T.);
#105=ORIENTED_EDGE('',*,*,#136,.F.);
#106=ORIENTED_EDGE('',*,*,#138,.T.);
#107=ORIENTED_EDGE('',*,*,#133,.F.);
#108=ORIENTED_EDGE('',*,*,#130,.T.);
#109=VERTEX_POINT('',#324);
#110=VERTEX_POINT('',#325);
#111=VERTEX_POINT('',#327);
#112=VERTEX_POINT('',#329);
#113=VERTEX_POINT('',#331);
#114=VERTEX_POINT('',#333);
#115=VERTEX_POINT('',#337);
#116=VERTEX_POINT('',#339);
#117=VERTEX_POINT('',#343);
#118=VERTEX_POINT('',#347);
#119=VERTEX_POINT('',#351);
#120=VERTEX_POINT('',#353);
#121=EDGE_CURVE('',#109,#110,#139,.T.);
#122=EDGE_CURVE('',#109,#111,#67,.T.);
#123=EDGE_CURVE('',#112,#111,#140,.T.);
#124=EDGE_CURVE('',#112,#113,#68,.T.);
#125=EDGE_CURVE('',#114,#113,#141,.T.);
#126=EDGE_CURVE('',#114,#110,#69,.T.);
#127=EDGE_CURVE('',#112,#115,#142,.T.);
#128=EDGE_CURVE('',#111,#116,#143,.T.);
#129=EDGE_CURVE('',#116,#115,#144,.T.);
#130=EDGE_CURVE('',#117,#115,#70,.T.);
#131=EDGE_CURVE('',#113,#117,#145,.T.);
#132=EDGE_CURVE('',#114,#118,#146,.T.);
#133=EDGE_CURVE('',#117,#118,#147,.T.);
#134=EDGE_CURVE('',#109,#119,#148,.T.);
#135=EDGE_CURVE('',#110,#120,#149,.T.);
#136=EDGE_CURVE('',#120,#119,#150,.T.);
#137=EDGE_CURVE('',#116,#119,#71,.T.);
#138=EDGE_CURVE('',#120,#118,#72,.T.);
#139=LINE('',#323,#151);
#140=LINE('',#328,#152);
#141=LINE('',#332,#153);
#142=LINE('',#336,#154);
#143=LINE('',#338,#155);
#144=LINE('',#340,#156);
#145=LINE('',#344,#157);
#146=LINE('',#346,#158);
#147=LINE('',#348,#159);
#148=LINE('',#350,#160);
#149=LINE('',#352,#161);
#150=LINE('',#354,#162);
#151=VECTOR('',#222,1.);
#152=VECTOR('',#225,1.);
#153=VECTOR('',#228,1.);
#154=VECTOR('',#233,1.);
#155=VECTOR('',#234,1.);
#156=VECTOR('',#235,1.);
#157=VECTOR('',#240,1.);
#158=VECTOR('',#243,1.);
#159=VECTOR('',#244,1.);
#160=VECTOR('',#247,1.);
#161=VECTOR('',#248,1.);
#162=VECTOR('',#249,1.);
#163=INVISIBILITY((#178));
#164=CURVE_STYLE('',#169,POSITIVE_LENGTH_MEASURE(0.18),#168);
#165=CURVE_STYLE('',#170,POSITIVE_LENGTH_MEASURE(0.13),#194);
#166=CURVE_STYLE('',#171,POSITIVE_LENGTH_MEASURE(0.18),#193);
#167=CURVE_STYLE('',#172,POSITIVE_LENGTH_MEASURE(0.18),#193);
#168=DRAUGHTING_PRE_DEFINED_COLOUR('blue');
#169=DRAUGHTING_PRE_DEFINED_CURVE_FONT('continuous');
#170=DRAUGHTING_PRE_DEFINED_CURVE_FONT('continuous');
#171=DRAUGHTING_PRE_DEFINED_CURVE_FONT('continuous');
#172=DRAUGHTING_PRE_DEFINED_CURVE_FONT('continuous');
#173=B_SPLINE_CURVE_WITH_KNOTS('CUTTING EDGE LINE',3,(#265,#266,#267,#268,
#269,#270,#271,#272,#273,#274,#275,#276,#277,#278,#279,#280,#281,#282,#283,
#284,#285,#286,#287,#288,#289,#290,#291,#292,#293,#294,#295,#296,#297,#298,
#299,#300,#301,#302,#303,#304,#305,#306,#307,#308,#309,#310,#311,#312,#313,
#314,#315,#316,#317,#318,#319),.UNSPECIFIED.,.T.,.F.,(4,1,1,1,1,1,1,1,1,
1,1,1,1,1,1,1,1,1,1,1,1,1,1,1,1,1,1,1,1,1,1,1,1,1,1,1,1,1,1,1,1,1,1,1,1,
1,1,1,1,1,1,1,4),(0.,0.00449633393750004,0.00899266787499997,0.0134890018125,
0.0179853357499999,0.0224816696875,0.026978003625,0.0314743375625,0.03372250453125,
0.034846588015625,0.0359706715,0.0364353006591147,0.0368999298182292,0.110311336958333,
0.184652002416667,0.332404075015104,0.332868704174219,0.333333333333333,
0.334457416816667,0.3355815003,0.337829667266667,0.3423260012,0.346822335133333,
0.351318669066667,0.355815003,0.360311336933333,0.364807670866667,0.367055837833333,
0.368179921316667,0.3693040048,0.369768633959167,0.370233263118333,0.443644670266667,
0.517985335733333,0.665737408348333,0.6662020375075,0.666666666666667,0.667790750148958,
0.66891483363125,0.671163000595833,0.675659334525,0.680155668454167,0.684652002383333,
0.6891483363125,0.693644670241667,0.698141004170833,0.700389171135417,0.701513254617708,
0.7026373381,0.703101967259219,0.703566596418437,0.85131866905,1.),
 .UNSPECIFIED.);
#174=PRESENTATION_LAYER_ASSIGNMENT('1','Layer 1',(#263,#264,#173,#197,#198,
#199,#33));
#175=STYLED_ITEM('',(#182),#263);
#176=STYLED_ITEM('',(#183),#264);
#177=STYLED_ITEM('',(#184),#173);
#178=STYLED_ITEM('',(#185),#197);
#179=STYLED_ITEM('',(#186),#198);
#180=STYLED_ITEM('',(#187),#199);
#181=STYLED_ITEM('',(#188),#33);
#182=PRESENTATION_STYLE_ASSIGNMENT((#189));
#183=PRESENTATION_STYLE_ASSIGNMENT((#190));
#184=PRESENTATION_STYLE_ASSIGNMENT((#164));
#185=PRESENTATION_STYLE_ASSIGNMENT((#165));
#186=PRESENTATION_STYLE_ASSIGNMENT((#166));
#187=PRESENTATION_STYLE_ASSIGNMENT((#167));
#188=PRESENTATION_STYLE_ASSIGNMENT((#28));
#189=POINT_STYLE('',#191,POSITIVE_LENGTH_MEASURE(3.),#193);
#190=POINT_STYLE('',#192,POSITIVE_LENGTH_MEASURE(3.),#193);
#191=PRE_DEFINED_POINT_MARKER_SYMBOL('plus');
#192=PRE_DEFINED_POINT_MARKER_SYMBOL('plus');
#193=COLOUR_RGB('Dark Red Pink',0.8,0.,0.2);
#194=COLOUR_RGB('Dark Cyan Teal',0.,0.8,0.6);
#195=COLOUR_RGB('Pale Gray',0.8,0.8,0.8);
#196=AXIS2_PLACEMENT_3D('',#262,#214,#215);
#197=AXIS2_PLACEMENT_3D('',#320,#216,#217);
#198=AXIS2_PLACEMENT_3D('MCS',#321,#218,#219);
#199=AXIS2_PLACEMENT_3D('PCS',#322,#220,#221);
#200=AXIS2_PLACEMENT_3D('',#326,#223,#224);
#201=AXIS2_PLACEMENT_3D('',#330,#226,#227);
#202=AXIS2_PLACEMENT_3D('',#334,#229,#230);
#203=AXIS2_PLACEMENT_3D('',#335,#231,#232);
#204=AXIS2_PLACEMENT_3D('',#341,#236,#237);
#205=AXIS2_PLACEMENT_3D('',#342,#238,#239);
#206=AXIS2_PLACEMENT_3D('',#345,#241,#242);
#207=AXIS2_PLACEMENT_3D('',#349,#245,#246);
#208=AXIS2_PLACEMENT_3D('',#355,#250,#251);
#209=AXIS2_PLACEMENT_3D('',#356,#252,#253);
#210=AXIS2_PLACEMENT_3D('',#357,#254,#255);
#211=AXIS2_PLACEMENT_3D('',#358,#256,#257);
#212=AXIS2_PLACEMENT_3D('',#359,#258,#259);
#213=AXIS2_PLACEMENT_3D('',#360,#260,#261);
#214=DIRECTION('',(0.,0.,1.));
#215=DIRECTION('',(1.,0.,0.));
#216=DIRECTION('',(0.,0.,1.));
#217=DIRECTION('',(1.,0.,0.));
#218=DIRECTION('',(0.,0.,1.));
#219=DIRECTION('',(0.,-1.,0.));
#220=DIRECTION('',(0.,0.,1.));
#221=DIRECTION('',(0.,-1.,0.));
#222=DIRECTION('',(0.866025403784439,0.499999999999999,0.));
#223=DIRECTION('',(0.,0.,-1.));
#224=DIRECTION('',(-0.999999999999999,0.,0.));
#225=DIRECTION('',(0.,-1.,0.));
#226=DIRECTION('',(0.,0.,-1.));
#227=DIRECTION('',(-0.999999999999999,0.,0.));
#228=DIRECTION('',(-0.866025403784439,0.5,0.));
#229=DIRECTION('',(0.,0.,-1.));
#230=DIRECTION('',(-0.999999999999999,0.,0.));
#231=DIRECTION('',(0.,0.,-1.));
#232=DIRECTION('',(-1.,0.,0.));
#233=DIRECTION('',(-0.190808995376545,0.,0.981627183447664));
#234=DIRECTION('',(-0.190808995376545,2.4980018054066E-16,0.981627183447664));
#235=DIRECTION('',(0.,1.,0.));
#236=DIRECTION('',(-0.981627183447664,0.,-0.190808995376545));
#237=DIRECTION('',(-0.190808995376545,0.,0.981627183447664));
#238=DIRECTION('',(0.,0.,1.));
#239=DIRECTION('',(1.,0.,0.));
#240=DIRECTION('',(0.0954044976882723,0.165245437266675,0.981627183447664));
#241=DIRECTION('',(0.,0.,1.));
#242=DIRECTION('',(1.,0.,1.96336329748558E-16));
#243=DIRECTION('',(0.0954044976882729,0.165245437266675,0.981627183447664));
#244=DIRECTION('',(0.866025403784439,-0.5,0.));
#245=DIRECTION('',(0.490813591723832,0.850114077911045,-0.190808995376545));
#246=DIRECTION('',(0.0954044976882724,0.165245437266675,0.981627183447664));
#247=DIRECTION('',(0.0954044976882721,-0.165245437266675,0.981627183447664));
#248=DIRECTION('',(0.0954044976882719,-0.165245437266676,0.981627183447664));
#249=DIRECTION('',(-0.866025403784439,-0.499999999999999,0.));
#250=DIRECTION('',(0.490813591723831,-0.850114077911045,-0.190808995376545));
#251=DIRECTION('',(0.0954044976882722,-0.165245437266675,0.981627183447664));
#252=DIRECTION('',(0.,0.,1.));
#253=DIRECTION('',(1.,0.,0.));
#254=DIRECTION('',(0.,0.,1.));
#255=DIRECTION('',(-0.499999999999999,0.86602540378444,1.96336329748558E-16));
#256=DIRECTION('',(0.,0.,1.));
#257=DIRECTION('',(0.999999999999999,0.,0.));
#258=DIRECTION('',(0.,0.,1.));
#259=DIRECTION('',(-0.500000000000003,-0.866025403784437,1.96336329748558E-16));
#260=DIRECTION('',(0.,0.,1.));
#261=DIRECTION('',(1.,0.,0.));
#262=CARTESIAN_POINT('',(0.,0.,0.));
#263=CARTESIAN_POINT('',(0.,0.,0.));
#264=CARTESIAN_POINT('',(-4.7625,8.24889197104677,0.));
#265=CARTESIAN_POINT('',(-3.57149999984973,7.56126780035517,0.));
#266=CARTESIAN_POINT('',(-3.63150652896675,7.59591258609402,0.));
#267=CARTESIAN_POINT('',(-3.76063687737201,7.64939936381242,0.));
#268=CARTESIAN_POINT('',(-3.9685000000798,7.67676576284302,0.));
#269=CARTESIAN_POINT('',(-4.17636312253146,7.64939936383803,0.));
#270=CARTESIAN_POINT('',(-4.37006106655498,7.56916779931426,0.));
#271=CARTESIAN_POINT('',(-4.53639261161938,7.44153624134248,0.));
#272=CARTESIAN_POINT('',(-4.66402416952678,7.27520469629809,0.));
#273=CARTESIAN_POINT('',(-4.73088380659987,7.11378974296121,0.));
#274=CARTESIAN_POINT('',(-4.75455704264066,6.99460323318338,0.));
#275=CARTESIAN_POINT('',(-4.76135973337591,6.92561045884923,0.));
#276=CARTESIAN_POINT('',(-4.76261782957629,6.88380601336182,0.));
#277=CARTESIAN_POINT('',(-4.7625,6.85216349349384,0.));
#278=CARTESIAN_POINT('',(-4.7625,5.70655622185433,0.));
#279=CARTESIAN_POINT('',(-4.7625,3.42250172402305,0.));
#280=CARTESIAN_POINT('',(-4.7625,-1.13128718074402,0.));
#281=CARTESIAN_POINT('',(-4.7625,-4.56094895021481,0.));
#282=CARTESIAN_POINT('',(-4.76250000000001,-6.85216349349384,0.));
#283=CARTESIAN_POINT('',(-4.76261782957606,-6.8838060133516,0.));
#284=CARTESIAN_POINT('',(-4.76135973337926,-6.92561045883829,0.));
#285=CARTESIAN_POINT('',(-4.75455704265709,-6.99460323312922,0.));
#286=CARTESIAN_POINT('',(-4.73088380663753,-7.11378974283398,0.));
#287=CARTESIAN_POINT('',(-4.66402416948479,-7.27520469640916,0.));
#288=CARTESIAN_POINT('',(-4.53639261151054,-7.44153624145975,0.));
#289=CARTESIAN_POINT('',(-4.37006106643582,-7.56916779938306,0.));
#290=CARTESIAN_POINT('',(-4.17636312237548,-7.64939936387365,0.));
#291=CARTESIAN_POINT('',(-3.96849999996262,-7.67676576282385,0.));
#292=CARTESIAN_POINT('',(-3.79528073128566,-7.65396043034852,0.));
#293=CARTESIAN_POINT('',(-3.68022556800926,-7.61486879926071,0.));
#294=CARTESIAN_POINT('',(-3.6170747273907,-7.58626371508445,0.));
#295=CARTESIAN_POINT('',(-3.58024196749621,-7.56645103560443,0.));
#296=CARTESIAN_POINT('',(-3.55289765625001,-7.55052773227031,0.));
#297=CARTESIAN_POINT('',(-2.56077265625001,-6.97772409645055,0.));
#298=CARTESIAN_POINT('',(-0.582723437500008,-5.83569684753492,0.));
#299=CARTESIAN_POINT('',(3.36097343749999,-3.55880239515139,0.));
#300=CARTESIAN_POINT('',(6.33114765624999,-1.843971510416,0.));
#301=CARTESIAN_POINT('',(8.31539765625,-0.698364238776487,0.));
#302=CARTESIAN_POINT('',(8.34285979706364,-0.682645022260253,0.));
#303=CARTESIAN_POINT('',(8.3784344607588,-0.660653256243607,0.));
#304=CARTESIAN_POINT('',(8.43478261061121,-0.620265566118658,0.));
#305=CARTESIAN_POINT('',(8.52616453779416,-0.540170687483557,0.));
#306=CARTESIAN_POINT('',(8.63252416956458,-0.401561066433878,0.));
#307=CARTESIAN_POINT('',(8.71275573404198,-0.207863122378289,0.));
#308=CARTESIAN_POINT('',(8.74012213299079,6.8782535223022E-11,0.));
#309=CARTESIAN_POINT('',(8.71275573399485,0.207863122531153,0.));
#310=CARTESIAN_POINT('',(8.63252416948939,0.401561066525743,0.));
#311=CARTESIAN_POINT('',(8.52616453788553,0.540170687387293,0.));
#312=CARTESIAN_POINT('',(8.43478261064991,0.620265566077312,0.));
#313=CARTESIAN_POINT('',(8.3784344607666,0.660653256235204,0.));
#314=CARTESIAN_POINT('',(8.34285979706167,0.682645022261779,0.));
#315=CARTESIAN_POINT('',(8.31539765625001,0.698364238776451,0.));
#316=CARTESIAN_POINT('',(6.33114765625001,1.84397151041597,0.));
#317=CARTESIAN_POINT('',(2.3688484375,4.13160603097113,0.));
#318=CARTESIAN_POINT('',(-1.58725,6.41566052880242,0.));
#319=CARTESIAN_POINT('',(-3.57149999984973,7.56126780035517,0.));
#320=CARTESIAN_POINT('',(0.,0.,0.));
#321=CARTESIAN_POINT('',(0.,0.,0.));
#322=CARTESIAN_POINT('',(-4.7625,8.24889197104677,0.));
#323=CARTESIAN_POINT('',(15.9285917690221,4.41086976303037,-3.18));
#324=CARTESIAN_POINT('',(-3.88056469152898,-7.02595205188814,-3.18));
#325=CARTESIAN_POINT('',(8.02493530847103,-0.152308422051086,-3.18));
#326=CARTESIAN_POINT('',(-3.96850000000001,-6.87364362983708,-3.18));
#327=CARTESIAN_POINT('',(-4.14437061694206,-6.87364362983708,-3.18));
#328=CARTESIAN_POINT('',(-4.14437061694206,-16.,-3.18));
#329=CARTESIAN_POINT('',(-4.14437061694206,6.87364362983709,-3.18));
#330=CARTESIAN_POINT('',(-3.9685,6.87364362983709,-3.18));
#331=CARTESIAN_POINT('',(-3.88056469152897,7.02595205188815,-3.18));
#332=CARTESIAN_POINT('',(15.9285917690221,-4.41086976303039,-3.18));
#333=CARTESIAN_POINT('',(8.02493530847103,0.152308422051039,-3.18));
#334=CARTESIAN_POINT('',(7.937,-2.34187669256869E-14,-3.18));
#335=CARTESIAN_POINT('',(0.,0.,-3.18));
#336=CARTESIAN_POINT('',(-3.9685,6.87364362983709,-4.08477588868043));
#337=CARTESIAN_POINT('',(-4.7625,6.87364362983709,0.));
#338=CARTESIAN_POINT('',(-3.96850000000001,-6.87364362983708,-4.08477588868043));
#339=CARTESIAN_POINT('',(-4.76250000000001,-6.87364362983708,0.));
#340=CARTESIAN_POINT('',(-4.7625,-16.,0.));
#341=CARTESIAN_POINT('',(-4.7625,-16.,0.));
#342=CARTESIAN_POINT('',(-3.9685,6.87364362983709,0.));
#343=CARTESIAN_POINT('',(-3.5715,7.56126780044193,4.33680868994202E-16));
#344=CARTESIAN_POINT('',(-3.9685,6.87364362983709,-4.08477588868043));
#345=CARTESIAN_POINT('',(-3.9685,6.87364362983709,-4.08477588868043));
#346=CARTESIAN_POINT('',(7.937,-2.38524477946811E-14,-4.08477588868043));
#347=CARTESIAN_POINT('',(8.334,0.68762417060482,0.));
#348=CARTESIAN_POINT('',(16.237656460551,-3.87555401447661,0.));
#349=CARTESIAN_POINT('',(16.237656460551,-3.87555401447661,0.));
#350=CARTESIAN_POINT('',(-3.96850000000001,-6.87364362983708,-4.08477588868043));
#351=CARTESIAN_POINT('',(-3.57150000000001,-7.56126780044193,0.));
#352=CARTESIAN_POINT('',(7.937,-2.29850860566927E-14,-4.08477588868043));
#353=CARTESIAN_POINT('',(8.334,-0.687624170604869,0.));
#354=CARTESIAN_POINT('',(16.237656460551,3.87555401447659,0.));
#355=CARTESIAN_POINT('',(16.237656460551,3.87555401447659,0.));
#356=CARTESIAN_POINT('',(-3.96850000000001,-6.87364362983708,0.));
#357=CARTESIAN_POINT('',(-3.96850000000001,-6.87364362983708,-4.08477588868043));
#358=CARTESIAN_POINT('',(7.937,-2.34187669256869E-14,0.));
#359=CARTESIAN_POINT('',(7.937,-2.34187669256869E-14,-4.08477588868043));
#360=CARTESIAN_POINT('',(0.,0.,0.));
#361=MECHANICAL_DESIGN_GEOMETRIC_PRESENTATION_REPRESENTATION('',(#175,#176,
#177,#178,#179,#180,#181),#362);
#362=(
GEOMETRIC_REPRESENTATION_CONTEXT(3)
GLOBAL_UNCERTAINTY_ASSIGNED_CONTEXT((#363))
GLOBAL_UNIT_ASSIGNED_CONTEXT((#369,#365,#364))
REPRESENTATION_CONTEXT('aaa336261_a','TOP_LEVEL_ASSEMBLY_PART')
);
#363=UNCERTAINTY_MEASURE_WITH_UNIT(LENGTH_MEASURE(2.E-5),#369,
'DISTANCE_ACCURACY_VALUE','Maximum Tolerance applied to model');
#364=(
NAMED_UNIT(*)
SI_UNIT($,.STERADIAN.)
SOLID_ANGLE_UNIT()
);
#365=(
CONVERSION_BASED_UNIT('DEGREE',#367)
NAMED_UNIT(#366)
PLANE_ANGLE_UNIT()
);
#366=DIMENSIONAL_EXPONENTS(0.,0.,0.,0.,0.,0.,0.);
#367=PLANE_ANGLE_MEASURE_WITH_UNIT(PLANE_ANGLE_MEASURE(0.0174532925),#368);
#368=(
NAMED_UNIT(*)
PLANE_ANGLE_UNIT()
SI_UNIT($,.RADIAN.)
);
#369=(
LENGTH_UNIT()
NAMED_UNIT(*)
SI_UNIT(.MILLI.,.METRE.)
);
ENDSEC;
END-ISO-10303-21;
