ISO-10303-21;
HEADER;
/* Generated by software containing ST-Developer
 * from STEP Tools, Inc. (www.steptools.com) 
 */
/* OPTION: using custom schema-name function */

FILE_DESCRIPTION(
/* description */ (''),
/* implementation_level */ '2;1');

FILE_NAME(
/* name */ 'aaa336922_a.stp',
/* time_stamp */ '2019-09-16T13:26:35+02:00',
/* author */ (''),
/* organization */ ('SMS'),
/* preprocessor_version */ 'ST-DEVELOPER v16.7',
/* originating_system */ 'SIEMENS PLM Software NX 12.0',
/* authorisation */ '');

FILE_SCHEMA (('AUTOMOTIVE_DESIGN { 1 0 10303 214 3 1 1 1 }'));
ENDSEC;

DATA;
#10=CONSTRUCTIVE_GEOMETRY_REPRESENTATION_RELATIONSHIP(
'supplemental geometry','',#26,#11);
#11=CONSTRUCTIVE_GEOMETRY_REPRESENTATION('supplemental geometry',(#284,
#285),#540);
#12=GEOMETRICALLY_BOUNDED_WIREFRAME_SHAPE_REPRESENTATION(
'AAA336922_A-None',(#27),#540);
#13=SHAPE_REPRESENTATION_RELATIONSHIP('None',
'relationship between AAA336922_A-None and AAA336922_A-None',#26,#15);
#14=SHAPE_REPRESENTATION_RELATIONSHIP('None',
'relationship between AAA336922_A-None and AAA336922_A-None',#26,#12);
#15=ADVANCED_BREP_SHAPE_REPRESENTATION('AAA336922_A-None',(#33),#540);
#16=SHAPE_DEFINITION_REPRESENTATION(#17,#26);
#17=PRODUCT_DEFINITION_SHAPE('','',#18);
#18=PRODUCT_DEFINITION(' ','',#20,#19);
#19=PRODUCT_DEFINITION_CONTEXT('part definition',#25,'design');
#20=PRODUCT_DEFINITION_FORMATION_WITH_SPECIFIED_SOURCE(' ',' ',#22,
 .NOT_KNOWN.);
#21=PRODUCT_RELATED_PRODUCT_CATEGORY('part','',(#22));
#22=PRODUCT('AAA336922_A','AAA336922_A','MASTER_INSERT',(#23));
#23=PRODUCT_CONTEXT(' ',#25,'mechanical');
#24=APPLICATION_PROTOCOL_DEFINITION('international standard',
'automotive_design',2010,#25);
#25=APPLICATION_CONTEXT(
'core data for automotive mechanical design processes');
#26=SHAPE_REPRESENTATION('AAA336922_A-None',(#283),#540);
#27=GEOMETRIC_CURVE_SET('None',(#390,#391,#263));
#28=SURFACE_STYLE_USAGE(.BOTH.,#29);
#29=SURFACE_SIDE_STYLE('',(#30));
#30=SURFACE_STYLE_FILL_AREA(#31);
#31=FILL_AREA_STYLE('',(#32));
#32=FILL_AREA_STYLE_COLOUR('',#282);
#33=MANIFOLD_SOLID_BREP('CUT',#34);
#34=CLOSED_SHELL('',(#56,#57,#58,#59,#60,#61,#62,#63,#64,#65,#66,#67,#68,
#69));
#35=TOROIDAL_SURFACE('',#309,5.51596827050775,0.5);
#36=TOROIDAL_SURFACE('',#310,8.5,4.);
#37=CYLINDRICAL_SURFACE('',#307,4.5);
#38=FACE_BOUND('',#86,.T.);
#39=FACE_BOUND('',#87,.T.);
#40=FACE_BOUND('',#93,.T.);
#41=FACE_BOUND('',#94,.T.);
#42=FACE_BOUND('',#95,.T.);
#43=FACE_BOUND('',#96,.T.);
#44=FACE_BOUND('',#97,.T.);
#45=FACE_BOUND('',#98,.T.);
#46=FACE_BOUND('',#99,.T.);
#47=FACE_BOUND('',#100,.T.);
#48=FACE_BOUND('',#101,.T.);
#49=FACE_BOUND('',#102,.T.);
#50=PLANE('',#289);
#51=PLANE('',#290);
#52=PLANE('',#297);
#53=PLANE('',#301);
#54=PLANE('',#311);
#55=PLANE('',#312);
#56=ADVANCED_FACE('',(#75),#70,.T.);
#57=ADVANCED_FACE('',(#76),#50,.F.);
#58=ADVANCED_FACE('',(#77),#51,.F.);
#59=ADVANCED_FACE('',(#38,#39),#71,.F.);
#60=ADVANCED_FACE('',(#78),#72,.T.);
#61=ADVANCED_FACE('',(#79),#52,.F.);
#62=ADVANCED_FACE('',(#80),#73,.T.);
#63=ADVANCED_FACE('',(#81),#53,.F.);
#64=ADVANCED_FACE('',(#82),#74,.T.);
#65=ADVANCED_FACE('',(#40,#41),#37,.F.);
#66=ADVANCED_FACE('',(#42,#43),#35,.F.);
#67=ADVANCED_FACE('',(#44,#45),#36,.T.);
#68=ADVANCED_FACE('',(#46,#47),#54,.T.);
#69=ADVANCED_FACE('',(#48,#49),#55,.F.);
#70=CONICAL_SURFACE('',#288,3.71177136684415,6.99999999999998);
#71=CONICAL_SURFACE('',#293,6.01475029563766,3.99999999999981);
#72=CONICAL_SURFACE('',#296,3.71177136684415,6.99999999999998);
#73=CONICAL_SURFACE('',#300,3.71177136684415,6.99999999999998);
#74=CONICAL_SURFACE('',#304,3.71177136684415,6.99999999999998);
#75=FACE_OUTER_BOUND('',#83,.T.);
#76=FACE_OUTER_BOUND('',#84,.T.);
#77=FACE_OUTER_BOUND('',#85,.T.);
#78=FACE_OUTER_BOUND('',#88,.T.);
#79=FACE_OUTER_BOUND('',#89,.T.);
#80=FACE_OUTER_BOUND('',#90,.T.);
#81=FACE_OUTER_BOUND('',#91,.T.);
#82=FACE_OUTER_BOUND('',#92,.T.);
#83=EDGE_LOOP('',(#135,#136,#137,#138));
#84=EDGE_LOOP('',(#139,#140,#141,#142));
#85=EDGE_LOOP('',(#143,#144,#145,#146));
#86=EDGE_LOOP('',(#147));
#87=EDGE_LOOP('',(#148));
#88=EDGE_LOOP('',(#149,#150,#151,#152));
#89=EDGE_LOOP('',(#153,#154,#155,#156));
#90=EDGE_LOOP('',(#157,#158,#159,#160));
#91=EDGE_LOOP('',(#161,#162,#163,#164));
#92=EDGE_LOOP('',(#165,#166,#167,#168));
#93=EDGE_LOOP('',(#169));
#94=EDGE_LOOP('',(#170));
#95=EDGE_LOOP('',(#171));
#96=EDGE_LOOP('',(#172));
#97=EDGE_LOOP('',(#173));
#98=EDGE_LOOP('',(#174));
#99=EDGE_LOOP('',(#175));
#100=EDGE_LOOP('',(#176,#177,#178,#179,#180,#181,#182,#183));
#101=EDGE_LOOP('',(#184,#185,#186,#187,#188,#189,#190,#191));
#102=EDGE_LOOP('',(#192));
#103=LINE('',#478,#119);
#104=LINE('',#482,#120);
#105=LINE('',#484,#121);
#106=LINE('',#486,#122);
#107=LINE('',#488,#123);
#108=LINE('',#490,#124);
#109=LINE('',#493,#125);
#110=LINE('',#494,#126);
#111=LINE('',#505,#127);
#112=LINE('',#507,#128);
#113=LINE('',#510,#129);
#114=LINE('',#511,#130);
#115=LINE('',#517,#131);
#116=LINE('',#519,#132);
#117=LINE('',#522,#133);
#118=LINE('',#523,#134);
#119=VECTOR('',#321,1.);
#120=VECTOR('',#324,1.);
#121=VECTOR('',#327,1.);
#122=VECTOR('',#328,1.);
#123=VECTOR('',#329,1.);
#124=VECTOR('',#332,1.);
#125=VECTOR('',#333,1.);
#126=VECTOR('',#334,1.);
#127=VECTOR('',#347,1.);
#128=VECTOR('',#350,1.);
#129=VECTOR('',#351,1.);
#130=VECTOR('',#352,1.);
#131=VECTOR('',#359,1.);
#132=VECTOR('',#362,1.);
#133=VECTOR('',#363,1.);
#134=VECTOR('',#364,1.);
#135=ORIENTED_EDGE('',*,*,#214,.F.);
#136=ORIENTED_EDGE('',*,*,#215,.F.);
#137=ORIENTED_EDGE('',*,*,#216,.T.);
#138=ORIENTED_EDGE('',*,*,#217,.T.);
#139=ORIENTED_EDGE('',*,*,#215,.T.);
#140=ORIENTED_EDGE('',*,*,#218,.T.);
#141=ORIENTED_EDGE('',*,*,#219,.F.);
#142=ORIENTED_EDGE('',*,*,#220,.F.);
#143=ORIENTED_EDGE('',*,*,#221,.T.);
#144=ORIENTED_EDGE('',*,*,#222,.T.);
#145=ORIENTED_EDGE('',*,*,#217,.F.);
#146=ORIENTED_EDGE('',*,*,#223,.F.);
#147=ORIENTED_EDGE('',*,*,#224,.T.);
#148=ORIENTED_EDGE('',*,*,#225,.T.);
#149=ORIENTED_EDGE('',*,*,#226,.F.);
#150=ORIENTED_EDGE('',*,*,#221,.F.);
#151=ORIENTED_EDGE('',*,*,#227,.T.);
#152=ORIENTED_EDGE('',*,*,#228,.T.);
#153=ORIENTED_EDGE('',*,*,#229,.T.);
#154=ORIENTED_EDGE('',*,*,#230,.T.);
#155=ORIENTED_EDGE('',*,*,#228,.F.);
#156=ORIENTED_EDGE('',*,*,#231,.F.);
#157=ORIENTED_EDGE('',*,*,#232,.F.);
#158=ORIENTED_EDGE('',*,*,#229,.F.);
#159=ORIENTED_EDGE('',*,*,#233,.T.);
#160=ORIENTED_EDGE('',*,*,#234,.T.);
#161=ORIENTED_EDGE('',*,*,#235,.T.);
#162=ORIENTED_EDGE('',*,*,#236,.T.);
#163=ORIENTED_EDGE('',*,*,#234,.F.);
#164=ORIENTED_EDGE('',*,*,#237,.F.);
#165=ORIENTED_EDGE('',*,*,#238,.F.);
#166=ORIENTED_EDGE('',*,*,#235,.F.);
#167=ORIENTED_EDGE('',*,*,#239,.T.);
#168=ORIENTED_EDGE('',*,*,#219,.T.);
#169=ORIENTED_EDGE('',*,*,#240,.F.);
#170=ORIENTED_EDGE('',*,*,#241,.F.);
#171=ORIENTED_EDGE('',*,*,#242,.T.);
#172=ORIENTED_EDGE('',*,*,#224,.F.);
#173=ORIENTED_EDGE('',*,*,#242,.F.);
#174=ORIENTED_EDGE('',*,*,#241,.T.);
#175=ORIENTED_EDGE('',*,*,#225,.F.);
#176=ORIENTED_EDGE('',*,*,#216,.F.);
#177=ORIENTED_EDGE('',*,*,#220,.T.);
#178=ORIENTED_EDGE('',*,*,#239,.F.);
#179=ORIENTED_EDGE('',*,*,#237,.T.);
#180=ORIENTED_EDGE('',*,*,#233,.F.);
#181=ORIENTED_EDGE('',*,*,#231,.T.);
#182=ORIENTED_EDGE('',*,*,#227,.F.);
#183=ORIENTED_EDGE('',*,*,#223,.T.);
#184=ORIENTED_EDGE('',*,*,#214,.T.);
#185=ORIENTED_EDGE('',*,*,#222,.F.);
#186=ORIENTED_EDGE('',*,*,#226,.T.);
#187=ORIENTED_EDGE('',*,*,#230,.F.);
#188=ORIENTED_EDGE('',*,*,#232,.T.);
#189=ORIENTED_EDGE('',*,*,#236,.F.);
#190=ORIENTED_EDGE('',*,*,#238,.T.);
#191=ORIENTED_EDGE('',*,*,#218,.F.);
#192=ORIENTED_EDGE('',*,*,#240,.T.);
#193=VERTEX_POINT('',#476);
#194=VERTEX_POINT('',#477);
#195=VERTEX_POINT('',#479);
#196=VERTEX_POINT('',#481);
#197=VERTEX_POINT('',#485);
#198=VERTEX_POINT('',#487);
#199=VERTEX_POINT('',#491);
#200=VERTEX_POINT('',#492);
#201=VERTEX_POINT('',#497);
#202=VERTEX_POINT('',#499);
#203=VERTEX_POINT('',#502);
#204=VERTEX_POINT('',#504);
#205=VERTEX_POINT('',#508);
#206=VERTEX_POINT('',#509);
#207=VERTEX_POINT('',#514);
#208=VERTEX_POINT('',#516);
#209=VERTEX_POINT('',#520);
#210=VERTEX_POINT('',#521);
#211=VERTEX_POINT('',#529);
#212=VERTEX_POINT('',#531);
#213=VERTEX_POINT('',#534);
#214=EDGE_CURVE('',#193,#194,#243,.T.);
#215=EDGE_CURVE('',#195,#193,#103,.T.);
#216=EDGE_CURVE('',#195,#196,#244,.T.);
#217=EDGE_CURVE('',#196,#194,#104,.T.);
#218=EDGE_CURVE('',#193,#197,#105,.T.);
#219=EDGE_CURVE('',#198,#197,#106,.T.);
#220=EDGE_CURVE('',#195,#198,#107,.T.);
#221=EDGE_CURVE('',#199,#200,#108,.T.);
#222=EDGE_CURVE('',#200,#194,#109,.T.);
#223=EDGE_CURVE('',#199,#196,#110,.T.);
#224=EDGE_CURVE('',#201,#201,#245,.T.);
#225=EDGE_CURVE('',#202,#202,#246,.T.);
#226=EDGE_CURVE('',#200,#203,#247,.T.);
#227=EDGE_CURVE('',#199,#204,#248,.T.);
#228=EDGE_CURVE('',#204,#203,#111,.T.);
#229=EDGE_CURVE('',#205,#206,#112,.T.);
#230=EDGE_CURVE('',#206,#203,#113,.T.);
#231=EDGE_CURVE('',#205,#204,#114,.T.);
#232=EDGE_CURVE('',#206,#207,#249,.T.);
#233=EDGE_CURVE('',#205,#208,#250,.T.);
#234=EDGE_CURVE('',#208,#207,#115,.T.);
#235=EDGE_CURVE('',#209,#210,#116,.T.);
#236=EDGE_CURVE('',#210,#207,#117,.T.);
#237=EDGE_CURVE('',#209,#208,#118,.T.);
#238=EDGE_CURVE('',#210,#197,#251,.T.);
#239=EDGE_CURVE('',#209,#198,#252,.T.);
#240=EDGE_CURVE('',#211,#211,#253,.T.);
#241=EDGE_CURVE('',#212,#212,#254,.T.);
#242=EDGE_CURVE('',#213,#213,#255,.T.);
#243=CIRCLE('',#286,2.15609098020435);
#244=CIRCLE('',#287,3.325);
#245=CIRCLE('',#291,6.01475029563766);
#246=CIRCLE('',#292,6.22026945762205);
#247=CIRCLE('',#294,2.15609098020435);
#248=CIRCLE('',#295,3.325);
#249=CIRCLE('',#298,2.15609098020435);
#250=CIRCLE('',#299,3.325);
#251=CIRCLE('',#302,2.15609098020435);
#252=CIRCLE('',#303,3.325);
#253=CIRCLE('',#305,4.5);
#254=CIRCLE('',#306,4.5);
#255=CIRCLE('',#308,5.84752735156245);
#256=CURVE_STYLE('',#260,POSITIVE_LENGTH_MEASURE(0.18),#259);
#257=CURVE_STYLE('',#261,POSITIVE_LENGTH_MEASURE(0.18),#281);
#258=CURVE_STYLE('',#262,POSITIVE_LENGTH_MEASURE(0.18),#281);
#259=DRAUGHTING_PRE_DEFINED_COLOUR('blue');
#260=DRAUGHTING_PRE_DEFINED_CURVE_FONT('continuous');
#261=DRAUGHTING_PRE_DEFINED_CURVE_FONT('continuous');
#262=DRAUGHTING_PRE_DEFINED_CURVE_FONT('continuous');
#263=B_SPLINE_CURVE_WITH_KNOTS('CUTTING EDGE LINE',3,(#392,#393,#394,#395,
#396,#397,#398,#399,#400,#401,#402,#403,#404,#405,#406,#407,#408,#409,#410,
#411,#412,#413,#414,#415,#416,#417,#418,#419,#420,#421,#422,#423,#424,#425,
#426,#427,#428,#429,#430,#431,#432,#433,#434,#435,#436,#437,#438,#439,#440,
#441,#442,#443,#444,#445,#446,#447,#448,#449,#450,#451,#452,#453,#454,#455,
#456,#457,#458,#459,#460,#461,#462,#463,#464,#465,#466,#467,#468,#469,#470,
#471,#472),.UNSPECIFIED.,.T.,.F.,(1,1,2,1,1,1,1,1,1,1,1,1,1,1,1,1,1,1,1,
1,1,1,1,1,1,1,1,1,1,1,1,1,1,1,1,1,1,1,1,1,1,1,1,1,1,1,1,1,1,1,1,1,1,1,1,
1,1,1,1,1,1,1,1,1,1,1,1,1,1,1,1,1,1,1,1,1,1,1,1,1,2,1,1),(-0.00882892959999992,
-0.00441446479999996,0.,0.1073421408,0.21334250484,0.21401339322,0.2146842816,
0.2150291616625,0.2157878978,0.216891514,0.2190987464,0.2235132112,0.227927676,
0.2323421408,0.2367566056,0.2411710704,0.2455855352,0.2477927676,0.2488963838,
0.2496551199375,0.25,0.25067088838,0.25134177676,0.3573421408,0.4110132112,
0.46367794903,0.464181115315,0.4646842816,0.46496018565,0.4657878978,0.466891514,
0.4690987464,0.4735132112,0.477927676,0.4823421408,0.4867566056,0.4911710704,
0.4955855352,0.4977927676,0.4988963838,0.4996551199375,0.5,0.50067088838,
0.50134177676,0.6073421408,0.6610132112,0.71367794903,0.714181115315,0.7146842816,
0.71496018565,0.7157878978,0.716891514,0.7190987464,0.7235132112,0.727927676,
0.7323421408,0.7367566056,0.7411710704,0.7455855352,0.7477927676,0.7488963838,
0.7496551199375,0.75,0.75067088838,0.75134177676,0.8573421408,0.9110132112,
0.96367794903,0.964181115315,0.9646842816,0.96496018565,0.9657878978,0.966891514,
0.9690987464,0.9735132112,0.977927676,0.9823421408,0.9867566056,0.9911710704,
0.9955855352,1.,1.1073421408,1.21334250484),.UNSPECIFIED.);
#264=PRESENTATION_LAYER_ASSIGNMENT('1','Layer 1',(#390,#391,#263,#284,#285,
#33));
#265=STYLED_ITEM('',(#271),#390);
#266=STYLED_ITEM('',(#272),#391);
#267=STYLED_ITEM('',(#273),#263);
#268=STYLED_ITEM('',(#274),#284);
#269=STYLED_ITEM('',(#275),#285);
#270=STYLED_ITEM('',(#276),#33);
#271=PRESENTATION_STYLE_ASSIGNMENT((#277));
#272=PRESENTATION_STYLE_ASSIGNMENT((#278));
#273=PRESENTATION_STYLE_ASSIGNMENT((#256));
#274=PRESENTATION_STYLE_ASSIGNMENT((#257));
#275=PRESENTATION_STYLE_ASSIGNMENT((#258));
#276=PRESENTATION_STYLE_ASSIGNMENT((#28));
#277=POINT_STYLE('',#279,POSITIVE_LENGTH_MEASURE(3.),#281);
#278=POINT_STYLE('',#280,POSITIVE_LENGTH_MEASURE(3.),#281);
#279=PRE_DEFINED_POINT_MARKER_SYMBOL('plus');
#280=PRE_DEFINED_POINT_MARKER_SYMBOL('plus');
#281=COLOUR_RGB('Medium Maroon',0.6,0.4,0.4);
#282=COLOUR_RGB('Light Gray',0.8,0.8,0.8);
#283=AXIS2_PLACEMENT_3D('',#389,#313,#314);
#284=AXIS2_PLACEMENT_3D('MCS',#473,#315,#316);
#285=AXIS2_PLACEMENT_3D('PCS',#474,#317,#318);
#286=AXIS2_PLACEMENT_3D('',#475,#319,#320);
#287=AXIS2_PLACEMENT_3D('',#480,#322,#323);
#288=AXIS2_PLACEMENT_3D('',#483,#325,#326);
#289=AXIS2_PLACEMENT_3D('',#489,#330,#331);
#290=AXIS2_PLACEMENT_3D('',#495,#335,#336);
#291=AXIS2_PLACEMENT_3D('',#496,#337,#338);
#292=AXIS2_PLACEMENT_3D('',#498,#339,#340);
#293=AXIS2_PLACEMENT_3D('',#500,#341,#342);
#294=AXIS2_PLACEMENT_3D('',#501,#343,#344);
#295=AXIS2_PLACEMENT_3D('',#503,#345,#346);
#296=AXIS2_PLACEMENT_3D('',#506,#348,#349);
#297=AXIS2_PLACEMENT_3D('',#512,#353,#354);
#298=AXIS2_PLACEMENT_3D('',#513,#355,#356);
#299=AXIS2_PLACEMENT_3D('',#515,#357,#358);
#300=AXIS2_PLACEMENT_3D('',#518,#360,#361);
#301=AXIS2_PLACEMENT_3D('',#524,#365,#366);
#302=AXIS2_PLACEMENT_3D('',#525,#367,#368);
#303=AXIS2_PLACEMENT_3D('',#526,#369,#370);
#304=AXIS2_PLACEMENT_3D('',#527,#371,#372);
#305=AXIS2_PLACEMENT_3D('',#528,#373,#374);
#306=AXIS2_PLACEMENT_3D('',#530,#375,#376);
#307=AXIS2_PLACEMENT_3D('',#532,#377,#378);
#308=AXIS2_PLACEMENT_3D('',#533,#379,#380);
#309=AXIS2_PLACEMENT_3D('',#535,#381,#382);
#310=AXIS2_PLACEMENT_3D('',#536,#383,#384);
#311=AXIS2_PLACEMENT_3D('',#537,#385,#386);
#312=AXIS2_PLACEMENT_3D('',#538,#387,#388);
#313=DIRECTION('',(0.,0.,1.));
#314=DIRECTION('',(1.,0.,0.));
#315=DIRECTION('',(0.,0.,1.));
#316=DIRECTION('',(1.,0.,0.));
#317=DIRECTION('',(0.,0.,1.));
#318=DIRECTION('',(1.,0.,0.));
#319=DIRECTION('',(0.,0.,-1.));
#320=DIRECTION('',(1.,0.,0.));
#321=DIRECTION('',(0.121869343405147,0.,-0.992546151641322));
#322=DIRECTION('',(0.,0.,-1.));
#323=DIRECTION('',(1.,0.,0.));
#324=DIRECTION('',(2.70604302088689E-17,-0.121869343405147,-0.992546151641322));
#325=DIRECTION('',(0.,0.,1.));
#326=DIRECTION('',(1.,0.,-1.09709013366653E-16));
#327=DIRECTION('',(0.,-1.,0.));
#328=DIRECTION('',(0.121869343405147,2.70604302088689E-17,-0.992546151641322));
#329=DIRECTION('',(0.,-1.,0.));
#330=DIRECTION('',(0.992546151641322,0.,0.121869343405147));
#331=DIRECTION('',(0.121869343405147,0.,-0.992546151641322));
#332=DIRECTION('',(0.,-0.121869343405147,-0.992546151641322));
#333=DIRECTION('',(-1.,-2.22044604925031E-16,0.));
#334=DIRECTION('',(-1.,-2.22044604925031E-16,0.));
#335=DIRECTION('',(2.20389518111058E-16,-0.992546151641322,0.121869343405147));
#336=DIRECTION('',(2.68882138776405E-17,-0.121869343405147,-0.992546151641322));
#337=DIRECTION('',(0.,0.,-1.));
#338=DIRECTION('',(1.,0.,0.));
#339=DIRECTION('',(0.,0.,1.));
#340=DIRECTION('',(1.,0.,0.));
#341=DIRECTION('',(0.,0.,1.));
#342=DIRECTION('',(1.,0.,3.1980022464111E-16));
#343=DIRECTION('',(0.,0.,-1.));
#344=DIRECTION('',(1.,0.,0.));
#345=DIRECTION('',(0.,0.,-1.));
#346=DIRECTION('',(1.,0.,0.));
#347=DIRECTION('',(-0.121869343405147,-2.70604302088689E-17,-0.992546151641322));
#348=DIRECTION('',(0.,0.,1.));
#349=DIRECTION('',(0.,-1.,-1.09709013366653E-16));
#350=DIRECTION('',(-0.121869343405147,0.,-0.992546151641322));
#351=DIRECTION('',(-2.22044604925031E-16,1.,0.));
#352=DIRECTION('',(-2.22044604925031E-16,1.,0.));
#353=DIRECTION('',(-0.992546151641322,-2.20389518111058E-16,0.121869343405147));
#354=DIRECTION('',(-0.121869343405147,-2.68882138776405E-17,-0.992546151641322));
#355=DIRECTION('',(0.,0.,-1.));
#356=DIRECTION('',(1.,0.,0.));
#357=DIRECTION('',(0.,0.,-1.));
#358=DIRECTION('',(1.,0.,0.));
#359=DIRECTION('',(-2.70604302088689E-17,0.121869343405147,-0.992546151641322));
#360=DIRECTION('',(0.,0.,1.));
#361=DIRECTION('',(-1.,0.,-1.09709013366653E-16));
#362=DIRECTION('',(0.,0.121869343405147,-0.992546151641322));
#363=DIRECTION('',(1.,2.22044604925031E-16,0.));
#364=DIRECTION('',(1.,2.22044604925031E-16,0.));
#365=DIRECTION('',(-2.20389518111058E-16,0.992546151641322,0.121869343405147));
#366=DIRECTION('',(-2.68882138776405E-17,0.121869343405147,-0.992546151641322));
#367=DIRECTION('',(0.,0.,-1.));
#368=DIRECTION('',(1.,0.,0.));
#369=DIRECTION('',(0.,0.,-1.));
#370=DIRECTION('',(1.,0.,0.));
#371=DIRECTION('',(0.,0.,1.));
#372=DIRECTION('',(0.,1.,-1.09709013366653E-16));
#373=DIRECTION('',(0.,0.,1.));
#374=DIRECTION('',(1.,0.,0.));
#375=DIRECTION('',(0.,0.,-1.));
#376=DIRECTION('',(1.,0.,0.));
#377=DIRECTION('',(0.,0.,1.));
#378=DIRECTION('',(1.,0.,0.));
#379=DIRECTION('',(0.,0.,-1.));
#380=DIRECTION('',(1.,0.,0.));
#381=DIRECTION('',(0.,0.,1.));
#382=DIRECTION('',(1.,0.,0.));
#383=DIRECTION('',(0.,0.,1.));
#384=DIRECTION('',(1.,0.,0.));
#385=DIRECTION('',(0.,0.,1.));
#386=DIRECTION('',(1.,0.,0.));
#387=DIRECTION('',(0.,0.,1.));
#388=DIRECTION('',(1.,0.,0.));
#389=CARTESIAN_POINT('',(0.,0.,0.));
#390=CARTESIAN_POINT('',(0.,0.,0.));
#391=CARTESIAN_POINT('',(-19.2,-19.2,0.));
#392=CARTESIAN_POINT('',(-16.092620741108,-19.2,0.));
#393=CARTESIAN_POINT('',(-10.5833333333333,-19.2,0.));
#394=CARTESIAN_POINT('',(-0.0661458333333336,-19.2,0.));
#395=CARTESIAN_POINT('',(10.4841145833333,-19.2,0.));
#396=CARTESIAN_POINT('',(15.77578125,-19.2,0.));
#397=CARTESIAN_POINT('',(15.8589287200121,-19.2001272420782,0.));
#398=CARTESIAN_POINT('',(15.9464067521168,-19.1995813717362,0.));
#399=CARTESIAN_POINT('',(16.0551758695144,-19.1960689195524,0.));
#400=CARTESIAN_POINT('',(16.2553116157749,-19.1812969767516,0.));
#401=CARTESIAN_POINT('',(16.6324847423875,-19.1253939988844,0.));
#402=CARTESIAN_POINT('',(17.1556247600554,-18.9667016643676,0.));
#403=CARTESIAN_POINT('',(17.7341786959756,-18.6574575506038,0.));
#404=CARTESIAN_POINT('',(18.2412860094278,-18.2412860095872,0.));
#405=CARTESIAN_POINT('',(18.6574575503698,-17.7341786963342,0.));
#406=CARTESIAN_POINT('',(18.9667016642937,-17.155624760286,0.));
#407=CARTESIAN_POINT('',(19.1253939988961,-16.6324847423661,0.));
#408=CARTESIAN_POINT('',(19.1812969767594,-16.2553116157565,0.));
#409=CARTESIAN_POINT('',(19.1960689195546,-16.0551758695088,0.));
#410=CARTESIAN_POINT('',(19.1995813717365,-15.9464067521161,0.));
#411=CARTESIAN_POINT('',(19.2001272420781,-15.8589287200123,0.));
#412=CARTESIAN_POINT('',(19.2,-15.77578125,0.));
#413=CARTESIAN_POINT('',(19.2,-10.4841145833333,0.));
#414=CARTESIAN_POINT('',(19.2,-2.5796875,0.));
#415=CARTESIAN_POINT('',(19.2,7.887890625,0.));
#416=CARTESIAN_POINT('',(19.2,13.1547526041667,0.));
#417=CARTESIAN_POINT('',(19.2,15.8005859375,0.));
#418=CARTESIAN_POINT('',(19.2000763452469,15.8637966185871,0.));
#419=CARTESIAN_POINT('',(19.199665097389,15.9430064387488,0.));
#420=CARTESIAN_POINT('',(19.1963192914642,16.0517837382218,0.));
#421=CARTESIAN_POINT('',(19.1812969767516,16.2553116157749,0.));
#422=CARTESIAN_POINT('',(19.1253939988844,16.6324847423875,0.));
#423=CARTESIAN_POINT('',(18.9667016643676,17.1556247600554,0.));
#424=CARTESIAN_POINT('',(18.6574575506038,17.7341786959756,0.));
#425=CARTESIAN_POINT('',(18.2412860095872,18.2412860094278,0.));
#426=CARTESIAN_POINT('',(17.7341786963342,18.6574575503698,0.));
#427=CARTESIAN_POINT('',(17.155624760286,18.9667016642937,0.));
#428=CARTESIAN_POINT('',(16.6324847423661,19.1253939988961,0.));
#429=CARTESIAN_POINT('',(16.2553116157565,19.1812969767594,0.));
#430=CARTESIAN_POINT('',(16.0551758695088,19.1960689195546,0.));
#431=CARTESIAN_POINT('',(15.9464067521161,19.1995813717365,0.));
#432=CARTESIAN_POINT('',(15.8589287200123,19.2001272420781,0.));
#433=CARTESIAN_POINT('',(15.77578125,19.2,0.));
#434=CARTESIAN_POINT('',(10.4841145833333,19.2,0.));
#435=CARTESIAN_POINT('',(2.5796875,19.2,0.));
#436=CARTESIAN_POINT('',(-7.887890625,19.2,0.));
#437=CARTESIAN_POINT('',(-13.1547526041667,19.2,0.));
#438=CARTESIAN_POINT('',(-15.8005859375,19.2,0.));
#439=CARTESIAN_POINT('',(-15.8637966185871,19.2000763452469,0.));
#440=CARTESIAN_POINT('',(-15.9430064387488,19.199665097389,0.));
#441=CARTESIAN_POINT('',(-16.0517837382218,19.1963192914642,0.));
#442=CARTESIAN_POINT('',(-16.2553116157749,19.1812969767516,0.));
#443=CARTESIAN_POINT('',(-16.6324847423875,19.1253939988844,0.));
#444=CARTESIAN_POINT('',(-17.1556247600554,18.9667016643676,0.));
#445=CARTESIAN_POINT('',(-17.7341786959756,18.6574575506038,0.));
#446=CARTESIAN_POINT('',(-18.2412860094278,18.2412860095872,0.));
#447=CARTESIAN_POINT('',(-18.6574575503698,17.7341786963342,0.));
#448=CARTESIAN_POINT('',(-18.9667016642937,17.155624760286,0.));
#449=CARTESIAN_POINT('',(-19.1253939988961,16.6324847423661,0.));
#450=CARTESIAN_POINT('',(-19.1812969767594,16.2553116157565,0.));
#451=CARTESIAN_POINT('',(-19.1960689195546,16.0551758695088,0.));
#452=CARTESIAN_POINT('',(-19.1995813717365,15.9464067521161,0.));
#453=CARTESIAN_POINT('',(-19.2001272420781,15.8589287200123,0.));
#454=CARTESIAN_POINT('',(-19.2,15.77578125,0.));
#455=CARTESIAN_POINT('',(-19.2,10.4841145833333,0.));
#456=CARTESIAN_POINT('',(-19.2,2.5796875,0.));
#457=CARTESIAN_POINT('',(-19.2,-7.88789062499999,0.));
#458=CARTESIAN_POINT('',(-19.2,-13.1547526041667,0.));
#459=CARTESIAN_POINT('',(-19.2,-15.8005859375,0.));
#460=CARTESIAN_POINT('',(-19.2000763452469,-15.8637966185871,0.));
#461=CARTESIAN_POINT('',(-19.199665097389,-15.9430064387488,0.));
#462=CARTESIAN_POINT('',(-19.1963192914642,-16.0517837382219,0.));
#463=CARTESIAN_POINT('',(-19.1812969767516,-16.2553116157749,0.));
#464=CARTESIAN_POINT('',(-19.1253939988844,-16.6324847423875,0.));
#465=CARTESIAN_POINT('',(-18.9667016643676,-17.1556247600554,0.));
#466=CARTESIAN_POINT('',(-18.6574575506038,-17.7341786959756,0.));
#467=CARTESIAN_POINT('',(-18.2412860095872,-18.2412860094278,0.));
#468=CARTESIAN_POINT('',(-17.7341786963342,-18.6574575503698,0.));
#469=CARTESIAN_POINT('',(-17.155624760286,-18.9667016642937,0.));
#470=CARTESIAN_POINT('',(-16.5278567387821,-19.1571324658166,0.));
#471=CARTESIAN_POINT('',(-16.092620741108,-19.2,0.));
#472=CARTESIAN_POINT('',(-10.5833333333333,-19.2,0.));
#473=CARTESIAN_POINT('',(0.,0.,0.));
#474=CARTESIAN_POINT('',(-19.2,-19.2,0.));
#475=CARTESIAN_POINT('',(-15.875,15.875,-9.52));
#476=CARTESIAN_POINT('',(-18.0310909802044,15.875,-9.52));
#477=CARTESIAN_POINT('',(-15.875,18.0310909802043,-9.52));
#478=CARTESIAN_POINT('',(-19.5867713668442,15.875,3.15));
#479=CARTESIAN_POINT('',(-19.2,15.875,0.));
#480=CARTESIAN_POINT('',(-15.875,15.875,0.));
#481=CARTESIAN_POINT('',(-15.875,19.2,0.));
#482=CARTESIAN_POINT('',(-15.875,19.5867713668441,3.15));
#483=CARTESIAN_POINT('',(-15.875,15.875,3.15));
#484=CARTESIAN_POINT('',(-18.0310909802043,-7.45788634930715,-9.52));
#485=CARTESIAN_POINT('',(-18.0310909802043,-15.875,-9.52));
#486=CARTESIAN_POINT('',(-19.5867713668441,-15.875,3.15));
#487=CARTESIAN_POINT('',(-19.2,-15.875,0.));
#488=CARTESIAN_POINT('',(-19.2,-7.45788634930715,0.));
#489=CARTESIAN_POINT('',(-19.1977721794707,-7.45788634930715,-0.0181441421699751));
#490=CARTESIAN_POINT('',(15.875,19.5867713668442,3.15));
#491=CARTESIAN_POINT('',(15.875,19.2,0.));
#492=CARTESIAN_POINT('',(15.875,18.0310909802044,-9.52));
#493=CARTESIAN_POINT('',(7.45788634930715,18.0310909802043,-9.52));
#494=CARTESIAN_POINT('',(7.45788634930715,19.2,0.));
#495=CARTESIAN_POINT('',(7.45788634930715,19.1977721794707,-0.0181441421699751));
#496=CARTESIAN_POINT('',(0.,0.,-2.93906094489796));
#497=CARTESIAN_POINT('',(6.01475029563766,0.,-2.93906094489796));
#498=CARTESIAN_POINT('',(0.,0.,0.));
#499=CARTESIAN_POINT('',(6.22026945762205,0.,0.));
#500=CARTESIAN_POINT('',(0.,0.,-2.93906094489796));
#501=CARTESIAN_POINT('',(15.875,15.875,-9.52));
#502=CARTESIAN_POINT('',(18.0310909802043,15.875,-9.52));
#503=CARTESIAN_POINT('',(15.875,15.875,0.));
#504=CARTESIAN_POINT('',(19.2,15.875,0.));
#505=CARTESIAN_POINT('',(19.5867713668441,15.875,3.15));
#506=CARTESIAN_POINT('',(15.875,15.875,3.15));
#507=CARTESIAN_POINT('',(19.5867713668442,-15.875,3.15));
#508=CARTESIAN_POINT('',(19.2,-15.875,0.));
#509=CARTESIAN_POINT('',(18.0310909802044,-15.875,-9.52));
#510=CARTESIAN_POINT('',(18.0310909802043,-7.45788634930715,-9.52));
#511=CARTESIAN_POINT('',(19.2,-7.45788634930715,0.));
#512=CARTESIAN_POINT('',(19.1977721794707,-7.45788634930715,-0.0181441421699751));
#513=CARTESIAN_POINT('',(15.875,-15.875,-9.52));
#514=CARTESIAN_POINT('',(15.875,-18.0310909802043,-9.52));
#515=CARTESIAN_POINT('',(15.875,-15.875,0.));
#516=CARTESIAN_POINT('',(15.875,-19.2,0.));
#517=CARTESIAN_POINT('',(15.875,-19.5867713668441,3.15));
#518=CARTESIAN_POINT('',(15.875,-15.875,3.15));
#519=CARTESIAN_POINT('',(-15.875,-19.5867713668442,3.15));
#520=CARTESIAN_POINT('',(-15.875,-19.2,0.));
#521=CARTESIAN_POINT('',(-15.875,-18.0310909802044,-9.52));
#522=CARTESIAN_POINT('',(-7.45788634930715,-18.0310909802043,-9.52));
#523=CARTESIAN_POINT('',(-7.45788634930715,-19.2,0.));
#524=CARTESIAN_POINT('',(-7.45788634930715,-19.1977721794707,-0.0181441421699751));
#525=CARTESIAN_POINT('',(-15.875,-15.875,-9.52));
#526=CARTESIAN_POINT('',(-15.875,-15.875,0.));
#527=CARTESIAN_POINT('',(-15.875,-15.875,3.15));
#528=CARTESIAN_POINT('',(0.,0.,-9.52));
#529=CARTESIAN_POINT('',(4.5,0.,-9.52));
#530=CARTESIAN_POINT('',(0.,0.,-6.2724989991992));
#531=CARTESIAN_POINT('',(4.5,0.,-6.2724989991992));
#532=CARTESIAN_POINT('',(0.,0.,-2.125));
#533=CARTESIAN_POINT('',(0.,0.,-3.27844007371182));
#534=CARTESIAN_POINT('',(5.84752735156245,0.,-3.27844007371182));
#535=CARTESIAN_POINT('',(0.,0.,-2.90418270802589));
#536=CARTESIAN_POINT('',(0.,0.,-6.2724989991992));
#537=CARTESIAN_POINT('',(0.,0.,0.));
#538=CARTESIAN_POINT('',(0.,0.,-9.52));
#539=MECHANICAL_DESIGN_GEOMETRIC_PRESENTATION_REPRESENTATION('',(#265,#266,
#267,#268,#269,#270),#540);
#540=(
GEOMETRIC_REPRESENTATION_CONTEXT(3)
GLOBAL_UNCERTAINTY_ASSIGNED_CONTEXT((#541))
GLOBAL_UNIT_ASSIGNED_CONTEXT((#547,#543,#542))
REPRESENTATION_CONTEXT('aaa336922_a','TOP_LEVEL_ASSEMBLY_PART')
);
#541=UNCERTAINTY_MEASURE_WITH_UNIT(LENGTH_MEASURE(2.E-5),#547,
'DISTANCE_ACCURACY_VALUE','Maximum Tolerance applied to model');
#542=(
NAMED_UNIT(*)
SI_UNIT($,.STERADIAN.)
SOLID_ANGLE_UNIT()
);
#543=(
CONVERSION_BASED_UNIT('DEGREE',#545)
NAMED_UNIT(#544)
PLANE_ANGLE_UNIT()
);
#544=DIMENSIONAL_EXPONENTS(0.,0.,0.,0.,0.,0.,0.);
#545=PLANE_ANGLE_MEASURE_WITH_UNIT(PLANE_ANGLE_MEASURE(0.0174532925),#546);
#546=(
NAMED_UNIT(*)
PLANE_ANGLE_UNIT()
SI_UNIT($,.RADIAN.)
);
#547=(
LENGTH_UNIT()
NAMED_UNIT(*)
SI_UNIT(.MILLI.,.METRE.)
);
ENDSEC;
END-ISO-10303-21;
