ISO-10303-21;
HEADER;
/* Generated by software containing ST-Developer
 * from STEP Tools, Inc. (www.steptools.com) 
 */
/* OPTION: using custom schema-name function */

FILE_DESCRIPTION(
/* description */ (''),
/* implementation_level */ '2;1');

FILE_NAME(
/* name */ 'aaa337053_a.stp',
/* time_stamp */ '2019-09-16T12:52:38+02:00',
/* author */ (''),
/* organization */ ('SMS'),
/* preprocessor_version */ 'ST-DEVELOPER v16.7',
/* originating_system */ 'SIEMENS PLM Software NX 12.0',
/* authorisation */ '');

FILE_SCHEMA (('AUTOMOTIVE_DESIGN { 1 0 10303 214 3 1 1 1 }'));
ENDSEC;

DATA;
#10=CONSTRUCTIVE_GEOMETRY_REPRESENTATION_RELATIONSHIP(
'supplemental geometry','',#26,#11);
#11=CONSTRUCTIVE_GEOMETRY_REPRESENTATION('supplemental geometry',(#284,
#285),#540);
#12=GEOMETRICALLY_BOUNDED_WIREFRAME_SHAPE_REPRESENTATION(
'AAA337053_A-None',(#27),#540);
#13=SHAPE_REPRESENTATION_RELATIONSHIP('None',
'relationship between AAA337053_A-None and AAA337053_A-None',#26,#15);
#14=SHAPE_REPRESENTATION_RELATIONSHIP('None',
'relationship between AAA337053_A-None and AAA337053_A-None',#26,#12);
#15=ADVANCED_BREP_SHAPE_REPRESENTATION('AAA337053_A-None',(#33),#540);
#16=SHAPE_DEFINITION_REPRESENTATION(#17,#26);
#17=PRODUCT_DEFINITION_SHAPE('','',#18);
#18=PRODUCT_DEFINITION(' ','',#20,#19);
#19=PRODUCT_DEFINITION_CONTEXT('part definition',#25,'design');
#20=PRODUCT_DEFINITION_FORMATION_WITH_SPECIFIED_SOURCE(' ',' ',#22,
 .NOT_KNOWN.);
#21=PRODUCT_RELATED_PRODUCT_CATEGORY('part','',(#22));
#22=PRODUCT('AAA337053_A','AAA337053_A','MASTER_INSERT',(#23));
#23=PRODUCT_CONTEXT(' ',#25,'mechanical');
#24=APPLICATION_PROTOCOL_DEFINITION('international standard',
'automotive_design',2010,#25);
#25=APPLICATION_CONTEXT(
'core data for automotive mechanical design processes');
#26=SHAPE_REPRESENTATION('AAA337053_A-None',(#283),#540);
#27=GEOMETRIC_CURVE_SET('None',(#390,#391,#263));
#28=SURFACE_STYLE_USAGE(.BOTH.,#29);
#29=SURFACE_SIDE_STYLE('',(#30));
#30=SURFACE_STYLE_FILL_AREA(#31);
#31=FILL_AREA_STYLE('',(#32));
#32=FILL_AREA_STYLE_COLOUR('',#282);
#33=MANIFOLD_SOLID_BREP('CUT',#34);
#34=CLOSED_SHELL('',(#68,#69,#70,#71,#72,#73,#74,#75,#76,#77,#78,#79,#80,
#81));
#35=CYLINDRICAL_SURFACE('',#310,4.5);
#36=TOROIDAL_SURFACE('',#306,5.51596827050775,0.5);
#37=TOROIDAL_SURFACE('',#308,8.5,4.);
#38=FACE_BOUND('',#104,.T.);
#39=FACE_BOUND('',#105,.T.);
#40=FACE_BOUND('',#106,.T.);
#41=FACE_BOUND('',#107,.T.);
#42=FACE_BOUND('',#108,.T.);
#43=FACE_BOUND('',#109,.T.);
#44=FACE_BOUND('',#110,.T.);
#45=FACE_BOUND('',#111,.T.);
#46=FACE_BOUND('',#112,.T.);
#47=FACE_BOUND('',#113,.T.);
#48=FACE_BOUND('',#114,.T.);
#49=FACE_BOUND('',#115,.T.);
#50=CONICAL_SURFACE('',#289,3.56177136684415,6.99999999999998);
#51=CONICAL_SURFACE('',#293,3.56177136684415,6.99999999999998);
#52=CONICAL_SURFACE('',#297,3.56177136684415,6.99999999999998);
#53=CONICAL_SURFACE('',#301,3.56177136684415,6.99999999999998);
#54=CONICAL_SURFACE('',#304,6.01475029563766,3.99999999999981);
#55=CIRCLE('',#287,2.00609098020435);
#56=CIRCLE('',#288,3.175);
#57=CIRCLE('',#291,2.00609098020435);
#58=CIRCLE('',#292,3.175);
#59=CIRCLE('',#295,2.00609098020435);
#60=CIRCLE('',#296,3.175);
#61=CIRCLE('',#299,2.00609098020435);
#62=CIRCLE('',#300,3.175);
#63=CIRCLE('',#302,6.01475029563766);
#64=CIRCLE('',#303,6.15034264567854);
#65=CIRCLE('',#305,5.84752735156245);
#66=CIRCLE('',#307,4.5);
#67=CIRCLE('',#309,4.5);
#68=ADVANCED_FACE('',(#88),#82,.F.);
#69=ADVANCED_FACE('',(#89),#50,.T.);
#70=ADVANCED_FACE('',(#90),#83,.F.);
#71=ADVANCED_FACE('',(#91),#51,.T.);
#72=ADVANCED_FACE('',(#92),#84,.F.);
#73=ADVANCED_FACE('',(#93),#52,.T.);
#74=ADVANCED_FACE('',(#94),#85,.F.);
#75=ADVANCED_FACE('',(#95),#53,.T.);
#76=ADVANCED_FACE('',(#38,#39),#54,.F.);
#77=ADVANCED_FACE('',(#40,#41),#36,.F.);
#78=ADVANCED_FACE('',(#42,#43),#37,.T.);
#79=ADVANCED_FACE('',(#44,#45),#35,.F.);
#80=ADVANCED_FACE('',(#46,#47),#86,.T.);
#81=ADVANCED_FACE('',(#48,#49),#87,.F.);
#82=PLANE('',#286);
#83=PLANE('',#290);
#84=PLANE('',#294);
#85=PLANE('',#298);
#86=PLANE('',#311);
#87=PLANE('',#312);
#88=FACE_OUTER_BOUND('',#96,.T.);
#89=FACE_OUTER_BOUND('',#97,.T.);
#90=FACE_OUTER_BOUND('',#98,.T.);
#91=FACE_OUTER_BOUND('',#99,.T.);
#92=FACE_OUTER_BOUND('',#100,.T.);
#93=FACE_OUTER_BOUND('',#101,.T.);
#94=FACE_OUTER_BOUND('',#102,.T.);
#95=FACE_OUTER_BOUND('',#103,.T.);
#96=EDGE_LOOP('',(#116,#117,#118,#119));
#97=EDGE_LOOP('',(#120,#121,#122,#123));
#98=EDGE_LOOP('',(#124,#125,#126,#127));
#99=EDGE_LOOP('',(#128,#129,#130,#131));
#100=EDGE_LOOP('',(#132,#133,#134,#135));
#101=EDGE_LOOP('',(#136,#137,#138,#139));
#102=EDGE_LOOP('',(#140,#141,#142,#143));
#103=EDGE_LOOP('',(#144,#145,#146,#147));
#104=EDGE_LOOP('',(#148));
#105=EDGE_LOOP('',(#149));
#106=EDGE_LOOP('',(#150));
#107=EDGE_LOOP('',(#151));
#108=EDGE_LOOP('',(#152));
#109=EDGE_LOOP('',(#153));
#110=EDGE_LOOP('',(#154));
#111=EDGE_LOOP('',(#155));
#112=EDGE_LOOP('',(#156));
#113=EDGE_LOOP('',(#157,#158,#159,#160,#161,#162,#163,#164));
#114=EDGE_LOOP('',(#165));
#115=EDGE_LOOP('',(#166,#167,#168,#169,#170,#171,#172,#173));
#116=ORIENTED_EDGE('',*,*,#195,.T.);
#117=ORIENTED_EDGE('',*,*,#196,.T.);
#118=ORIENTED_EDGE('',*,*,#197,.F.);
#119=ORIENTED_EDGE('',*,*,#198,.F.);
#120=ORIENTED_EDGE('',*,*,#199,.F.);
#121=ORIENTED_EDGE('',*,*,#195,.F.);
#122=ORIENTED_EDGE('',*,*,#200,.T.);
#123=ORIENTED_EDGE('',*,*,#201,.T.);
#124=ORIENTED_EDGE('',*,*,#202,.T.);
#125=ORIENTED_EDGE('',*,*,#203,.T.);
#126=ORIENTED_EDGE('',*,*,#201,.F.);
#127=ORIENTED_EDGE('',*,*,#204,.F.);
#128=ORIENTED_EDGE('',*,*,#205,.F.);
#129=ORIENTED_EDGE('',*,*,#202,.F.);
#130=ORIENTED_EDGE('',*,*,#206,.T.);
#131=ORIENTED_EDGE('',*,*,#207,.T.);
#132=ORIENTED_EDGE('',*,*,#208,.T.);
#133=ORIENTED_EDGE('',*,*,#209,.T.);
#134=ORIENTED_EDGE('',*,*,#207,.F.);
#135=ORIENTED_EDGE('',*,*,#210,.F.);
#136=ORIENTED_EDGE('',*,*,#211,.F.);
#137=ORIENTED_EDGE('',*,*,#208,.F.);
#138=ORIENTED_EDGE('',*,*,#212,.T.);
#139=ORIENTED_EDGE('',*,*,#213,.T.);
#140=ORIENTED_EDGE('',*,*,#214,.T.);
#141=ORIENTED_EDGE('',*,*,#215,.T.);
#142=ORIENTED_EDGE('',*,*,#213,.F.);
#143=ORIENTED_EDGE('',*,*,#216,.F.);
#144=ORIENTED_EDGE('',*,*,#217,.F.);
#145=ORIENTED_EDGE('',*,*,#214,.F.);
#146=ORIENTED_EDGE('',*,*,#218,.T.);
#147=ORIENTED_EDGE('',*,*,#197,.T.);
#148=ORIENTED_EDGE('',*,*,#219,.T.);
#149=ORIENTED_EDGE('',*,*,#220,.T.);
#150=ORIENTED_EDGE('',*,*,#221,.T.);
#151=ORIENTED_EDGE('',*,*,#219,.F.);
#152=ORIENTED_EDGE('',*,*,#221,.F.);
#153=ORIENTED_EDGE('',*,*,#222,.T.);
#154=ORIENTED_EDGE('',*,*,#223,.F.);
#155=ORIENTED_EDGE('',*,*,#222,.F.);
#156=ORIENTED_EDGE('',*,*,#220,.F.);
#157=ORIENTED_EDGE('',*,*,#200,.F.);
#158=ORIENTED_EDGE('',*,*,#198,.T.);
#159=ORIENTED_EDGE('',*,*,#218,.F.);
#160=ORIENTED_EDGE('',*,*,#216,.T.);
#161=ORIENTED_EDGE('',*,*,#212,.F.);
#162=ORIENTED_EDGE('',*,*,#210,.T.);
#163=ORIENTED_EDGE('',*,*,#206,.F.);
#164=ORIENTED_EDGE('',*,*,#204,.T.);
#165=ORIENTED_EDGE('',*,*,#223,.T.);
#166=ORIENTED_EDGE('',*,*,#199,.T.);
#167=ORIENTED_EDGE('',*,*,#203,.F.);
#168=ORIENTED_EDGE('',*,*,#205,.T.);
#169=ORIENTED_EDGE('',*,*,#209,.F.);
#170=ORIENTED_EDGE('',*,*,#211,.T.);
#171=ORIENTED_EDGE('',*,*,#215,.F.);
#172=ORIENTED_EDGE('',*,*,#217,.T.);
#173=ORIENTED_EDGE('',*,*,#196,.F.);
#174=VERTEX_POINT('',#476);
#175=VERTEX_POINT('',#477);
#176=VERTEX_POINT('',#479);
#177=VERTEX_POINT('',#481);
#178=VERTEX_POINT('',#485);
#179=VERTEX_POINT('',#487);
#180=VERTEX_POINT('',#491);
#181=VERTEX_POINT('',#492);
#182=VERTEX_POINT('',#497);
#183=VERTEX_POINT('',#499);
#184=VERTEX_POINT('',#503);
#185=VERTEX_POINT('',#504);
#186=VERTEX_POINT('',#509);
#187=VERTEX_POINT('',#511);
#188=VERTEX_POINT('',#515);
#189=VERTEX_POINT('',#516);
#190=VERTEX_POINT('',#524);
#191=VERTEX_POINT('',#526);
#192=VERTEX_POINT('',#529);
#193=VERTEX_POINT('',#532);
#194=VERTEX_POINT('',#535);
#195=EDGE_CURVE('',#174,#175,#224,.T.);
#196=EDGE_CURVE('',#175,#176,#225,.T.);
#197=EDGE_CURVE('',#177,#176,#226,.T.);
#198=EDGE_CURVE('',#174,#177,#227,.T.);
#199=EDGE_CURVE('',#175,#178,#55,.T.);
#200=EDGE_CURVE('',#174,#179,#56,.T.);
#201=EDGE_CURVE('',#179,#178,#228,.T.);
#202=EDGE_CURVE('',#180,#181,#229,.T.);
#203=EDGE_CURVE('',#181,#178,#230,.T.);
#204=EDGE_CURVE('',#180,#179,#231,.T.);
#205=EDGE_CURVE('',#181,#182,#57,.T.);
#206=EDGE_CURVE('',#180,#183,#58,.T.);
#207=EDGE_CURVE('',#183,#182,#232,.T.);
#208=EDGE_CURVE('',#184,#185,#233,.T.);
#209=EDGE_CURVE('',#185,#182,#234,.T.);
#210=EDGE_CURVE('',#184,#183,#235,.T.);
#211=EDGE_CURVE('',#185,#186,#59,.T.);
#212=EDGE_CURVE('',#184,#187,#60,.T.);
#213=EDGE_CURVE('',#187,#186,#236,.T.);
#214=EDGE_CURVE('',#188,#189,#237,.T.);
#215=EDGE_CURVE('',#189,#186,#238,.T.);
#216=EDGE_CURVE('',#188,#187,#239,.T.);
#217=EDGE_CURVE('',#189,#176,#61,.T.);
#218=EDGE_CURVE('',#188,#177,#62,.T.);
#219=EDGE_CURVE('',#190,#190,#63,.T.);
#220=EDGE_CURVE('',#191,#191,#64,.T.);
#221=EDGE_CURVE('',#192,#192,#65,.T.);
#222=EDGE_CURVE('',#193,#193,#66,.T.);
#223=EDGE_CURVE('',#194,#194,#67,.T.);
#224=LINE('',#475,#240);
#225=LINE('',#478,#241);
#226=LINE('',#480,#242);
#227=LINE('',#482,#243);
#228=LINE('',#488,#244);
#229=LINE('',#490,#245);
#230=LINE('',#493,#246);
#231=LINE('',#494,#247);
#232=LINE('',#500,#248);
#233=LINE('',#502,#249);
#234=LINE('',#505,#250);
#235=LINE('',#506,#251);
#236=LINE('',#512,#252);
#237=LINE('',#514,#253);
#238=LINE('',#517,#254);
#239=LINE('',#518,#255);
#240=VECTOR('',#319,1.);
#241=VECTOR('',#320,1.);
#242=VECTOR('',#321,1.);
#243=VECTOR('',#322,1.);
#244=VECTOR('',#329,1.);
#245=VECTOR('',#332,1.);
#246=VECTOR('',#333,1.);
#247=VECTOR('',#334,1.);
#248=VECTOR('',#341,1.);
#249=VECTOR('',#344,1.);
#250=VECTOR('',#345,1.);
#251=VECTOR('',#346,1.);
#252=VECTOR('',#353,1.);
#253=VECTOR('',#356,1.);
#254=VECTOR('',#357,1.);
#255=VECTOR('',#358,1.);
#256=CURVE_STYLE('',#260,POSITIVE_LENGTH_MEASURE(0.18),#259);
#257=CURVE_STYLE('',#261,POSITIVE_LENGTH_MEASURE(0.18),#281);
#258=CURVE_STYLE('',#262,POSITIVE_LENGTH_MEASURE(0.18),#281);
#259=DRAUGHTING_PRE_DEFINED_COLOUR('blue');
#260=DRAUGHTING_PRE_DEFINED_CURVE_FONT('continuous');
#261=DRAUGHTING_PRE_DEFINED_CURVE_FONT('continuous');
#262=DRAUGHTING_PRE_DEFINED_CURVE_FONT('continuous');
#263=B_SPLINE_CURVE_WITH_KNOTS('CUTTING EDGE LINE',3,(#392,#393,#394,#395,
#396,#397,#398,#399,#400,#401,#402,#403,#404,#405,#406,#407,#408,#409,#410,
#411,#412,#413,#414,#415,#416,#417,#418,#419,#420,#421,#422,#423,#424,#425,
#426,#427,#428,#429,#430,#431,#432,#433,#434,#435,#436,#437,#438,#439,#440,
#441,#442,#443,#444,#445,#446,#447,#448,#449,#450,#451,#452,#453,#454,#455,
#456,#457,#458,#459,#460,#461,#462,#463,#464,#465,#466,#467,#468,#469,#470,
#471,#472),.UNSPECIFIED.,.T.,.F.,(1,1,2,1,1,1,1,1,1,1,1,1,1,1,1,1,1,1,1,
1,1,1,1,1,1,1,1,1,1,1,1,1,1,1,1,1,1,1,1,1,1,1,1,1,1,1,1,1,1,1,1,1,1,1,1,
1,1,1,1,1,1,1,1,1,1,1,1,1,1,1,1,1,1,1,1,1,1,1,1,1,2,1,1),(-0.214710805475625,
-0.10803059395,0.,0.00424235151249996,0.00848470302499993,0.0127270545375,
0.01696940605,0.0212117575624999,0.025454109075,0.0296964605875,0.0318176363437499,
0.0328782242218749,0.0336736651304687,0.0339388120999999,0.0344452055091405,
0.0349515989182813,0.0879541090749999,0.14196940605,0.248649617575625,0.249324808787812,
0.25,0.250331433711914,0.251060587878125,0.25212117575625,0.2542423515125,
0.258484703025,0.2627270545375,0.26696940605,0.2712117575625,0.275454109075,
0.2796964605875,0.28181763634375,0.282878224221875,0.283673665130469,0.2839388121,
0.284445205509141,0.284951598918281,0.337954109075,0.39196940605,0.498649617575625,
0.499324808787812,0.5,0.500331433711914,0.501060587878125,0.50212117575625,
0.5042423515125,0.508484703025,0.5127270545375,0.51696940605,0.5212117575625,
0.525454109075,0.5296964605875,0.53181763634375,0.532878224221875,0.533673665130469,
0.5339388121,0.534445205509141,0.534951598918281,0.587954109075,0.64196940605,
0.748649617575625,0.749324808787812,0.75,0.750331433711914,0.751060587878125,
0.75212117575625,0.7542423515125,0.758484703025,0.7627270545375,0.76696940605,
0.7712117575625,0.775454109075,0.7796964605875,0.78181763634375,0.782878224221875,
0.783607378388086,0.7839388121,0.784614003312188,0.785289194524375,0.89196940605,
1.,1.0042423515125,1.008484703025),.UNSPECIFIED.);
#264=PRESENTATION_LAYER_ASSIGNMENT('1','Layer 1',(#390,#391,#263,#284,#285,
#33));
#265=STYLED_ITEM('',(#271),#390);
#266=STYLED_ITEM('',(#272),#391);
#267=STYLED_ITEM('',(#273),#263);
#268=STYLED_ITEM('',(#274),#284);
#269=STYLED_ITEM('',(#275),#285);
#270=STYLED_ITEM('',(#276),#33);
#271=PRESENTATION_STYLE_ASSIGNMENT((#277));
#272=PRESENTATION_STYLE_ASSIGNMENT((#278));
#273=PRESENTATION_STYLE_ASSIGNMENT((#256));
#274=PRESENTATION_STYLE_ASSIGNMENT((#257));
#275=PRESENTATION_STYLE_ASSIGNMENT((#258));
#276=PRESENTATION_STYLE_ASSIGNMENT((#28));
#277=POINT_STYLE('',#279,POSITIVE_LENGTH_MEASURE(3.),#281);
#278=POINT_STYLE('',#280,POSITIVE_LENGTH_MEASURE(3.),#281);
#279=PRE_DEFINED_POINT_MARKER_SYMBOL('plus');
#280=PRE_DEFINED_POINT_MARKER_SYMBOL('plus');
#281=COLOUR_RGB('Strong Stone',0.576470588235294,0.54508278019379,0.392156862745098);
#282=COLOUR_RGB('Light Gray',0.8,0.8,0.8);
#283=AXIS2_PLACEMENT_3D('',#389,#313,#314);
#284=AXIS2_PLACEMENT_3D('MCS',#473,#315,#316);
#285=AXIS2_PLACEMENT_3D('PCS',#474,#317,#318);
#286=AXIS2_PLACEMENT_3D('',#483,#323,#324);
#287=AXIS2_PLACEMENT_3D('',#484,#325,#326);
#288=AXIS2_PLACEMENT_3D('',#486,#327,#328);
#289=AXIS2_PLACEMENT_3D('',#489,#330,#331);
#290=AXIS2_PLACEMENT_3D('',#495,#335,#336);
#291=AXIS2_PLACEMENT_3D('',#496,#337,#338);
#292=AXIS2_PLACEMENT_3D('',#498,#339,#340);
#293=AXIS2_PLACEMENT_3D('',#501,#342,#343);
#294=AXIS2_PLACEMENT_3D('',#507,#347,#348);
#295=AXIS2_PLACEMENT_3D('',#508,#349,#350);
#296=AXIS2_PLACEMENT_3D('',#510,#351,#352);
#297=AXIS2_PLACEMENT_3D('',#513,#354,#355);
#298=AXIS2_PLACEMENT_3D('',#519,#359,#360);
#299=AXIS2_PLACEMENT_3D('',#520,#361,#362);
#300=AXIS2_PLACEMENT_3D('',#521,#363,#364);
#301=AXIS2_PLACEMENT_3D('',#522,#365,#366);
#302=AXIS2_PLACEMENT_3D('',#523,#367,#368);
#303=AXIS2_PLACEMENT_3D('',#525,#369,#370);
#304=AXIS2_PLACEMENT_3D('',#527,#371,#372);
#305=AXIS2_PLACEMENT_3D('',#528,#373,#374);
#306=AXIS2_PLACEMENT_3D('',#530,#375,#376);
#307=AXIS2_PLACEMENT_3D('',#531,#377,#378);
#308=AXIS2_PLACEMENT_3D('',#533,#379,#380);
#309=AXIS2_PLACEMENT_3D('',#534,#381,#382);
#310=AXIS2_PLACEMENT_3D('',#536,#383,#384);
#311=AXIS2_PLACEMENT_3D('',#537,#385,#386);
#312=AXIS2_PLACEMENT_3D('',#538,#387,#388);
#313=DIRECTION('',(0.,0.,1.));
#314=DIRECTION('',(1.,0.,0.));
#315=DIRECTION('',(0.,0.,1.));
#316=DIRECTION('',(1.,0.,0.));
#317=DIRECTION('',(0.,0.,1.));
#318=DIRECTION('',(1.,0.,0.));
#319=DIRECTION('',(0.121869343405147,0.,-0.992546151641322));
#320=DIRECTION('',(0.,-1.,0.));
#321=DIRECTION('',(0.121869343405147,2.70604302088689E-17,-0.992546151641322));
#322=DIRECTION('',(0.,-1.,0.));
#323=DIRECTION('',(0.992546151641322,0.,0.121869343405147));
#324=DIRECTION('',(0.121869343405147,0.,-0.992546151641322));
#325=DIRECTION('',(0.,0.,-1.));
#326=DIRECTION('',(1.,0.,0.));
#327=DIRECTION('',(0.,0.,-1.));
#328=DIRECTION('',(1.,0.,0.));
#329=DIRECTION('',(2.70604302088689E-17,-0.121869343405147,-0.992546151641322));
#330=DIRECTION('',(0.,0.,1.));
#331=DIRECTION('',(1.,0.,-1.09839261326443E-16));
#332=DIRECTION('',(0.,-0.121869343405147,-0.992546151641322));
#333=DIRECTION('',(-1.,-2.22044604925031E-16,0.));
#334=DIRECTION('',(-1.,-2.22044604925031E-16,0.));
#335=DIRECTION('',(2.20389518111058E-16,-0.992546151641322,0.121869343405147));
#336=DIRECTION('',(2.77555756156289E-17,-0.121869343405147,-0.992546151641322));
#337=DIRECTION('',(0.,0.,-1.));
#338=DIRECTION('',(1.,0.,0.));
#339=DIRECTION('',(0.,0.,-1.));
#340=DIRECTION('',(1.,0.,0.));
#341=DIRECTION('',(-0.121869343405147,-2.70604302088689E-17,-0.992546151641322));
#342=DIRECTION('',(0.,0.,1.));
#343=DIRECTION('',(0.,-1.,-1.09839261326443E-16));
#344=DIRECTION('',(-0.121869343405147,0.,-0.992546151641322));
#345=DIRECTION('',(-2.22044604925031E-16,1.,0.));
#346=DIRECTION('',(-2.22044604925031E-16,1.,0.));
#347=DIRECTION('',(-0.992546151641322,-2.20389518111058E-16,0.121869343405147));
#348=DIRECTION('',(-0.121869343405147,-2.77555756156289E-17,-0.992546151641322));
#349=DIRECTION('',(0.,0.,-1.));
#350=DIRECTION('',(1.,0.,0.));
#351=DIRECTION('',(0.,0.,-1.));
#352=DIRECTION('',(1.,0.,0.));
#353=DIRECTION('',(-2.70604302088689E-17,0.121869343405147,-0.992546151641322));
#354=DIRECTION('',(0.,0.,1.));
#355=DIRECTION('',(-1.,0.,-1.09839261326443E-16));
#356=DIRECTION('',(0.,0.121869343405147,-0.992546151641322));
#357=DIRECTION('',(1.,2.22044604925031E-16,0.));
#358=DIRECTION('',(1.,2.22044604925031E-16,0.));
#359=DIRECTION('',(-2.20389518111058E-16,0.992546151641322,0.121869343405147));
#360=DIRECTION('',(-2.77555756156289E-17,0.121869343405147,-0.992546151641322));
#361=DIRECTION('',(0.,0.,-1.));
#362=DIRECTION('',(1.,0.,0.));
#363=DIRECTION('',(0.,0.,-1.));
#364=DIRECTION('',(1.,0.,0.));
#365=DIRECTION('',(0.,0.,1.));
#366=DIRECTION('',(0.,1.,-1.09839261326443E-16));
#367=DIRECTION('',(0.,0.,-1.));
#368=DIRECTION('',(1.,0.,0.));
#369=DIRECTION('',(0.,0.,1.));
#370=DIRECTION('',(1.,0.,0.));
#371=DIRECTION('',(0.,0.,1.));
#372=DIRECTION('',(1.,0.,3.36932379532597E-16));
#373=DIRECTION('',(0.,0.,-1.));
#374=DIRECTION('',(1.,0.,0.));
#375=DIRECTION('',(0.,0.,1.));
#376=DIRECTION('',(1.,0.,0.));
#377=DIRECTION('',(0.,0.,-1.));
#378=DIRECTION('',(1.,0.,0.));
#379=DIRECTION('',(0.,0.,1.));
#380=DIRECTION('',(1.,0.,0.));
#381=DIRECTION('',(0.,0.,1.));
#382=DIRECTION('',(1.,0.,0.));
#383=DIRECTION('',(0.,0.,1.));
#384=DIRECTION('',(1.,0.,0.));
#385=DIRECTION('',(0.,0.,1.));
#386=DIRECTION('',(1.,0.,0.));
#387=DIRECTION('',(0.,0.,1.));
#388=DIRECTION('',(1.,0.,0.));
#389=CARTESIAN_POINT('',(0.,0.,0.));
#390=CARTESIAN_POINT('',(0.,0.,0.));
#391=CARTESIAN_POINT('',(-19.05,-19.05,0.));
#392=CARTESIAN_POINT('',(-19.05,10.5833333333333,0.));
#393=CARTESIAN_POINT('',(-19.05,16.0828032640656,0.));
#394=CARTESIAN_POINT('',(-19.0090663395392,16.4984045550776,0.));
#395=CARTESIAN_POINT('',(-18.8272264012429,17.0978522147092,0.));
#396=CARTESIAN_POINT('',(-18.5319331496013,17.6503059731913,0.));
#397=CARTESIAN_POINT('',(-18.1345362646415,18.1345362647938,0.));
#398=CARTESIAN_POINT('',(-17.6503059728489,18.5319331498247,0.));
#399=CARTESIAN_POINT('',(-17.097852214489,18.8272264013135,0.));
#400=CARTESIAN_POINT('',(-16.59831249837,18.9787596831453,0.));
#401=CARTESIAN_POINT('',(-16.2381547007775,19.0321407221613,0.));
#402=CARTESIAN_POINT('',(-16.0438085319863,19.0464853384658,0.));
#403=CARTESIAN_POINT('',(-15.939938479106,19.0496802057774,0.));
#404=CARTESIAN_POINT('',(-15.8631830263098,19.0500763452468,0.));
#405=CARTESIAN_POINT('',(-15.8005859375,19.05,0.));
#406=CARTESIAN_POINT('',(-13.1547526041667,19.05,0.));
#407=CARTESIAN_POINT('',(-7.887890625,19.05,0.));
#408=CARTESIAN_POINT('',(2.5796875,19.05,0.));
#409=CARTESIAN_POINT('',(10.4841145833333,19.05,0.));
#410=CARTESIAN_POINT('',(15.77578125,19.05,0.));
#411=CARTESIAN_POINT('',(15.8581617296677,19.0501272420779,0.));
#412=CARTESIAN_POINT('',(15.9431853948778,19.0496002572221,0.));
#413=CARTESIAN_POINT('',(16.0470476347941,19.0462462615296,0.));
#414=CARTESIAN_POINT('',(16.23815470076,19.0321407221688,0.));
#415=CARTESIAN_POINT('',(16.5983124983496,18.9787596831565,0.));
#416=CARTESIAN_POINT('',(17.0978522147092,18.8272264012429,0.));
#417=CARTESIAN_POINT('',(17.6503059731913,18.5319331496013,0.));
#418=CARTESIAN_POINT('',(18.1345362647938,18.1345362646415,0.));
#419=CARTESIAN_POINT('',(18.5319331498247,17.6503059728489,0.));
#420=CARTESIAN_POINT('',(18.8272264013135,17.097852214489,0.));
#421=CARTESIAN_POINT('',(18.9787596831453,16.59831249837,0.));
#422=CARTESIAN_POINT('',(19.0321407221613,16.2381547007775,0.));
#423=CARTESIAN_POINT('',(19.0464853384658,16.0438085319863,0.));
#424=CARTESIAN_POINT('',(19.0496802057774,15.939938479106,0.));
#425=CARTESIAN_POINT('',(19.0500763452468,15.8631830263098,0.));
#426=CARTESIAN_POINT('',(19.05,15.8005859375,0.));
#427=CARTESIAN_POINT('',(19.05,13.1547526041667,0.));
#428=CARTESIAN_POINT('',(19.05,7.887890625,0.));
#429=CARTESIAN_POINT('',(19.05,-2.5796875,0.));
#430=CARTESIAN_POINT('',(19.05,-10.4841145833333,0.));
#431=CARTESIAN_POINT('',(19.05,-15.77578125,0.));
#432=CARTESIAN_POINT('',(19.0501272420779,-15.8581617296677,0.));
#433=CARTESIAN_POINT('',(19.0496002572221,-15.9431853948778,0.));
#434=CARTESIAN_POINT('',(19.0462462615296,-16.0470476347941,0.));
#435=CARTESIAN_POINT('',(19.0321407221688,-16.23815470076,0.));
#436=CARTESIAN_POINT('',(18.9787596831565,-16.5983124983496,0.));
#437=CARTESIAN_POINT('',(18.8272264012429,-17.0978522147092,0.));
#438=CARTESIAN_POINT('',(18.5319331496013,-17.6503059731913,0.));
#439=CARTESIAN_POINT('',(18.1345362646415,-18.1345362647938,0.));
#440=CARTESIAN_POINT('',(17.6503059728489,-18.5319331498247,0.));
#441=CARTESIAN_POINT('',(17.097852214489,-18.8272264013135,0.));
#442=CARTESIAN_POINT('',(16.59831249837,-18.9787596831453,0.));
#443=CARTESIAN_POINT('',(16.2381547007775,-19.0321407221613,0.));
#444=CARTESIAN_POINT('',(16.0438085319863,-19.0464853384658,0.));
#445=CARTESIAN_POINT('',(15.939938479106,-19.0496802057774,0.));
#446=CARTESIAN_POINT('',(15.8631830263098,-19.0500763452468,0.));
#447=CARTESIAN_POINT('',(15.8005859375,-19.05,0.));
#448=CARTESIAN_POINT('',(13.1547526041667,-19.05,0.));
#449=CARTESIAN_POINT('',(7.887890625,-19.05,0.));
#450=CARTESIAN_POINT('',(-2.5796875,-19.05,0.));
#451=CARTESIAN_POINT('',(-10.4841145833333,-19.05,0.));
#452=CARTESIAN_POINT('',(-15.77578125,-19.05,0.));
#453=CARTESIAN_POINT('',(-15.8581617296677,-19.0501272420779,0.));
#454=CARTESIAN_POINT('',(-15.9431853948778,-19.0496002572221,0.));
#455=CARTESIAN_POINT('',(-16.0470476347941,-19.0462462615296,0.));
#456=CARTESIAN_POINT('',(-16.23815470076,-19.0321407221688,0.));
#457=CARTESIAN_POINT('',(-16.5983124983496,-18.9787596831565,0.));
#458=CARTESIAN_POINT('',(-17.0978522147092,-18.8272264012429,0.));
#459=CARTESIAN_POINT('',(-17.6503059731913,-18.5319331496013,0.));
#460=CARTESIAN_POINT('',(-18.1345362647938,-18.1345362646415,0.));
#461=CARTESIAN_POINT('',(-18.5319331498247,-17.6503059728489,0.));
#462=CARTESIAN_POINT('',(-18.8272264013135,-17.097852214489,0.));
#463=CARTESIAN_POINT('',(-18.9787596831453,-16.59831249837,0.));
#464=CARTESIAN_POINT('',(-19.0321407221613,-16.2381547007775,0.));
#465=CARTESIAN_POINT('',(-19.0462462615274,-16.0470476347995,0.));
#466=CARTESIAN_POINT('',(-19.0496002572218,-15.9431853948784,0.));
#467=CARTESIAN_POINT('',(-19.050127242078,-15.8581617296675,0.));
#468=CARTESIAN_POINT('',(-19.05,-15.77578125,0.));
#469=CARTESIAN_POINT('',(-19.05,-10.4841145833333,0.));
#470=CARTESIAN_POINT('',(-19.05,0.06614583333333,0.));
#471=CARTESIAN_POINT('',(-19.05,10.5833333333333,0.));
#472=CARTESIAN_POINT('',(-19.05,16.0828032640656,0.));
#473=CARTESIAN_POINT('',(0.,0.,0.));
#474=CARTESIAN_POINT('',(-19.05,-19.05,0.));
#475=CARTESIAN_POINT('',(-19.4367713668442,15.875,3.15));
#476=CARTESIAN_POINT('',(-19.05,15.875,0.));
#477=CARTESIAN_POINT('',(-17.8810909802044,15.875,-9.52));
#478=CARTESIAN_POINT('',(-17.8810909802044,-11.1176261120015,-9.52));
#479=CARTESIAN_POINT('',(-17.8810909802043,-15.875,-9.52));
#480=CARTESIAN_POINT('',(-19.4367713668441,-15.875,3.15));
#481=CARTESIAN_POINT('',(-19.05,-15.875,0.));
#482=CARTESIAN_POINT('',(-19.05,-11.1176261120015,0.));
#483=CARTESIAN_POINT('',(-19.05,-11.1176261120015,0.));
#484=CARTESIAN_POINT('',(-15.875,15.875,-9.52));
#485=CARTESIAN_POINT('',(-15.875,17.8810909802043,-9.52));
#486=CARTESIAN_POINT('',(-15.875,15.875,0.));
#487=CARTESIAN_POINT('',(-15.875,19.05,0.));
#488=CARTESIAN_POINT('',(-15.875,19.4367713668441,3.15));
#489=CARTESIAN_POINT('',(-15.875,15.875,3.15));
#490=CARTESIAN_POINT('',(15.875,19.4367713668442,3.15));
#491=CARTESIAN_POINT('',(15.875,19.05,0.));
#492=CARTESIAN_POINT('',(15.875,17.8810909802044,-9.52));
#493=CARTESIAN_POINT('',(11.1176261120015,17.8810909802044,-9.52));
#494=CARTESIAN_POINT('',(11.1176261120015,19.05,0.));
#495=CARTESIAN_POINT('',(11.1176261120015,19.05,0.));
#496=CARTESIAN_POINT('',(15.875,15.875,-9.52));
#497=CARTESIAN_POINT('',(17.8810909802043,15.875,-9.52));
#498=CARTESIAN_POINT('',(15.875,15.875,0.));
#499=CARTESIAN_POINT('',(19.05,15.875,0.));
#500=CARTESIAN_POINT('',(19.4367713668441,15.875,3.15));
#501=CARTESIAN_POINT('',(15.875,15.875,3.15));
#502=CARTESIAN_POINT('',(19.4367713668442,-15.875,3.15));
#503=CARTESIAN_POINT('',(19.05,-15.875,0.));
#504=CARTESIAN_POINT('',(17.8810909802044,-15.875,-9.52));
#505=CARTESIAN_POINT('',(17.8810909802044,-11.1176261120015,-9.52));
#506=CARTESIAN_POINT('',(19.05,-11.1176261120015,0.));
#507=CARTESIAN_POINT('',(19.05,-11.1176261120015,0.));
#508=CARTESIAN_POINT('',(15.875,-15.875,-9.52));
#509=CARTESIAN_POINT('',(15.875,-17.8810909802043,-9.52));
#510=CARTESIAN_POINT('',(15.875,-15.875,0.));
#511=CARTESIAN_POINT('',(15.875,-19.05,0.));
#512=CARTESIAN_POINT('',(15.875,-19.4367713668441,3.15));
#513=CARTESIAN_POINT('',(15.875,-15.875,3.15));
#514=CARTESIAN_POINT('',(-15.875,-19.4367713668442,3.15));
#515=CARTESIAN_POINT('',(-15.875,-19.05,0.));
#516=CARTESIAN_POINT('',(-15.875,-17.8810909802044,-9.52));
#517=CARTESIAN_POINT('',(-11.1176261120015,-17.8810909802044,-9.52));
#518=CARTESIAN_POINT('',(-11.1176261120015,-19.05,0.));
#519=CARTESIAN_POINT('',(-11.1176261120015,-19.05,0.));
#520=CARTESIAN_POINT('',(-15.875,-15.875,-9.52));
#521=CARTESIAN_POINT('',(-15.875,-15.875,0.));
#522=CARTESIAN_POINT('',(-15.875,-15.875,3.15));
#523=CARTESIAN_POINT('',(0.,0.,-1.93906094489796));
#524=CARTESIAN_POINT('',(6.01475029563766,0.,-1.93906094489796));
#525=CARTESIAN_POINT('',(0.,0.,0.));
#526=CARTESIAN_POINT('',(6.15034264567854,0.,0.));
#527=CARTESIAN_POINT('',(0.,0.,-1.93906094489796));
#528=CARTESIAN_POINT('',(0.,0.,-2.27844007371182));
#529=CARTESIAN_POINT('',(5.84752735156245,0.,-2.27844007371182));
#530=CARTESIAN_POINT('',(0.,0.,-1.90418270802589));
#531=CARTESIAN_POINT('',(0.,0.,-5.2724989991992));
#532=CARTESIAN_POINT('',(4.5,0.,-5.2724989991992));
#533=CARTESIAN_POINT('',(0.,0.,-5.2724989991992));
#534=CARTESIAN_POINT('',(0.,0.,-9.52));
#535=CARTESIAN_POINT('',(4.5,0.,-9.52));
#536=CARTESIAN_POINT('',(0.,0.,-2.125));
#537=CARTESIAN_POINT('',(0.,0.,0.));
#538=CARTESIAN_POINT('',(0.,0.,-9.52));
#539=MECHANICAL_DESIGN_GEOMETRIC_PRESENTATION_REPRESENTATION('',(#265,#266,
#267,#268,#269,#270),#540);
#540=(
GEOMETRIC_REPRESENTATION_CONTEXT(3)
GLOBAL_UNCERTAINTY_ASSIGNED_CONTEXT((#541))
GLOBAL_UNIT_ASSIGNED_CONTEXT((#547,#543,#542))
REPRESENTATION_CONTEXT('aaa337053_a','TOP_LEVEL_ASSEMBLY_PART')
);
#541=UNCERTAINTY_MEASURE_WITH_UNIT(LENGTH_MEASURE(2.E-5),#547,
'DISTANCE_ACCURACY_VALUE','Maximum Tolerance applied to model');
#542=(
NAMED_UNIT(*)
SI_UNIT($,.STERADIAN.)
SOLID_ANGLE_UNIT()
);
#543=(
CONVERSION_BASED_UNIT('DEGREE',#545)
NAMED_UNIT(#544)
PLANE_ANGLE_UNIT()
);
#544=DIMENSIONAL_EXPONENTS(0.,0.,0.,0.,0.,0.,0.);
#545=PLANE_ANGLE_MEASURE_WITH_UNIT(PLANE_ANGLE_MEASURE(0.0174532925),#546);
#546=(
NAMED_UNIT(*)
PLANE_ANGLE_UNIT()
SI_UNIT($,.RADIAN.)
);
#547=(
LENGTH_UNIT()
NAMED_UNIT(*)
SI_UNIT(.MILLI.,.METRE.)
);
ENDSEC;
END-ISO-10303-21;
