ISO-10303-21;
HEADER;
/* Generated by software containing ST-Developer
 * from STEP Tools, Inc. (www.steptools.com) 
 */
/* OPTION: using custom schema-name function */

FILE_DESCRIPTION(
/* description */ (''),
/* implementation_level */ '2;1');

FILE_NAME(
/* name */ '1565263303412.stp',
/* time_stamp */ '2019-08-08T13:21:49+02:00',
/* author */ (''),
/* organization */ ('SMS'),
/* preprocessor_version */ 'ST-DEVELOPER v16.7',
/* originating_system */ 'SIEMENS PLM Software NX 12.0',
/* authorisation */ '');

FILE_SCHEMA (('AUTOMOTIVE_DESIGN { 1 0 10303 214 3 1 1 1 }'));
ENDSEC;

DATA;
#10=CONSTRUCTIVE_GEOMETRY_REPRESENTATION_RELATIONSHIP(
'supplemental geometry','',#26,#11);
#11=CONSTRUCTIVE_GEOMETRY_REPRESENTATION('supplemental geometry',(#366,
#367,#368),#571);
#12=GEOMETRICALLY_BOUNDED_WIREFRAME_SHAPE_REPRESENTATION(
'202506110mod000_00-None',(#27),#571);
#13=SHAPE_REPRESENTATION_RELATIONSHIP('None',
'relationship between 202506110mod000_00-None and 202506110mod000_00-N
one',#26,#15);
#14=SHAPE_REPRESENTATION_RELATIONSHIP('None',
'relationship between 202506110mod000_00-None and 202506110mod000_00-N
one',#26,#12);
#15=ADVANCED_BREP_SHAPE_REPRESENTATION('202506110mod000_00-None',(#33),
#571);
#16=SHAPE_DEFINITION_REPRESENTATION(#17,#26);
#17=PRODUCT_DEFINITION_SHAPE('','',#18);
#18=PRODUCT_DEFINITION(' ','',#20,#19);
#19=PRODUCT_DEFINITION_CONTEXT('part definition',#25,'design');
#20=PRODUCT_DEFINITION_FORMATION_WITH_SPECIFIED_SOURCE(' ',' ',#22,
 .NOT_KNOWN.);
#21=PRODUCT_RELATED_PRODUCT_CATEGORY('part','',(#22));
#22=PRODUCT('202506110mod000_00','202506110mod000_00',' ',(#23));
#23=PRODUCT_CONTEXT(' ',#25,'mechanical');
#24=APPLICATION_PROTOCOL_DEFINITION('international standard',
'automotive_design',2010,#25);
#25=APPLICATION_CONTEXT(
'core data for automotive mechanical design processes');
#26=SHAPE_REPRESENTATION('202506110mod000_00-None',(#365),#571);
#27=GEOMETRIC_CURVE_SET('None',(#478,#479,#480));
#28=SURFACE_STYLE_USAGE(.BOTH.,#29);
#29=SURFACE_SIDE_STYLE('',(#30));
#30=SURFACE_STYLE_FILL_AREA(#31);
#31=FILL_AREA_STYLE('',(#32));
#32=FILL_AREA_STYLE_COLOUR('',#364);
#33=MANIFOLD_SOLID_BREP('NOCUT',#34);
#34=CLOSED_SHELL('',(#53,#54,#55,#56,#57,#58,#59,#60,#61,#62,#63,#64,#65,
#66,#67,#68,#69));
#35=CYLINDRICAL_SURFACE('',#378,26.0000000000003);
#36=CYLINDRICAL_SURFACE('',#389,25.8);
#37=ELLIPSE('',#373,125.053092963349,26.0000000000003);
#38=FACE_OUTER_BOUND('',#165,.T.);
#39=FACE_OUTER_BOUND('',#166,.T.);
#40=FACE_OUTER_BOUND('',#167,.T.);
#41=FACE_OUTER_BOUND('',#168,.T.);
#42=FACE_OUTER_BOUND('',#169,.T.);
#43=FACE_OUTER_BOUND('',#170,.T.);
#44=FACE_OUTER_BOUND('',#171,.T.);
#45=FACE_OUTER_BOUND('',#172,.T.);
#46=FACE_OUTER_BOUND('',#173,.T.);
#47=FACE_OUTER_BOUND('',#174,.T.);
#48=FACE_OUTER_BOUND('',#175,.T.);
#49=FACE_OUTER_BOUND('',#176,.T.);
#50=FACE_OUTER_BOUND('',#177,.T.);
#51=FACE_OUTER_BOUND('',#178,.T.);
#52=FACE_OUTER_BOUND('',#179,.T.);
#53=ADVANCED_FACE('',(#159,#160),#70,.F.);
#54=ADVANCED_FACE('',(#38),#71,.T.);
#55=ADVANCED_FACE('',(#39),#72,.T.);
#56=ADVANCED_FACE('',(#40),#73,.T.);
#57=ADVANCED_FACE('',(#41),#74,.F.);
#58=ADVANCED_FACE('',(#42),#75,.F.);
#59=ADVANCED_FACE('',(#43),#35,.T.);
#60=ADVANCED_FACE('',(#44),#76,.T.);
#61=ADVANCED_FACE('',(#45),#77,.T.);
#62=ADVANCED_FACE('',(#46),#78,.T.);
#63=ADVANCED_FACE('',(#47),#79,.F.);
#64=ADVANCED_FACE('',(#48),#80,.F.);
#65=ADVANCED_FACE('',(#49),#81,.F.);
#66=ADVANCED_FACE('',(#50),#82,.F.);
#67=ADVANCED_FACE('',(#51),#83,.F.);
#68=ADVANCED_FACE('',(#52),#84,.F.);
#69=ADVANCED_FACE('',(#161,#162),#36,.T.);
#70=PLANE('',#371);
#71=PLANE('',#372);
#72=PLANE('',#374);
#73=PLANE('',#375);
#74=PLANE('',#376);
#75=PLANE('',#377);
#76=PLANE('',#379);
#77=PLANE('',#380);
#78=PLANE('',#381);
#79=PLANE('',#382);
#80=PLANE('',#383);
#81=PLANE('',#384);
#82=PLANE('',#385);
#83=PLANE('',#386);
#84=PLANE('',#388);
#85=LINE('',#486,#122);
#86=LINE('',#489,#123);
#87=LINE('',#491,#124);
#88=LINE('',#493,#125);
#89=LINE('',#495,#126);
#90=LINE('',#497,#127);
#91=LINE('',#501,#128);
#92=LINE('',#503,#129);
#93=LINE('',#506,#130);
#94=LINE('',#508,#131);
#95=LINE('',#510,#132);
#96=LINE('',#512,#133);
#97=LINE('',#514,#134);
#98=LINE('',#516,#135);
#99=LINE('',#518,#136);
#100=LINE('',#520,#137);
#101=LINE('',#522,#138);
#102=LINE('',#524,#139);
#103=LINE('',#526,#140);
#104=LINE('',#528,#141);
#105=LINE('',#530,#142);
#106=LINE('',#532,#143);
#107=LINE('',#534,#144);
#108=LINE('',#538,#145);
#109=LINE('',#539,#146);
#110=LINE('',#540,#147);
#111=LINE('',#542,#148);
#112=LINE('',#544,#149);
#113=LINE('',#545,#150);
#114=LINE('',#547,#151);
#115=LINE('',#549,#152);
#116=LINE('',#551,#153);
#117=LINE('',#555,#154);
#118=LINE('',#558,#155);
#119=LINE('',#559,#156);
#120=LINE('',#561,#157);
#121=LINE('',#563,#158);
#122=VECTOR('',#400,1.);
#123=VECTOR('',#401,1.);
#124=VECTOR('',#402,1.);
#125=VECTOR('',#403,1.);
#126=VECTOR('',#404,1.);
#127=VECTOR('',#405,1.);
#128=VECTOR('',#408,1.);
#129=VECTOR('',#411,1.);
#130=VECTOR('',#412,1.);
#131=VECTOR('',#413,1.);
#132=VECTOR('',#414,1.);
#133=VECTOR('',#415,1.);
#134=VECTOR('',#416,1.);
#135=VECTOR('',#417,1.);
#136=VECTOR('',#418,1.);
#137=VECTOR('',#419,1.);
#138=VECTOR('',#420,1.);
#139=VECTOR('',#421,1.);
#140=VECTOR('',#424,1.);
#141=VECTOR('',#425,1.);
#142=VECTOR('',#426,1.);
#143=VECTOR('',#427,1.);
#144=VECTOR('',#428,1.);
#145=VECTOR('',#433,1.);
#146=VECTOR('',#434,1.);
#147=VECTOR('',#435,1.);
#148=VECTOR('',#438,1.);
#149=VECTOR('',#441,1.);
#150=VECTOR('',#442,1.);
#151=VECTOR('',#445,1.);
#152=VECTOR('',#448,1.);
#153=VECTOR('',#451,1.);
#154=VECTOR('',#458,1.);
#155=VECTOR('',#459,1.);
#156=VECTOR('',#460,1.);
#157=VECTOR('',#463,1.);
#158=VECTOR('',#466,1.);
#159=FACE_BOUND('',#163,.T.);
#160=FACE_BOUND('',#164,.T.);
#161=FACE_BOUND('',#180,.T.);
#162=FACE_BOUND('',#181,.T.);
#163=EDGE_LOOP('',(#182));
#164=EDGE_LOOP('',(#183,#184,#185,#186,#187,#188,#189,#190));
#165=EDGE_LOOP('',(#191,#192,#193,#194,#195,#196,#197,#198,#199,#200,#201));
#166=EDGE_LOOP('',(#202,#203,#204,#205,#206,#207,#208));
#167=EDGE_LOOP('',(#209,#210,#211,#212,#213,#214));
#168=EDGE_LOOP('',(#215,#216,#217,#218));
#169=EDGE_LOOP('',(#219,#220,#221,#222));
#170=EDGE_LOOP('',(#223,#224,#225,#226));
#171=EDGE_LOOP('',(#227,#228,#229,#230,#231));
#172=EDGE_LOOP('',(#232,#233,#234,#235));
#173=EDGE_LOOP('',(#236,#237,#238,#239));
#174=EDGE_LOOP('',(#240,#241,#242,#243));
#175=EDGE_LOOP('',(#244,#245,#246,#247));
#176=EDGE_LOOP('',(#248,#249,#250,#251));
#177=EDGE_LOOP('',(#252,#253,#254,#255));
#178=EDGE_LOOP('',(#256,#257,#258,#259,#260));
#179=EDGE_LOOP('',(#261));
#180=EDGE_LOOP('',(#262));
#181=EDGE_LOOP('',(#263));
#182=ORIENTED_EDGE('',*,*,#292,.F.);
#183=ORIENTED_EDGE('',*,*,#293,.F.);
#184=ORIENTED_EDGE('',*,*,#294,.T.);
#185=ORIENTED_EDGE('',*,*,#295,.F.);
#186=ORIENTED_EDGE('',*,*,#296,.F.);
#187=ORIENTED_EDGE('',*,*,#297,.F.);
#188=ORIENTED_EDGE('',*,*,#298,.F.);
#189=ORIENTED_EDGE('',*,*,#299,.F.);
#190=ORIENTED_EDGE('',*,*,#300,.F.);
#191=ORIENTED_EDGE('',*,*,#301,.F.);
#192=ORIENTED_EDGE('',*,*,#302,.T.);
#193=ORIENTED_EDGE('',*,*,#303,.T.);
#194=ORIENTED_EDGE('',*,*,#304,.T.);
#195=ORIENTED_EDGE('',*,*,#305,.F.);
#196=ORIENTED_EDGE('',*,*,#306,.T.);
#197=ORIENTED_EDGE('',*,*,#307,.F.);
#198=ORIENTED_EDGE('',*,*,#308,.T.);
#199=ORIENTED_EDGE('',*,*,#309,.T.);
#200=ORIENTED_EDGE('',*,*,#310,.T.);
#201=ORIENTED_EDGE('',*,*,#311,.F.);
#202=ORIENTED_EDGE('',*,*,#312,.T.);
#203=ORIENTED_EDGE('',*,*,#301,.T.);
#204=ORIENTED_EDGE('',*,*,#313,.T.);
#205=ORIENTED_EDGE('',*,*,#314,.T.);
#206=ORIENTED_EDGE('',*,*,#315,.T.);
#207=ORIENTED_EDGE('',*,*,#316,.T.);
#208=ORIENTED_EDGE('',*,*,#317,.T.);
#209=ORIENTED_EDGE('',*,*,#316,.F.);
#210=ORIENTED_EDGE('',*,*,#318,.T.);
#211=ORIENTED_EDGE('',*,*,#308,.F.);
#212=ORIENTED_EDGE('',*,*,#319,.T.);
#213=ORIENTED_EDGE('',*,*,#300,.T.);
#214=ORIENTED_EDGE('',*,*,#320,.T.);
#215=ORIENTED_EDGE('',*,*,#307,.T.);
#216=ORIENTED_EDGE('',*,*,#321,.T.);
#217=ORIENTED_EDGE('',*,*,#293,.T.);
#218=ORIENTED_EDGE('',*,*,#319,.F.);
#219=ORIENTED_EDGE('',*,*,#295,.T.);
#220=ORIENTED_EDGE('',*,*,#322,.T.);
#221=ORIENTED_EDGE('',*,*,#305,.T.);
#222=ORIENTED_EDGE('',*,*,#323,.T.);
#223=ORIENTED_EDGE('',*,*,#320,.F.);
#224=ORIENTED_EDGE('',*,*,#299,.T.);
#225=ORIENTED_EDGE('',*,*,#324,.T.);
#226=ORIENTED_EDGE('',*,*,#317,.F.);
#227=ORIENTED_EDGE('',*,*,#324,.F.);
#228=ORIENTED_EDGE('',*,*,#298,.T.);
#229=ORIENTED_EDGE('',*,*,#325,.F.);
#230=ORIENTED_EDGE('',*,*,#302,.F.);
#231=ORIENTED_EDGE('',*,*,#312,.F.);
#232=ORIENTED_EDGE('',*,*,#326,.F.);
#233=ORIENTED_EDGE('',*,*,#296,.T.);
#234=ORIENTED_EDGE('',*,*,#323,.F.);
#235=ORIENTED_EDGE('',*,*,#304,.F.);
#236=ORIENTED_EDGE('',*,*,#325,.T.);
#237=ORIENTED_EDGE('',*,*,#297,.T.);
#238=ORIENTED_EDGE('',*,*,#326,.T.);
#239=ORIENTED_EDGE('',*,*,#303,.F.);
#240=ORIENTED_EDGE('',*,*,#294,.F.);
#241=ORIENTED_EDGE('',*,*,#321,.F.);
#242=ORIENTED_EDGE('',*,*,#306,.F.);
#243=ORIENTED_EDGE('',*,*,#322,.F.);
#244=ORIENTED_EDGE('',*,*,#327,.F.);
#245=ORIENTED_EDGE('',*,*,#328,.F.);
#246=ORIENTED_EDGE('',*,*,#310,.F.);
#247=ORIENTED_EDGE('',*,*,#329,.F.);
#248=ORIENTED_EDGE('',*,*,#313,.F.);
#249=ORIENTED_EDGE('',*,*,#311,.T.);
#250=ORIENTED_EDGE('',*,*,#328,.T.);
#251=ORIENTED_EDGE('',*,*,#330,.F.);
#252=ORIENTED_EDGE('',*,*,#314,.F.);
#253=ORIENTED_EDGE('',*,*,#330,.T.);
#254=ORIENTED_EDGE('',*,*,#327,.T.);
#255=ORIENTED_EDGE('',*,*,#331,.F.);
#256=ORIENTED_EDGE('',*,*,#318,.F.);
#257=ORIENTED_EDGE('',*,*,#315,.F.);
#258=ORIENTED_EDGE('',*,*,#331,.T.);
#259=ORIENTED_EDGE('',*,*,#329,.T.);
#260=ORIENTED_EDGE('',*,*,#309,.F.);
#261=ORIENTED_EDGE('',*,*,#332,.F.);
#262=ORIENTED_EDGE('',*,*,#332,.T.);
#263=ORIENTED_EDGE('',*,*,#292,.T.);
#264=VERTEX_POINT('',#485);
#265=VERTEX_POINT('',#487);
#266=VERTEX_POINT('',#488);
#267=VERTEX_POINT('',#490);
#268=VERTEX_POINT('',#492);
#269=VERTEX_POINT('',#494);
#270=VERTEX_POINT('',#496);
#271=VERTEX_POINT('',#498);
#272=VERTEX_POINT('',#500);
#273=VERTEX_POINT('',#504);
#274=VERTEX_POINT('',#505);
#275=VERTEX_POINT('',#507);
#276=VERTEX_POINT('',#509);
#277=VERTEX_POINT('',#511);
#278=VERTEX_POINT('',#513);
#279=VERTEX_POINT('',#515);
#280=VERTEX_POINT('',#517);
#281=VERTEX_POINT('',#519);
#282=VERTEX_POINT('',#521);
#283=VERTEX_POINT('',#523);
#284=VERTEX_POINT('',#527);
#285=VERTEX_POINT('',#529);
#286=VERTEX_POINT('',#531);
#287=VERTEX_POINT('',#533);
#288=VERTEX_POINT('',#535);
#289=VERTEX_POINT('',#556);
#290=VERTEX_POINT('',#557);
#291=VERTEX_POINT('',#567);
#292=EDGE_CURVE('',#264,#264,#333,.T.);
#293=EDGE_CURVE('',#265,#266,#85,.T.);
#294=EDGE_CURVE('',#265,#267,#86,.T.);
#295=EDGE_CURVE('',#268,#267,#87,.T.);
#296=EDGE_CURVE('',#269,#268,#88,.T.);
#297=EDGE_CURVE('',#270,#269,#89,.T.);
#298=EDGE_CURVE('',#271,#270,#90,.T.);
#299=EDGE_CURVE('',#272,#271,#334,.T.);
#300=EDGE_CURVE('',#266,#272,#91,.T.);
#301=EDGE_CURVE('',#273,#274,#92,.T.);
#302=EDGE_CURVE('',#273,#275,#93,.T.);
#303=EDGE_CURVE('',#275,#276,#94,.T.);
#304=EDGE_CURVE('',#276,#277,#95,.T.);
#305=EDGE_CURVE('',#278,#277,#96,.T.);
#306=EDGE_CURVE('',#278,#279,#97,.T.);
#307=EDGE_CURVE('',#280,#279,#98,.T.);
#308=EDGE_CURVE('',#280,#281,#99,.T.);
#309=EDGE_CURVE('',#281,#282,#100,.T.);
#310=EDGE_CURVE('',#282,#283,#101,.T.);
#311=EDGE_CURVE('',#274,#283,#102,.T.);
#312=EDGE_CURVE('',#284,#273,#103,.T.);
#313=EDGE_CURVE('',#274,#285,#104,.T.);
#314=EDGE_CURVE('',#285,#286,#105,.T.);
#315=EDGE_CURVE('',#286,#287,#106,.T.);
#316=EDGE_CURVE('',#287,#288,#107,.T.);
#317=EDGE_CURVE('',#288,#284,#37,.T.);
#318=EDGE_CURVE('',#287,#281,#108,.T.);
#319=EDGE_CURVE('',#280,#266,#109,.T.);
#320=EDGE_CURVE('',#272,#288,#110,.T.);
#321=EDGE_CURVE('',#279,#265,#111,.T.);
#322=EDGE_CURVE('',#267,#278,#112,.T.);
#323=EDGE_CURVE('',#277,#268,#113,.T.);
#324=EDGE_CURVE('',#271,#284,#114,.T.);
#325=EDGE_CURVE('',#275,#270,#115,.T.);
#326=EDGE_CURVE('',#269,#276,#116,.T.);
#327=EDGE_CURVE('',#289,#290,#117,.T.);
#328=EDGE_CURVE('',#283,#289,#118,.T.);
#329=EDGE_CURVE('',#290,#282,#119,.T.);
#330=EDGE_CURVE('',#285,#289,#120,.T.);
#331=EDGE_CURVE('',#286,#290,#121,.T.);
#332=EDGE_CURVE('',#291,#291,#335,.T.);
#333=CIRCLE('',#369,25.8);
#334=CIRCLE('',#370,26.0000000000003);
#335=CIRCLE('',#387,25.8);
#336=CURVE_STYLE('',#339,POSITIVE_LENGTH_MEASURE(0.18),#363);
#337=CURVE_STYLE('',#340,POSITIVE_LENGTH_MEASURE(0.18),#363);
#338=CURVE_STYLE('',#341,POSITIVE_LENGTH_MEASURE(0.18),#363);
#339=DRAUGHTING_PRE_DEFINED_CURVE_FONT('continuous');
#340=DRAUGHTING_PRE_DEFINED_CURVE_FONT('continuous');
#341=DRAUGHTING_PRE_DEFINED_CURVE_FONT('continuous');
#342=PRESENTATION_LAYER_ASSIGNMENT('1','Layer 1',(#478,#479,#480,#366,#367,
#368,#33));
#343=STYLED_ITEM('',(#350),#478);
#344=STYLED_ITEM('',(#351),#479);
#345=STYLED_ITEM('',(#352),#480);
#346=STYLED_ITEM('',(#353),#366);
#347=STYLED_ITEM('',(#354),#367);
#348=STYLED_ITEM('',(#355),#368);
#349=STYLED_ITEM('',(#356),#33);
#350=PRESENTATION_STYLE_ASSIGNMENT((#357));
#351=PRESENTATION_STYLE_ASSIGNMENT((#358));
#352=PRESENTATION_STYLE_ASSIGNMENT((#359));
#353=PRESENTATION_STYLE_ASSIGNMENT((#336));
#354=PRESENTATION_STYLE_ASSIGNMENT((#337));
#355=PRESENTATION_STYLE_ASSIGNMENT((#338));
#356=PRESENTATION_STYLE_ASSIGNMENT((#28));
#357=POINT_STYLE('',#360,POSITIVE_LENGTH_MEASURE(3.),#363);
#358=POINT_STYLE('',#361,POSITIVE_LENGTH_MEASURE(3.),#363);
#359=POINT_STYLE('',#362,POSITIVE_LENGTH_MEASURE(3.),#363);
#360=PRE_DEFINED_POINT_MARKER_SYMBOL('plus');
#361=PRE_DEFINED_POINT_MARKER_SYMBOL('plus');
#362=PRE_DEFINED_POINT_MARKER_SYMBOL('plus');
#363=COLOUR_RGB('Pale Maroon',0.811749446860456,0.603921568627451,0.611749446860456);
#364=COLOUR_RGB('TLS_NOCUT',0.501960784313725,0.501960784313725,0.501960784313725);
#365=AXIS2_PLACEMENT_3D('',#477,#390,#391);
#366=AXIS2_PLACEMENT_3D('PCS',#481,#392,#393);
#367=AXIS2_PLACEMENT_3D('CSW',#482,#394,#395);
#368=AXIS2_PLACEMENT_3D('MCS',#483,#396,#397);
#369=AXIS2_PLACEMENT_3D('',#484,#398,#399);
#370=AXIS2_PLACEMENT_3D('',#499,#406,#407);
#371=AXIS2_PLACEMENT_3D('',#502,#409,#410);
#372=AXIS2_PLACEMENT_3D('',#525,#422,#423);
#373=AXIS2_PLACEMENT_3D('',#536,#429,#430);
#374=AXIS2_PLACEMENT_3D('',#537,#431,#432);
#375=AXIS2_PLACEMENT_3D('',#541,#436,#437);
#376=AXIS2_PLACEMENT_3D('',#543,#439,#440);
#377=AXIS2_PLACEMENT_3D('',#546,#443,#444);
#378=AXIS2_PLACEMENT_3D('',#548,#446,#447);
#379=AXIS2_PLACEMENT_3D('',#550,#449,#450);
#380=AXIS2_PLACEMENT_3D('',#552,#452,#453);
#381=AXIS2_PLACEMENT_3D('',#553,#454,#455);
#382=AXIS2_PLACEMENT_3D('',#554,#456,#457);
#383=AXIS2_PLACEMENT_3D('',#560,#461,#462);
#384=AXIS2_PLACEMENT_3D('',#562,#464,#465);
#385=AXIS2_PLACEMENT_3D('',#564,#467,#468);
#386=AXIS2_PLACEMENT_3D('',#565,#469,#470);
#387=AXIS2_PLACEMENT_3D('',#566,#471,#472);
#388=AXIS2_PLACEMENT_3D('',#568,#473,#474);
#389=AXIS2_PLACEMENT_3D('',#569,#475,#476);
#390=DIRECTION('',(0.,0.,1.));
#391=DIRECTION('',(1.,0.,0.));
#392=DIRECTION('',(0.,0.,1.));
#393=DIRECTION('',(1.,0.,0.));
#394=DIRECTION('',(0.,0.,1.));
#395=DIRECTION('',(1.,0.,0.));
#396=DIRECTION('',(0.,0.,1.));
#397=DIRECTION('',(1.,0.,0.));
#398=DIRECTION('',(0.,0.,-1.));
#399=DIRECTION('',(1.,0.,0.));
#400=DIRECTION('',(-1.,0.,0.));
#401=DIRECTION('',(0.707106781186548,-0.707106781186547,0.));
#402=DIRECTION('',(0.,1.,0.));
#403=DIRECTION('',(0.707106781186547,0.707106781186548,0.));
#404=DIRECTION('',(1.,0.,0.));
#405=DIRECTION('',(0.241921895599669,-0.970295726275996,0.));
#406=DIRECTION('',(0.,0.,1.));
#407=DIRECTION('',(1.,0.,0.));
#408=DIRECTION('',(-0.241921895599668,-0.970295726275996,0.));
#409=DIRECTION('',(0.,0.,1.));
#410=DIRECTION('',(-1.,0.,0.));
#411=DIRECTION('',(-1.23828557103232E-16,1.,-1.48029736616688E-16));
#412=DIRECTION('',(0.241921895599668,-0.970295726275996,1.43632620800933E-16));
#413=DIRECTION('',(1.,0.,0.));
#414=DIRECTION('',(0.707106781186547,0.707106781186548,-1.04672830578918E-16));
#415=DIRECTION('',(0.,-1.,1.48029736616688E-16));
#416=DIRECTION('',(-0.707106781186548,0.707106781186547,-1.04672830578918E-16));
#417=DIRECTION('',(1.,0.,0.));
#418=DIRECTION('',(-0.241921895599668,-0.970295726275996,1.43632620800933E-16));
#419=DIRECTION('',(1.,0.,0.));
#420=DIRECTION('',(0.,-1.,-1.48029736616688E-16));
#421=DIRECTION('',(1.,0.,0.));
#422=DIRECTION('',(0.,1.48029736616688E-16,1.));
#423=DIRECTION('',(0.,-1.,1.48029736616688E-16));
#424=DIRECTION('',(0.159678599104553,-0.640435880782255,0.751228745186621));
#425=DIRECTION('',(0.207911690817759,0.,0.978147600733806));
#426=DIRECTION('',(-9.23638652630699E-17,1.,0.));
#427=DIRECTION('',(-0.207911690817759,0.,-0.978147600733806));
#428=DIRECTION('',(-0.159678599104553,-0.640435880782254,-0.751228745186621));
#429=DIRECTION('',(-0.978147600733806,-9.03454932015723E-17,0.207911690817759));
#430=DIRECTION('',(0.207911690817759,1.92035273973086E-17,0.978147600733806));
#431=DIRECTION('',(-0.978147600733806,-9.03454932015724E-17,0.207911690817759));
#432=DIRECTION('',(-0.207911690817759,0.,-0.978147600733806));
#433=DIRECTION('',(2.66163162923371E-16,0.,-1.));
#434=DIRECTION('',(-1.33081581461686E-16,-5.33761069531325E-16,-1.));
#435=DIRECTION('',(0.,0.,1.));
#436=DIRECTION('',(-0.970295726275996,0.241921895599668,0.));
#437=DIRECTION('',(-0.241921895599668,-0.970295726275996,0.));
#438=DIRECTION('',(0.,-5.33761069531325E-16,-1.));
#439=DIRECTION('',(0.,-1.,5.33761069531325E-16));
#440=DIRECTION('',(0.,-5.34294830600857E-16,-1.));
#441=DIRECTION('',(0.,5.33761069531325E-16,1.));
#442=DIRECTION('',(0.,0.,-1.));
#443=DIRECTION('',(-1.,0.,0.));
#444=DIRECTION('',(0.,0.,-1.));
#445=DIRECTION('',(0.,0.,1.));
#446=DIRECTION('',(0.,0.,1.));
#447=DIRECTION('',(-1.,0.,0.));
#448=DIRECTION('',(0.,0.,-1.));
#449=DIRECTION('',(-0.970295726275996,-0.241921895599668,0.));
#450=DIRECTION('',(0.241921895599668,-0.970295726275996,0.));
#451=DIRECTION('',(0.,0.,1.));
#452=DIRECTION('',(0.707106781186548,-0.707106781186547,0.));
#453=DIRECTION('',(0.707106781186547,0.707106781186548,0.));
#454=DIRECTION('',(0.,-1.,0.));
#455=DIRECTION('',(0.,0.,-1.));
#456=DIRECTION('',(-0.707106781186547,-0.707106781186548,3.77426071798985E-16));
#457=DIRECTION('',(0.707106781186548,-0.707106781186547,0.));
#458=DIRECTION('',(0.,1.,0.));
#459=DIRECTION('',(0.,0.,1.));
#460=DIRECTION('',(0.,0.,-1.));
#461=DIRECTION('',(-1.,0.,0.));
#462=DIRECTION('',(0.,0.,-1.));
#463=DIRECTION('',(1.,0.,0.));
#464=DIRECTION('',(0.,1.,0.));
#465=DIRECTION('',(0.,0.,1.));
#466=DIRECTION('',(1.,0.,0.));
#467=DIRECTION('',(0.,0.,-1.));
#468=DIRECTION('',(1.,0.,0.));
#469=DIRECTION('',(0.,-1.,0.));
#470=DIRECTION('',(0.,0.,-1.));
#471=DIRECTION('',(-2.34291072916505E-15,0.,1.));
#472=DIRECTION('',(1.,0.,2.42054438508392E-15));
#473=DIRECTION('',(-2.34291072916505E-15,0.,1.));
#474=DIRECTION('',(1.,-5.55111512312578E-17,2.34534613952064E-15));
#475=DIRECTION('',(2.34291072916505E-15,0.,-1.));
#476=DIRECTION('',(-1.,5.04280080225816E-17,-2.35330704105381E-15));
#477=CARTESIAN_POINT('',(0.,0.,0.));
#478=CARTESIAN_POINT('',(0.,0.,0.));
#479=CARTESIAN_POINT('',(-89.45,2.,-12.));
#480=CARTESIAN_POINT('',(-36.39328049,0.,0.));
#481=CARTESIAN_POINT('',(0.,0.,0.));
#482=CARTESIAN_POINT('',(-89.45,2.,-12.));
#483=CARTESIAN_POINT('',(-36.39328049,0.,0.));
#484=CARTESIAN_POINT('',(-89.45,2.,-12.));
#485=CARTESIAN_POINT('',(-63.65,2.,-12.));
#486=CARTESIAN_POINT('',(-116.,49.,-12.));
#487=CARTESIAN_POINT('',(-14.,49.,-12.));
#488=CARTESIAN_POINT('',(-104.527538229468,49.,-12.));
#489=CARTESIAN_POINT('',(-14.,49.,-12.));
#490=CARTESIAN_POINT('',(1.04083408558608E-14,35.,-12.));
#491=CARTESIAN_POINT('',(0.,-43.,-12.));
#492=CARTESIAN_POINT('',(0.,-25.,-12.));
#493=CARTESIAN_POINT('',(0.,-25.,-12.));
#494=CARTESIAN_POINT('',(-18.,-43.,-12.));
#495=CARTESIAN_POINT('',(-116.,-43.,-12.));
#496=CARTESIAN_POINT('',(-105.026194235155,-43.,-12.));
#497=CARTESIAN_POINT('',(-114.677688883176,-4.28996928559148,-12.));
#498=CARTESIAN_POINT('',(-114.677688883176,-4.28996928559148,-12.));
#499=CARTESIAN_POINT('',(-89.4499999999997,1.99999999999996,-12.));
#500=CARTESIAN_POINT('',(-114.677688883176,8.2899692855914,-12.));
#501=CARTESIAN_POINT('',(-104.034914014089,50.9758078104401,-12.));
#502=CARTESIAN_POINT('',(-89.45,2.,-12.));
#503=CARTESIAN_POINT('',(-113.819150654442,-50.5269740299546,1.14925430283463E-14));
#504=CARTESIAN_POINT('',(-113.819150654442,-7.73337804411096,3.46944695195361E-15));
#505=CARTESIAN_POINT('',(-113.819150654442,-6.,4.90122679035406E-15));
#506=CARTESIAN_POINT('',(-113.414730211258,-9.35541984676223,5.23365348788862E-15));
#507=CARTESIAN_POINT('',(-105.026194235155,-43.,1.02140518265514E-14));
#508=CARTESIAN_POINT('',(-116.,-43.,1.02140518265514E-14));
#509=CARTESIAN_POINT('',(-18.,-43.,1.02140518265514E-14));
#510=CARTESIAN_POINT('',(-50.4999999999999,-75.5,1.50250182665938E-14));
#511=CARTESIAN_POINT('',(-3.46944695195361E-15,-25.,7.54951656745106E-15));
#512=CARTESIAN_POINT('',(0.,-10.,5.32907051820075E-15));
#513=CARTESIAN_POINT('',(1.04083408558608E-14,35.,-1.33226762955019E-15));
#514=CARTESIAN_POINT('',(-35.5000000000001,70.5000000000001,-6.58732327944261E-15));
#515=CARTESIAN_POINT('',(-14.,49.,-2.31296463463575E-15));
#516=CARTESIAN_POINT('',(-116.,49.,-1.22124532708767E-15));
#517=CARTESIAN_POINT('',(-104.527538229468,49.,-3.40468394218382E-15));
#518=CARTESIAN_POINT('',(-119.048388964689,-9.23995126754489,5.21656070451957E-15));
#519=CARTESIAN_POINT('',(-112.256706317607,17.9999999999999,1.18423789293352E-15));
#520=CARTESIAN_POINT('',(-117.,18.,1.73472347597681E-15));
#521=CARTESIAN_POINT('',(-8.,18.,1.73472347597681E-15));
#522=CARTESIAN_POINT('',(-8.,18.,1.77635683940025E-15));
#523=CARTESIAN_POINT('',(-8.,-6.,-1.77635683940025E-15));
#524=CARTESIAN_POINT('',(-117.,-6.,-1.77635683940025E-15));
#525=CARTESIAN_POINT('',(-116.,-10.,5.32907051820075E-15));
#526=CARTESIAN_POINT('',(-109.221341981342,-26.1741814062236,21.6309891210867));
#527=CARTESIAN_POINT('',(-114.677688883176,-4.28996928559147,-4.03910480103985));
#528=CARTESIAN_POINT('',(-113.956650091681,-6.,-0.646883992471057));
#529=CARTESIAN_POINT('',(-110.843358791062,-6.,14.));
#530=CARTESIAN_POINT('',(-110.843358791062,-6.,14.));
#531=CARTESIAN_POINT('',(-110.843358791062,18.,14.));
#532=CARTESIAN_POINT('',(-111.10949359015,18.,12.7479342110272));
#533=CARTESIAN_POINT('',(-112.256706317607,18.,7.35072267145629));
#534=CARTESIAN_POINT('',(-119.964568867834,-12.9145481547667,-28.9119195620605));
#535=CARTESIAN_POINT('',(-114.677688883176,8.28996928559139,-4.03910480103989));
#536=CARTESIAN_POINT('',(-89.4499999999997,1.99999999999996,114.647839911306));
#537=CARTESIAN_POINT('',(-113.443510204327,-50.5269740299546,1.76724937195097));
#538=CARTESIAN_POINT('',(-112.256706317607,18.,14.));
#539=CARTESIAN_POINT('',(-104.527538229468,49.,-2.74801868276882E-15));
#540=CARTESIAN_POINT('',(-114.677688883176,8.28996928559139,-12.));
#541=CARTESIAN_POINT('',(-104.034914014089,50.9758078104401,-12.));
#542=CARTESIAN_POINT('',(-14.,49.,-1.22124532708767E-15));
#543=CARTESIAN_POINT('',(-116.,49.,-1.22124532708767E-15));
#544=CARTESIAN_POINT('',(0.,35.,-52.));
#545=CARTESIAN_POINT('',(0.,-25.,-12.));
#546=CARTESIAN_POINT('',(0.,-43.,-52.));
#547=CARTESIAN_POINT('',(-114.677688883176,-4.28996928559147,-12.));
#548=CARTESIAN_POINT('',(-89.4499999999997,1.99999999999996,-12.));
#549=CARTESIAN_POINT('',(-105.026194235155,-43.,1.02140518265514E-14));
#550=CARTESIAN_POINT('',(-114.677688883176,-4.28996928559148,-12.));
#551=CARTESIAN_POINT('',(-18.,-43.,1.02140518265514E-14));
#552=CARTESIAN_POINT('',(0.,-25.,-52.));
#553=CARTESIAN_POINT('',(-116.,-43.,1.02140518265514E-14));
#554=CARTESIAN_POINT('',(-14.,49.,-1.22124532708767E-15));
#555=CARTESIAN_POINT('',(-8.,-6.,14.));
#556=CARTESIAN_POINT('',(-8.,-6.,14.));
#557=CARTESIAN_POINT('',(-8.,18.,14.));
#558=CARTESIAN_POINT('',(-8.,-6.,-1.77635683940025E-15));
#559=CARTESIAN_POINT('',(-8.,18.,14.));
#560=CARTESIAN_POINT('',(-8.,18.,14.));
#561=CARTESIAN_POINT('',(-117.,-6.,14.));
#562=CARTESIAN_POINT('',(-117.,-6.,-1.77635683940025E-15));
#563=CARTESIAN_POINT('',(-117.,18.,14.));
#564=CARTESIAN_POINT('',(-117.,-6.,14.));
#565=CARTESIAN_POINT('',(-117.,18.,14.));
#566=CARTESIAN_POINT('',(-89.4499999999999,2.,-49.5000000000002));
#567=CARTESIAN_POINT('',(-63.6499999999999,2.,-49.5000000000001));
#568=CARTESIAN_POINT('',(-89.4499999999999,2.,-49.5000000000002));
#569=CARTESIAN_POINT('',(-89.45,2.,-12.0000000000002));
#570=MECHANICAL_DESIGN_GEOMETRIC_PRESENTATION_REPRESENTATION('',(#343,#344,
#345,#346,#347,#348,#349),#571);
#571=(
GEOMETRIC_REPRESENTATION_CONTEXT(3)
GLOBAL_UNCERTAINTY_ASSIGNED_CONTEXT((#572))
GLOBAL_UNIT_ASSIGNED_CONTEXT((#578,#574,#573))
REPRESENTATION_CONTEXT('1565263303412','TOP_LEVEL_ASSEMBLY_PART')
);
#572=UNCERTAINTY_MEASURE_WITH_UNIT(LENGTH_MEASURE(2.E-5),#578,
'DISTANCE_ACCURACY_VALUE','Maximum Tolerance applied to model');
#573=(
NAMED_UNIT(*)
SI_UNIT($,.STERADIAN.)
SOLID_ANGLE_UNIT()
);
#574=(
CONVERSION_BASED_UNIT('DEGREE',#576)
NAMED_UNIT(#575)
PLANE_ANGLE_UNIT()
);
#575=DIMENSIONAL_EXPONENTS(0.,0.,0.,0.,0.,0.,0.);
#576=PLANE_ANGLE_MEASURE_WITH_UNIT(PLANE_ANGLE_MEASURE(0.0174532925),#577);
#577=(
NAMED_UNIT(*)
PLANE_ANGLE_UNIT()
SI_UNIT($,.RADIAN.)
);
#578=(
LENGTH_UNIT()
NAMED_UNIT(*)
SI_UNIT(.MILLI.,.METRE.)
);
ENDSEC;
END-ISO-10303-21;
