ISO-10303-21;
HEADER;
/* Generated by software containing ST-Developer
 * from STEP Tools, Inc. (www.steptools.com) 
 */
/* OPTION: using custom schema-name function */

FILE_DESCRIPTION(
/* description */ (''),
/* implementation_level */ '2;1');

FILE_NAME(
/* name */ '1566220086257.stp',
/* time_stamp */ '2019-08-19T15:08:12+02:00',
/* author */ (''),
/* organization */ ('SMS'),
/* preprocessor_version */ 'ST-DEVELOPER v16.7',
/* originating_system */ 'SIEMENS PLM Software NX 12.0',
/* authorisation */ '');

FILE_SCHEMA (('AUTOMOTIVE_DESIGN { 1 0 10303 214 3 1 1 1 }'));
ENDSEC;

DATA;
#10=CONSTRUCTIVE_GEOMETRY_REPRESENTATION_RELATIONSHIP(
'supplemental geometry','',#26,#11);
#11=CONSTRUCTIVE_GEOMETRY_REPRESENTATION('supplemental geometry',(#122,
#123,#124),#190);
#12=GEOMETRICALLY_BOUNDED_WIREFRAME_SHAPE_REPRESENTATION(
'202505059mod000_00-None',(#27),#190);
#13=SHAPE_REPRESENTATION_RELATIONSHIP('None',
'relationship between 202505059mod000_00-None and 202505059mod000_00-N
one',#26,#15);
#14=SHAPE_REPRESENTATION_RELATIONSHIP('None',
'relationship between 202505059mod000_00-None and 202505059mod000_00-N
one',#26,#12);
#15=ADVANCED_BREP_SHAPE_REPRESENTATION('202505059mod000_00-None',(#33),
#190);
#16=SHAPE_DEFINITION_REPRESENTATION(#17,#26);
#17=PRODUCT_DEFINITION_SHAPE('','',#18);
#18=PRODUCT_DEFINITION(' ','',#20,#19);
#19=PRODUCT_DEFINITION_CONTEXT('part definition',#25,'design');
#20=PRODUCT_DEFINITION_FORMATION_WITH_SPECIFIED_SOURCE(' ',' ',#22,
 .NOT_KNOWN.);
#21=PRODUCT_RELATED_PRODUCT_CATEGORY('part','',(#22));
#22=PRODUCT('202505059mod000_00','202505059mod000_00',' ',(#23));
#23=PRODUCT_CONTEXT(' ',#25,'mechanical');
#24=APPLICATION_PROTOCOL_DEFINITION('international standard',
'automotive_design',2010,#25);
#25=APPLICATION_CONTEXT(
'core data for automotive mechanical design processes');
#26=SHAPE_REPRESENTATION('202505059mod000_00-None',(#121),#190);
#27=GEOMETRIC_CURVE_SET('None',(#167,#168,#169));
#28=SURFACE_STYLE_USAGE(.BOTH.,#29);
#29=SURFACE_SIDE_STYLE('',(#30));
#30=SURFACE_STYLE_FILL_AREA(#31);
#31=FILL_AREA_STYLE('',(#32));
#32=FILL_AREA_STYLE_COLOUR('',#120);
#33=MANIFOLD_SOLID_BREP('NOCUT',#34);
#34=CLOSED_SHELL('',(#41,#42,#43,#44,#45,#46));
#35=CONICAL_SURFACE('',#135,20.,45.);
#36=PLANE('',#129);
#37=PLANE('',#133);
#38=PLANE('',#134);
#39=FACE_OUTER_BOUND('',#59,.T.);
#40=FACE_OUTER_BOUND('',#64,.T.);
#41=ADVANCED_FACE('',(#49,#50),#47,.T.);
#42=ADVANCED_FACE('',(#39),#36,.T.);
#43=ADVANCED_FACE('',(#51,#52),#48,.T.);
#44=ADVANCED_FACE('',(#53,#54),#37,.T.);
#45=ADVANCED_FACE('',(#40),#38,.T.);
#46=ADVANCED_FACE('',(#55,#56),#35,.T.);
#47=CYLINDRICAL_SURFACE('',#127,24.);
#48=CYLINDRICAL_SURFACE('',#132,20.);
#49=FACE_BOUND('',#57,.T.);
#50=FACE_BOUND('',#58,.T.);
#51=FACE_BOUND('',#60,.T.);
#52=FACE_BOUND('',#61,.T.);
#53=FACE_BOUND('',#62,.T.);
#54=FACE_BOUND('',#63,.T.);
#55=FACE_BOUND('',#65,.T.);
#56=FACE_BOUND('',#66,.T.);
#57=EDGE_LOOP('',(#67));
#58=EDGE_LOOP('',(#68));
#59=EDGE_LOOP('',(#69));
#60=EDGE_LOOP('',(#70));
#61=EDGE_LOOP('',(#71));
#62=EDGE_LOOP('',(#72));
#63=EDGE_LOOP('',(#73));
#64=EDGE_LOOP('',(#74));
#65=EDGE_LOOP('',(#75));
#66=EDGE_LOOP('',(#76));
#67=ORIENTED_EDGE('',*,*,#82,.T.);
#68=ORIENTED_EDGE('',*,*,#83,.T.);
#69=ORIENTED_EDGE('',*,*,#84,.T.);
#70=ORIENTED_EDGE('',*,*,#85,.T.);
#71=ORIENTED_EDGE('',*,*,#86,.T.);
#72=ORIENTED_EDGE('',*,*,#86,.F.);
#73=ORIENTED_EDGE('',*,*,#82,.F.);
#74=ORIENTED_EDGE('',*,*,#83,.F.);
#75=ORIENTED_EDGE('',*,*,#84,.F.);
#76=ORIENTED_EDGE('',*,*,#85,.F.);
#77=VERTEX_POINT('',#174);
#78=VERTEX_POINT('',#176);
#79=VERTEX_POINT('',#179);
#80=VERTEX_POINT('',#182);
#81=VERTEX_POINT('',#184);
#82=EDGE_CURVE('',#77,#77,#87,.T.);
#83=EDGE_CURVE('',#78,#78,#88,.T.);
#84=EDGE_CURVE('',#79,#79,#89,.T.);
#85=EDGE_CURVE('',#80,#80,#90,.T.);
#86=EDGE_CURVE('',#81,#81,#91,.T.);
#87=CIRCLE('',#125,24.);
#88=CIRCLE('',#126,24.);
#89=CIRCLE('',#128,19.);
#90=CIRCLE('',#130,20.);
#91=CIRCLE('',#131,20.);
#92=CURVE_STYLE('',#95,POSITIVE_LENGTH_MEASURE(0.18),#119);
#93=CURVE_STYLE('',#96,POSITIVE_LENGTH_MEASURE(0.18),#119);
#94=CURVE_STYLE('',#97,POSITIVE_LENGTH_MEASURE(0.18),#119);
#95=DRAUGHTING_PRE_DEFINED_CURVE_FONT('continuous');
#96=DRAUGHTING_PRE_DEFINED_CURVE_FONT('continuous');
#97=DRAUGHTING_PRE_DEFINED_CURVE_FONT('continuous');
#98=PRESENTATION_LAYER_ASSIGNMENT('1','Layer 1',(#167,#168,#169,#122,#123,
#124,#33));
#99=STYLED_ITEM('',(#106),#167);
#100=STYLED_ITEM('',(#107),#168);
#101=STYLED_ITEM('',(#108),#169);
#102=STYLED_ITEM('',(#109),#122);
#103=STYLED_ITEM('',(#110),#123);
#104=STYLED_ITEM('',(#111),#124);
#105=STYLED_ITEM('',(#112),#33);
#106=PRESENTATION_STYLE_ASSIGNMENT((#113));
#107=PRESENTATION_STYLE_ASSIGNMENT((#114));
#108=PRESENTATION_STYLE_ASSIGNMENT((#115));
#109=PRESENTATION_STYLE_ASSIGNMENT((#92));
#110=PRESENTATION_STYLE_ASSIGNMENT((#93));
#111=PRESENTATION_STYLE_ASSIGNMENT((#94));
#112=PRESENTATION_STYLE_ASSIGNMENT((#28));
#113=POINT_STYLE('',#116,POSITIVE_LENGTH_MEASURE(3.),#119);
#114=POINT_STYLE('',#117,POSITIVE_LENGTH_MEASURE(3.),#119);
#115=POINT_STYLE('',#118,POSITIVE_LENGTH_MEASURE(3.),#119);
#116=PRE_DEFINED_POINT_MARKER_SYMBOL('plus');
#117=PRE_DEFINED_POINT_MARKER_SYMBOL('plus');
#118=PRE_DEFINED_POINT_MARKER_SYMBOL('plus');
#119=COLOUR_RGB('Medium Maroon',0.6,0.4,0.4);
#120=COLOUR_RGB('Medium Gray',0.501960784313725,0.501960784313725,0.501960784313725);
#121=AXIS2_PLACEMENT_3D('',#166,#136,#137);
#122=AXIS2_PLACEMENT_3D('MCS',#170,#138,#139);
#123=AXIS2_PLACEMENT_3D('PCS',#171,#140,#141);
#124=AXIS2_PLACEMENT_3D('CSW',#172,#142,#143);
#125=AXIS2_PLACEMENT_3D('',#173,#144,#145);
#126=AXIS2_PLACEMENT_3D('',#175,#146,#147);
#127=AXIS2_PLACEMENT_3D('',#177,#148,#149);
#128=AXIS2_PLACEMENT_3D('',#178,#150,#151);
#129=AXIS2_PLACEMENT_3D('',#180,#152,#153);
#130=AXIS2_PLACEMENT_3D('',#181,#154,#155);
#131=AXIS2_PLACEMENT_3D('',#183,#156,#157);
#132=AXIS2_PLACEMENT_3D('',#185,#158,#159);
#133=AXIS2_PLACEMENT_3D('',#186,#160,#161);
#134=AXIS2_PLACEMENT_3D('',#187,#162,#163);
#135=AXIS2_PLACEMENT_3D('',#188,#164,#165);
#136=DIRECTION('',(0.,0.,1.));
#137=DIRECTION('',(1.,0.,0.));
#138=DIRECTION('',(0.,0.,1.));
#139=DIRECTION('',(1.,0.,0.));
#140=DIRECTION('',(0.,0.,1.));
#141=DIRECTION('',(1.,0.,0.));
#142=DIRECTION('',(0.,0.,1.));
#143=DIRECTION('',(1.,0.,0.));
#144=DIRECTION('',(-2.34291072916505E-15,0.,1.));
#145=DIRECTION('',(1.,0.,2.34910470705193E-15));
#146=DIRECTION('',(2.34291072916505E-15,0.,-1.));
#147=DIRECTION('',(1.,0.,2.34291072916505E-15));
#148=DIRECTION('',(2.34291072916505E-15,0.,-1.));
#149=DIRECTION('',(-1.,0.,-2.34291072916505E-15));
#150=DIRECTION('',(2.34291072916505E-15,0.,-1.));
#151=DIRECTION('',(-1.,0.,-2.19122965386544E-15));
#152=DIRECTION('',(2.34291072916505E-15,0.,-1.));
#153=DIRECTION('',(-1.,0.,-2.34534613952064E-15));
#154=DIRECTION('',(-2.34291072916505E-15,0.,1.));
#155=DIRECTION('',(-1.,0.,-2.08166817117217E-15));
#156=DIRECTION('',(2.34291072916505E-15,0.,-1.));
#157=DIRECTION('',(-1.,0.,-2.34187669256869E-15));
#158=DIRECTION('',(2.34291072916505E-15,0.,-1.));
#159=DIRECTION('',(-1.,0.,-2.34187669256869E-15));
#160=DIRECTION('',(2.34291072916505E-15,0.,-1.));
#161=DIRECTION('',(-1.,0.,-2.34274405430668E-15));
#162=DIRECTION('',(-2.34291072916505E-15,0.,1.));
#163=DIRECTION('',(1.,0.,2.34291072916505E-15));
#164=DIRECTION('',(-2.34291072916505E-15,0.,1.));
#165=DIRECTION('',(1.,0.,2.44902137784961E-15));
#166=CARTESIAN_POINT('',(0.,0.,0.));
#167=CARTESIAN_POINT('',(0.,0.,0.));
#168=CARTESIAN_POINT('',(0.,0.,0.));
#169=CARTESIAN_POINT('',(1.72590342327174E-13,0.,-75.));
#170=CARTESIAN_POINT('',(0.,0.,0.));
#171=CARTESIAN_POINT('',(0.,0.,0.));
#172=CARTESIAN_POINT('',(1.72590342327174E-13,0.,-75.));
#173=CARTESIAN_POINT('',(9.37164291666019E-15,0.,-4.));
#174=CARTESIAN_POINT('',(24.,0.,-3.99999999999994));
#175=CARTESIAN_POINT('',(0.,0.,0.));
#176=CARTESIAN_POINT('',(24.,0.,5.62298574999612E-14));
#177=CARTESIAN_POINT('',(0.,0.,0.));
#178=CARTESIAN_POINT('',(1.73375393958214E-13,0.,-74.));
#179=CARTESIAN_POINT('',(-18.9999999999998,0.,-74.0000000000001));
#180=CARTESIAN_POINT('',(1.73375393958214E-13,0.,-74.));
#181=CARTESIAN_POINT('',(1.71032483229049E-13,0.,-73.));
#182=CARTESIAN_POINT('',(-19.9999999999998,0.,-73.0000000000001));
#183=CARTESIAN_POINT('',(9.37164291666019E-15,0.,-4.));
#184=CARTESIAN_POINT('',(-20.,0.,-4.00000000000005));
#185=CARTESIAN_POINT('',(9.37164291666019E-15,0.,-4.));
#186=CARTESIAN_POINT('',(9.37164291666019E-15,0.,-4.));
#187=CARTESIAN_POINT('',(0.,0.,0.));
#188=CARTESIAN_POINT('',(1.71032483229049E-13,0.,-73.));
#189=MECHANICAL_DESIGN_GEOMETRIC_PRESENTATION_REPRESENTATION('',(#99,#100,
#101,#102,#103,#104,#105),#190);
#190=(
GEOMETRIC_REPRESENTATION_CONTEXT(3)
GLOBAL_UNCERTAINTY_ASSIGNED_CONTEXT((#191))
GLOBAL_UNIT_ASSIGNED_CONTEXT((#197,#193,#192))
REPRESENTATION_CONTEXT('1566220086257','TOP_LEVEL_ASSEMBLY_PART')
);
#191=UNCERTAINTY_MEASURE_WITH_UNIT(LENGTH_MEASURE(2.E-5),#197,
'DISTANCE_ACCURACY_VALUE','Maximum Tolerance applied to model');
#192=(
NAMED_UNIT(*)
SI_UNIT($,.STERADIAN.)
SOLID_ANGLE_UNIT()
);
#193=(
CONVERSION_BASED_UNIT('DEGREE',#195)
NAMED_UNIT(#194)
PLANE_ANGLE_UNIT()
);
#194=DIMENSIONAL_EXPONENTS(0.,0.,0.,0.,0.,0.,0.);
#195=PLANE_ANGLE_MEASURE_WITH_UNIT(PLANE_ANGLE_MEASURE(0.0174532925),#196);
#196=(
NAMED_UNIT(*)
PLANE_ANGLE_UNIT()
SI_UNIT($,.RADIAN.)
);
#197=(
LENGTH_UNIT()
NAMED_UNIT(*)
SI_UNIT(.MILLI.,.METRE.)
);
ENDSEC;
END-ISO-10303-21;
