ISO-10303-21;
HEADER;
/* Generated by software containing ST-Developer
 * from STEP Tools, Inc. (www.steptools.com) 
 */
/* OPTION: using custom schema-name function */

FILE_DESCRIPTION(
/* description */ (''),
/* implementation_level */ '2;1');

FILE_NAME(
/* name */ '1566220001251.stp',
/* time_stamp */ '2019-08-19T15:06:47+02:00',
/* author */ (''),
/* organization */ ('SMS'),
/* preprocessor_version */ 'ST-DEVELOPER v16.7',
/* originating_system */ 'SIEMENS PLM Software NX 12.0',
/* authorisation */ '');

FILE_SCHEMA (('AUTOMOTIVE_DESIGN { 1 0 10303 214 3 1 1 1 }'));
ENDSEC;

DATA;
#10=CONSTRUCTIVE_GEOMETRY_REPRESENTATION_RELATIONSHIP(
'supplemental geometry','',#26,#11);
#11=CONSTRUCTIVE_GEOMETRY_REPRESENTATION('supplemental geometry',(#307,
#308,#309),#530);
#12=GEOMETRICALLY_BOUNDED_WIREFRAME_SHAPE_REPRESENTATION(
'202504699mod000_00-None',(#27),#530);
#13=SHAPE_REPRESENTATION_RELATIONSHIP('None',
'relationship between 202504699mod000_00-None and 202504699mod000_00-N
one',#26,#15);
#14=SHAPE_REPRESENTATION_RELATIONSHIP('None',
'relationship between 202504699mod000_00-None and 202504699mod000_00-N
one',#26,#12);
#15=ADVANCED_BREP_SHAPE_REPRESENTATION('202504699mod000_00-None',(#33),
#530);
#16=SHAPE_DEFINITION_REPRESENTATION(#17,#26);
#17=PRODUCT_DEFINITION_SHAPE('','',#18);
#18=PRODUCT_DEFINITION(' ','',#20,#19);
#19=PRODUCT_DEFINITION_CONTEXT('part definition',#25,'design');
#20=PRODUCT_DEFINITION_FORMATION_WITH_SPECIFIED_SOURCE(' ',' ',#22,
 .NOT_KNOWN.);
#21=PRODUCT_RELATED_PRODUCT_CATEGORY('part','',(#22));
#22=PRODUCT('202504699mod000_00','202504699mod000_00','NOCUT',(#23));
#23=PRODUCT_CONTEXT(' ',#25,'mechanical');
#24=APPLICATION_PROTOCOL_DEFINITION('international standard',
'automotive_design',2010,#25);
#25=APPLICATION_CONTEXT(
'core data for automotive mechanical design processes');
#26=SHAPE_REPRESENTATION('202504699mod000_00-None',(#306),#530);
#27=GEOMETRIC_CURVE_SET('None',(#450,#451,#452));
#28=SURFACE_STYLE_USAGE(.BOTH.,#29);
#29=SURFACE_SIDE_STYLE('',(#30));
#30=SURFACE_STYLE_FILL_AREA(#31);
#31=FILL_AREA_STYLE('',(#32));
#32=FILL_AREA_STYLE_COLOUR('',#305);
#33=MANIFOLD_SOLID_BREP('NOCUT',#34);
#34=CLOSED_SHELL('',(#77,#78,#79,#80,#81,#82,#83,#84,#85,#86,#87,#88,#89,
#90,#91,#92,#93));
#35=CONICAL_SURFACE('',#345,68.,45.);
#36=CONICAL_SURFACE('',#348,37.5,45.);
#37=FACE_BOUND('',#118,.T.);
#38=FACE_BOUND('',#119,.T.);
#39=FACE_BOUND('',#120,.T.);
#40=FACE_BOUND('',#121,.T.);
#41=FACE_BOUND('',#122,.T.);
#42=FACE_BOUND('',#123,.T.);
#43=FACE_BOUND('',#124,.T.);
#44=FACE_BOUND('',#125,.T.);
#45=FACE_BOUND('',#126,.T.);
#46=FACE_BOUND('',#127,.T.);
#47=FACE_BOUND('',#128,.T.);
#48=FACE_BOUND('',#129,.T.);
#49=FACE_BOUND('',#131,.T.);
#50=FACE_BOUND('',#132,.T.);
#51=PLANE('',#317);
#52=PLANE('',#320);
#53=PLANE('',#323);
#54=PLANE('',#325);
#55=PLANE('',#327);
#56=PLANE('',#329);
#57=PLANE('',#333);
#58=PLANE('',#337);
#59=PLANE('',#346);
#60=PLANE('',#349);
#61=LINE('',#468,#69);
#62=LINE('',#472,#70);
#63=LINE('',#476,#71);
#64=LINE('',#482,#72);
#65=LINE('',#489,#73);
#66=LINE('',#490,#74);
#67=LINE('',#494,#75);
#68=LINE('',#498,#76);
#69=VECTOR('',#371,1.);
#70=VECTOR('',#374,1.);
#71=VECTOR('',#379,1.);
#72=VECTOR('',#386,1.);
#73=VECTOR('',#393,1.);
#74=VECTOR('',#394,1.);
#75=VECTOR('',#399,1.);
#76=VECTOR('',#404,1.);
#77=ADVANCED_FACE('',(#99),#94,.F.);
#78=ADVANCED_FACE('',(#100),#51,.F.);
#79=ADVANCED_FACE('',(#101),#52,.T.);
#80=ADVANCED_FACE('',(#102),#53,.F.);
#81=ADVANCED_FACE('',(#103),#54,.F.);
#82=ADVANCED_FACE('',(#104),#55,.T.);
#83=ADVANCED_FACE('',(#105),#56,.F.);
#84=ADVANCED_FACE('',(#106),#57,.T.);
#85=ADVANCED_FACE('',(#107),#95,.F.);
#86=ADVANCED_FACE('',(#37,#38),#58,.T.);
#87=ADVANCED_FACE('',(#39,#40),#96,.T.);
#88=ADVANCED_FACE('',(#41,#42),#97,.T.);
#89=ADVANCED_FACE('',(#43,#44),#35,.T.);
#90=ADVANCED_FACE('',(#45,#46),#59,.T.);
#91=ADVANCED_FACE('',(#47,#48),#36,.T.);
#92=ADVANCED_FACE('',(#108),#60,.T.);
#93=ADVANCED_FACE('',(#49,#50),#98,.T.);
#94=CYLINDRICAL_SURFACE('',#314,31.);
#95=CYLINDRICAL_SURFACE('',#334,31.);
#96=CYLINDRICAL_SURFACE('',#339,68.);
#97=CYLINDRICAL_SURFACE('',#343,37.5);
#98=CYLINDRICAL_SURFACE('',#350,65.);
#99=FACE_OUTER_BOUND('',#109,.T.);
#100=FACE_OUTER_BOUND('',#110,.T.);
#101=FACE_OUTER_BOUND('',#111,.T.);
#102=FACE_OUTER_BOUND('',#112,.T.);
#103=FACE_OUTER_BOUND('',#113,.T.);
#104=FACE_OUTER_BOUND('',#114,.T.);
#105=FACE_OUTER_BOUND('',#115,.T.);
#106=FACE_OUTER_BOUND('',#116,.T.);
#107=FACE_OUTER_BOUND('',#117,.T.);
#108=FACE_OUTER_BOUND('',#130,.T.);
#109=EDGE_LOOP('',(#141,#142,#143,#144));
#110=EDGE_LOOP('',(#145,#146,#147,#148));
#111=EDGE_LOOP('',(#149,#150,#151,#152));
#112=EDGE_LOOP('',(#153,#154,#155,#156));
#113=EDGE_LOOP('',(#157,#158,#159,#160));
#114=EDGE_LOOP('',(#161,#162,#163,#164));
#115=EDGE_LOOP('',(#165,#166,#167,#168));
#116=EDGE_LOOP('',(#169,#170,#171,#172,#173,#174,#175,#176));
#117=EDGE_LOOP('',(#177,#178,#179,#180));
#118=EDGE_LOOP('',(#181));
#119=EDGE_LOOP('',(#182));
#120=EDGE_LOOP('',(#183));
#121=EDGE_LOOP('',(#184));
#122=EDGE_LOOP('',(#185,#186));
#123=EDGE_LOOP('',(#187));
#124=EDGE_LOOP('',(#188));
#125=EDGE_LOOP('',(#189));
#126=EDGE_LOOP('',(#190));
#127=EDGE_LOOP('',(#191,#192));
#128=EDGE_LOOP('',(#193));
#129=EDGE_LOOP('',(#194));
#130=EDGE_LOOP('',(#195));
#131=EDGE_LOOP('',(#196,#197,#198,#199,#200,#201,#202,#203));
#132=EDGE_LOOP('',(#204));
#133=ELLIPSE('',#311,178.521884977451,31.);
#134=ELLIPSE('',#313,178.521884977448,31.);
#135=ELLIPSE('',#315,374.320081404327,65.);
#136=ELLIPSE('',#316,178.521884977448,31.);
#137=ELLIPSE('',#321,374.320081404333,65.);
#138=ELLIPSE('',#322,178.521884977451,31.);
#139=ELLIPSE('',#324,374.320081404333,65.);
#140=ELLIPSE('',#328,374.320081404327,65.);
#141=ORIENTED_EDGE('',*,*,#229,.T.);
#142=ORIENTED_EDGE('',*,*,#230,.F.);
#143=ORIENTED_EDGE('',*,*,#231,.T.);
#144=ORIENTED_EDGE('',*,*,#232,.F.);
#145=ORIENTED_EDGE('',*,*,#233,.F.);
#146=ORIENTED_EDGE('',*,*,#234,.F.);
#147=ORIENTED_EDGE('',*,*,#235,.T.);
#148=ORIENTED_EDGE('',*,*,#236,.T.);
#149=ORIENTED_EDGE('',*,*,#234,.T.);
#150=ORIENTED_EDGE('',*,*,#237,.F.);
#151=ORIENTED_EDGE('',*,*,#238,.F.);
#152=ORIENTED_EDGE('',*,*,#239,.F.);
#153=ORIENTED_EDGE('',*,*,#240,.F.);
#154=ORIENTED_EDGE('',*,*,#241,.F.);
#155=ORIENTED_EDGE('',*,*,#242,.T.);
#156=ORIENTED_EDGE('',*,*,#238,.T.);
#157=ORIENTED_EDGE('',*,*,#243,.F.);
#158=ORIENTED_EDGE('',*,*,#244,.T.);
#159=ORIENTED_EDGE('',*,*,#230,.T.);
#160=ORIENTED_EDGE('',*,*,#245,.F.);
#161=ORIENTED_EDGE('',*,*,#244,.F.);
#162=ORIENTED_EDGE('',*,*,#246,.F.);
#163=ORIENTED_EDGE('',*,*,#247,.T.);
#164=ORIENTED_EDGE('',*,*,#231,.F.);
#165=ORIENTED_EDGE('',*,*,#248,.F.);
#166=ORIENTED_EDGE('',*,*,#249,.T.);
#167=ORIENTED_EDGE('',*,*,#232,.T.);
#168=ORIENTED_EDGE('',*,*,#247,.F.);
#169=ORIENTED_EDGE('',*,*,#229,.F.);
#170=ORIENTED_EDGE('',*,*,#249,.F.);
#171=ORIENTED_EDGE('',*,*,#250,.F.);
#172=ORIENTED_EDGE('',*,*,#236,.F.);
#173=ORIENTED_EDGE('',*,*,#251,.F.);
#174=ORIENTED_EDGE('',*,*,#241,.T.);
#175=ORIENTED_EDGE('',*,*,#252,.F.);
#176=ORIENTED_EDGE('',*,*,#245,.T.);
#177=ORIENTED_EDGE('',*,*,#239,.T.);
#178=ORIENTED_EDGE('',*,*,#242,.F.);
#179=ORIENTED_EDGE('',*,*,#251,.T.);
#180=ORIENTED_EDGE('',*,*,#235,.F.);
#181=ORIENTED_EDGE('',*,*,#253,.F.);
#182=ORIENTED_EDGE('',*,*,#254,.F.);
#183=ORIENTED_EDGE('',*,*,#255,.T.);
#184=ORIENTED_EDGE('',*,*,#254,.T.);
#185=ORIENTED_EDGE('',*,*,#256,.F.);
#186=ORIENTED_EDGE('',*,*,#257,.F.);
#187=ORIENTED_EDGE('',*,*,#258,.T.);
#188=ORIENTED_EDGE('',*,*,#259,.F.);
#189=ORIENTED_EDGE('',*,*,#255,.F.);
#190=ORIENTED_EDGE('',*,*,#259,.T.);
#191=ORIENTED_EDGE('',*,*,#257,.T.);
#192=ORIENTED_EDGE('',*,*,#256,.T.);
#193=ORIENTED_EDGE('',*,*,#258,.F.);
#194=ORIENTED_EDGE('',*,*,#260,.T.);
#195=ORIENTED_EDGE('',*,*,#260,.F.);
#196=ORIENTED_EDGE('',*,*,#237,.T.);
#197=ORIENTED_EDGE('',*,*,#233,.T.);
#198=ORIENTED_EDGE('',*,*,#250,.T.);
#199=ORIENTED_EDGE('',*,*,#248,.T.);
#200=ORIENTED_EDGE('',*,*,#246,.T.);
#201=ORIENTED_EDGE('',*,*,#243,.T.);
#202=ORIENTED_EDGE('',*,*,#252,.T.);
#203=ORIENTED_EDGE('',*,*,#240,.T.);
#204=ORIENTED_EDGE('',*,*,#253,.T.);
#205=VERTEX_POINT('',#457);
#206=VERTEX_POINT('',#458);
#207=VERTEX_POINT('',#460);
#208=VERTEX_POINT('',#462);
#209=VERTEX_POINT('',#466);
#210=VERTEX_POINT('',#467);
#211=VERTEX_POINT('',#469);
#212=VERTEX_POINT('',#471);
#213=VERTEX_POINT('',#475);
#214=VERTEX_POINT('',#477);
#215=VERTEX_POINT('',#481);
#216=VERTEX_POINT('',#483);
#217=VERTEX_POINT('',#487);
#218=VERTEX_POINT('',#488);
#219=VERTEX_POINT('',#493);
#220=VERTEX_POINT('',#497);
#221=VERTEX_POINT('',#506);
#222=VERTEX_POINT('',#508);
#223=VERTEX_POINT('',#511);
#224=VERTEX_POINT('',#514);
#225=VERTEX_POINT('',#515);
#226=VERTEX_POINT('',#518);
#227=VERTEX_POINT('',#521);
#228=VERTEX_POINT('',#525);
#229=EDGE_CURVE('',#205,#206,#261,.T.);
#230=EDGE_CURVE('',#207,#206,#133,.T.);
#231=EDGE_CURVE('',#207,#208,#262,.T.);
#232=EDGE_CURVE('',#205,#208,#134,.T.);
#233=EDGE_CURVE('',#209,#210,#135,.T.);
#234=EDGE_CURVE('',#211,#209,#61,.T.);
#235=EDGE_CURVE('',#211,#212,#136,.T.);
#236=EDGE_CURVE('',#212,#210,#62,.T.);
#237=EDGE_CURVE('',#213,#209,#263,.T.);
#238=EDGE_CURVE('',#214,#213,#63,.T.);
#239=EDGE_CURVE('',#211,#214,#264,.T.);
#240=EDGE_CURVE('',#215,#213,#137,.T.);
#241=EDGE_CURVE('',#216,#215,#64,.T.);
#242=EDGE_CURVE('',#216,#214,#138,.T.);
#243=EDGE_CURVE('',#217,#218,#139,.T.);
#244=EDGE_CURVE('',#217,#207,#65,.T.);
#245=EDGE_CURVE('',#218,#206,#66,.T.);
#246=EDGE_CURVE('',#219,#217,#265,.T.);
#247=EDGE_CURVE('',#219,#208,#67,.T.);
#248=EDGE_CURVE('',#220,#219,#140,.T.);
#249=EDGE_CURVE('',#220,#205,#68,.T.);
#250=EDGE_CURVE('',#210,#220,#266,.T.);
#251=EDGE_CURVE('',#216,#212,#267,.T.);
#252=EDGE_CURVE('',#218,#215,#268,.T.);
#253=EDGE_CURVE('',#221,#221,#269,.T.);
#254=EDGE_CURVE('',#222,#222,#270,.T.);
#255=EDGE_CURVE('',#223,#223,#271,.T.);
#256=EDGE_CURVE('',#224,#225,#272,.T.);
#257=EDGE_CURVE('',#225,#224,#273,.T.);
#258=EDGE_CURVE('',#226,#226,#274,.T.);
#259=EDGE_CURVE('',#227,#227,#275,.T.);
#260=EDGE_CURVE('',#228,#228,#276,.T.);
#261=CIRCLE('',#310,31.);
#262=CIRCLE('',#312,31.);
#263=CIRCLE('',#318,65.);
#264=CIRCLE('',#319,31.);
#265=CIRCLE('',#326,65.);
#266=CIRCLE('',#330,65.);
#267=CIRCLE('',#331,31.);
#268=CIRCLE('',#332,65.);
#269=CIRCLE('',#335,65.);
#270=CIRCLE('',#336,68.);
#271=CIRCLE('',#338,68.);
#272=CIRCLE('',#340,37.5);
#273=CIRCLE('',#341,37.5);
#274=CIRCLE('',#342,37.5);
#275=CIRCLE('',#344,60.);
#276=CIRCLE('',#347,35.5);
#277=CURVE_STYLE('',#280,POSITIVE_LENGTH_MEASURE(0.18),#304);
#278=CURVE_STYLE('',#281,POSITIVE_LENGTH_MEASURE(0.18),#304);
#279=CURVE_STYLE('',#282,POSITIVE_LENGTH_MEASURE(0.18),#304);
#280=DRAUGHTING_PRE_DEFINED_CURVE_FONT('continuous');
#281=DRAUGHTING_PRE_DEFINED_CURVE_FONT('continuous');
#282=DRAUGHTING_PRE_DEFINED_CURVE_FONT('continuous');
#283=PRESENTATION_LAYER_ASSIGNMENT('1','Layer 1',(#450,#451,#452,#307,#308,
#309,#33));
#284=STYLED_ITEM('',(#291),#450);
#285=STYLED_ITEM('',(#292),#451);
#286=STYLED_ITEM('',(#293),#452);
#287=STYLED_ITEM('',(#294),#307);
#288=STYLED_ITEM('',(#295),#308);
#289=STYLED_ITEM('',(#296),#309);
#290=STYLED_ITEM('',(#297),#33);
#291=PRESENTATION_STYLE_ASSIGNMENT((#298));
#292=PRESENTATION_STYLE_ASSIGNMENT((#299));
#293=PRESENTATION_STYLE_ASSIGNMENT((#300));
#294=PRESENTATION_STYLE_ASSIGNMENT((#277));
#295=PRESENTATION_STYLE_ASSIGNMENT((#278));
#296=PRESENTATION_STYLE_ASSIGNMENT((#279));
#297=PRESENTATION_STYLE_ASSIGNMENT((#28));
#298=POINT_STYLE('',#301,POSITIVE_LENGTH_MEASURE(3.),#304);
#299=POINT_STYLE('',#302,POSITIVE_LENGTH_MEASURE(3.),#304);
#300=POINT_STYLE('',#303,POSITIVE_LENGTH_MEASURE(3.),#304);
#301=PRE_DEFINED_POINT_MARKER_SYMBOL('plus');
#302=PRE_DEFINED_POINT_MARKER_SYMBOL('plus');
#303=PRE_DEFINED_POINT_MARKER_SYMBOL('plus');
#304=COLOUR_RGB('Medium Maroon',0.6,0.4,0.4);
#305=COLOUR_RGB('Medium Gray',0.501960784313725,0.501960784313725,0.501960784313725);
#306=AXIS2_PLACEMENT_3D('',#449,#351,#352);
#307=AXIS2_PLACEMENT_3D('MCS',#453,#353,#354);
#308=AXIS2_PLACEMENT_3D('PCS',#454,#355,#356);
#309=AXIS2_PLACEMENT_3D('CSW',#455,#357,#358);
#310=AXIS2_PLACEMENT_3D('',#456,#359,#360);
#311=AXIS2_PLACEMENT_3D('',#459,#361,#362);
#312=AXIS2_PLACEMENT_3D('',#461,#363,#364);
#313=AXIS2_PLACEMENT_3D('',#463,#365,#366);
#314=AXIS2_PLACEMENT_3D('',#464,#367,#368);
#315=AXIS2_PLACEMENT_3D('',#465,#369,#370);
#316=AXIS2_PLACEMENT_3D('',#470,#372,#373);
#317=AXIS2_PLACEMENT_3D('',#473,#375,#376);
#318=AXIS2_PLACEMENT_3D('',#474,#377,#378);
#319=AXIS2_PLACEMENT_3D('',#478,#380,#381);
#320=AXIS2_PLACEMENT_3D('',#479,#382,#383);
#321=AXIS2_PLACEMENT_3D('',#480,#384,#385);
#322=AXIS2_PLACEMENT_3D('',#484,#387,#388);
#323=AXIS2_PLACEMENT_3D('',#485,#389,#390);
#324=AXIS2_PLACEMENT_3D('',#486,#391,#392);
#325=AXIS2_PLACEMENT_3D('',#491,#395,#396);
#326=AXIS2_PLACEMENT_3D('',#492,#397,#398);
#327=AXIS2_PLACEMENT_3D('',#495,#400,#401);
#328=AXIS2_PLACEMENT_3D('',#496,#402,#403);
#329=AXIS2_PLACEMENT_3D('',#499,#405,#406);
#330=AXIS2_PLACEMENT_3D('',#500,#407,#408);
#331=AXIS2_PLACEMENT_3D('',#501,#409,#410);
#332=AXIS2_PLACEMENT_3D('',#502,#411,#412);
#333=AXIS2_PLACEMENT_3D('',#503,#413,#414);
#334=AXIS2_PLACEMENT_3D('',#504,#415,#416);
#335=AXIS2_PLACEMENT_3D('',#505,#417,#418);
#336=AXIS2_PLACEMENT_3D('',#507,#419,#420);
#337=AXIS2_PLACEMENT_3D('',#509,#421,#422);
#338=AXIS2_PLACEMENT_3D('',#510,#423,#424);
#339=AXIS2_PLACEMENT_3D('',#512,#425,#426);
#340=AXIS2_PLACEMENT_3D('',#513,#427,#428);
#341=AXIS2_PLACEMENT_3D('',#516,#429,#430);
#342=AXIS2_PLACEMENT_3D('',#517,#431,#432);
#343=AXIS2_PLACEMENT_3D('',#519,#433,#434);
#344=AXIS2_PLACEMENT_3D('',#520,#435,#436);
#345=AXIS2_PLACEMENT_3D('',#522,#437,#438);
#346=AXIS2_PLACEMENT_3D('',#523,#439,#440);
#347=AXIS2_PLACEMENT_3D('',#524,#441,#442);
#348=AXIS2_PLACEMENT_3D('',#526,#443,#444);
#349=AXIS2_PLACEMENT_3D('',#527,#445,#446);
#350=AXIS2_PLACEMENT_3D('',#528,#447,#448);
#351=DIRECTION('',(0.,0.,1.));
#352=DIRECTION('',(1.,0.,0.));
#353=DIRECTION('',(0.,0.,1.));
#354=DIRECTION('',(1.,0.,0.));
#355=DIRECTION('',(0.,0.,1.));
#356=DIRECTION('',(1.,0.,0.));
#357=DIRECTION('',(0.,0.,1.));
#358=DIRECTION('',(1.,0.,0.));
#359=DIRECTION('',(1.66533453693774E-15,1.38777878078143E-17,-1.));
#360=DIRECTION('',(1.,0.,1.66533453693774E-15));
#361=DIRECTION('',(-1.05017908917877E-15,-0.984807753012208,-0.173648177666932));
#362=DIRECTION('',(-1.87619991449706E-15,-0.173648177666932,0.984807753012208));
#363=DIRECTION('',(-1.66533453693773E-15,1.15757757677471E-15,1.));
#364=DIRECTION('',(1.,0.,1.6787646541711E-15));
#365=DIRECTION('',(1.62854370426885E-15,0.984807753012207,-0.173648177666935));
#366=DIRECTION('',(-1.40386881217349E-15,0.173648177666935,0.984807753012207));
#367=DIRECTION('',(-1.66533453693774E-15,-1.38777878078143E-17,1.));
#368=DIRECTION('',(1.,0.,1.66533453693774E-15));
#369=DIRECTION('',(1.62854370426885E-15,0.984807753012207,-0.173648177666935));
#370=DIRECTION('',(1.40386881217349E-15,-0.173648177666935,-0.984807753012207));
#371=DIRECTION('',(1.,-1.36002320516582E-15,1.66533453693774E-15));
#372=DIRECTION('',(1.62854370426885E-15,0.984807753012207,-0.173648177666935));
#373=DIRECTION('',(-1.40386881217349E-15,0.173648177666935,0.984807753012207));
#374=DIRECTION('',(1.,-1.36002320516582E-15,1.66533453693774E-15));
#375=DIRECTION('',(1.62854370426885E-15,0.984807753012207,-0.173648177666935));
#376=DIRECTION('',(1.40165656858926E-15,-0.173648177666935,-0.984807753012207));
#377=DIRECTION('',(1.66533453693773E-15,-1.15757757677471E-15,-1.));
#378=DIRECTION('',(1.,0.,1.65465931554711E-15));
#379=DIRECTION('',(1.,-1.36002320516582E-15,1.66533453693774E-15));
#380=DIRECTION('',(-1.66533453693773E-15,1.15757757677471E-15,1.));
#381=DIRECTION('',(1.,0.,1.6787646541711E-15));
#382=DIRECTION('',(-1.66533453693773E-15,1.15757757677471E-15,1.));
#383=DIRECTION('',(1.36002320516582E-15,1.,-1.15706055847653E-15));
#384=DIRECTION('',(-1.05017908917877E-15,-0.984807753012208,-0.173648177666932));
#385=DIRECTION('',(1.87619991449706E-15,0.173648177666932,-0.984807753012208));
#386=DIRECTION('',(1.,-1.36002320516582E-15,1.66533453693774E-15));
#387=DIRECTION('',(-1.05017908917877E-15,-0.984807753012208,-0.173648177666932));
#388=DIRECTION('',(-1.87619991449706E-15,-0.173648177666932,0.984807753012208));
#389=DIRECTION('',(-1.05017908917877E-15,-0.984807753012208,-0.173648177666932));
#390=DIRECTION('',(-1.87350135405495E-15,-0.173648177666932,0.984807753012208));
#391=DIRECTION('',(-1.05017908917877E-15,-0.984807753012208,-0.173648177666932));
#392=DIRECTION('',(1.87619991449706E-15,0.173648177666932,-0.984807753012208));
#393=DIRECTION('',(1.,-1.36002320516582E-15,1.66533453693774E-15));
#394=DIRECTION('',(1.,-1.36002320516582E-15,1.66533453693774E-15));
#395=DIRECTION('',(-1.05017908917877E-15,-0.984807753012208,-0.173648177666932));
#396=DIRECTION('',(-1.87350135405495E-15,-0.173648177666932,0.984807753012208));
#397=DIRECTION('',(1.66533453693773E-15,-1.15757757677471E-15,-1.));
#398=DIRECTION('',(1.,0.,1.65465931554711E-15));
#399=DIRECTION('',(1.,-1.36002320516582E-15,1.66533453693774E-15));
#400=DIRECTION('',(-1.66533453693773E-15,1.15757757677471E-15,1.));
#401=DIRECTION('',(1.36002320516582E-15,1.,-1.15706055847653E-15));
#402=DIRECTION('',(1.62854370426885E-15,0.984807753012207,-0.173648177666935));
#403=DIRECTION('',(1.40386881217349E-15,-0.173648177666935,-0.984807753012207));
#404=DIRECTION('',(1.,-1.36002320516582E-15,1.66533453693774E-15));
#405=DIRECTION('',(1.62854370426885E-15,0.984807753012207,-0.173648177666935));
#406=DIRECTION('',(1.40165656858926E-15,-0.173648177666935,-0.984807753012207));
#407=DIRECTION('',(1.66533453693774E-15,1.38777878078143E-17,-1.));
#408=DIRECTION('',(1.,0.,1.66533453693774E-15));
#409=DIRECTION('',(1.66533453693774E-15,1.38777878078143E-17,-1.));
#410=DIRECTION('',(1.,0.,1.66533453693774E-15));
#411=DIRECTION('',(1.66533453693774E-15,1.38777878078143E-17,-1.));
#412=DIRECTION('',(1.,0.,1.66533453693774E-15));
#413=DIRECTION('',(-1.66533453693774E-15,-1.38777878078143E-17,1.));
#414=DIRECTION('',(1.,0.,1.66533453693774E-15));
#415=DIRECTION('',(-1.66533453693774E-15,-1.38777878078143E-17,1.));
#416=DIRECTION('',(1.,0.,1.66533453693774E-15));
#417=DIRECTION('',(0.,0.,1.));
#418=DIRECTION('',(-1.,0.,0.));
#419=DIRECTION('',(0.,0.,-1.));
#420=DIRECTION('',(1.,0.,0.));
#421=DIRECTION('',(0.,0.,1.));
#422=DIRECTION('',(1.,0.,0.));
#423=DIRECTION('',(-1.55431223447522E-15,1.38777878078142E-17,1.));
#424=DIRECTION('',(-1.56819002228303E-15,-1.,0.));
#425=DIRECTION('',(-1.55431223447522E-15,1.38777878078142E-17,1.));
#426=DIRECTION('',(1.56819002228303E-15,1.,-1.38777878078118E-17));
#427=DIRECTION('',(-1.55431223447522E-15,1.38777878078142E-17,1.));
#428=DIRECTION('',(-1.,0.,-1.57281595155231E-15));
#429=DIRECTION('',(-1.55431223447522E-15,1.38777878078142E-17,1.));
#430=DIRECTION('',(-1.,0.,-1.57281595155231E-15));
#431=DIRECTION('',(-1.45716771982052E-15,-1.38777878078144E-17,1.));
#432=DIRECTION('',(1.,0.,1.48029736616688E-15));
#433=DIRECTION('',(-1.45716771982052E-15,-1.38777878078144E-17,1.));
#434=DIRECTION('',(1.45716771982052E-15,1.,1.38777878078166E-17));
#435=DIRECTION('',(1.55431223447522E-15,-1.38777878078142E-17,-1.));
#436=DIRECTION('',(-1.56819002228303E-15,-1.,0.));
#437=DIRECTION('',(-1.55431223447522E-15,1.38777878078142E-17,1.));
#438=DIRECTION('',(1.56819002228303E-15,1.,-1.29941833406502E-17));
#439=DIRECTION('',(1.55431223447522E-15,-1.38777878078142E-17,-1.));
#440=DIRECTION('',(-1.56819002228303E-15,-1.,1.38777878078145E-17));
#441=DIRECTION('',(-1.45716771982052E-15,-1.38777878078144E-17,1.));
#442=DIRECTION('',(1.45716771982052E-15,1.,0.));
#443=DIRECTION('',(-1.45716771982052E-15,-1.38777878078144E-17,1.));
#444=DIRECTION('',(1.45716771982052E-15,1.,2.67523620391604E-17));
#445=DIRECTION('',(1.45716771982052E-15,1.38777878078144E-17,-1.));
#446=DIRECTION('',(-1.45716771982052E-15,-1.,-1.38777878078145E-17));
#447=DIRECTION('',(1.66533453693774E-15,1.38777878078143E-17,-1.));
#448=DIRECTION('',(-1.36002320516582E-15,-1.,-1.33440267382831E-17));
#449=CARTESIAN_POINT('',(0.,0.,0.));
#450=CARTESIAN_POINT('',(0.,0.,0.));
#451=CARTESIAN_POINT('',(0.,0.,0.));
#452=CARTESIAN_POINT('',(1.45716771982052E-13,1.38777878078144E-15,-100.));
#453=CARTESIAN_POINT('',(0.,0.,0.));
#454=CARTESIAN_POINT('',(0.,0.,0.));
#455=CARTESIAN_POINT('',(1.45716771982052E-13,1.38777878078144E-15,-100.));
#456=CARTESIAN_POINT('',(0.,0.,0.));
#457=CARTESIAN_POINT('',(-29.3428015022424,-9.99999999999996,-3.72898049844457E-14));
#458=CARTESIAN_POINT('',(-29.3428015022424,10.,-6.04413565199398E-14));
#459=CARTESIAN_POINT('',(-9.44458148291636E-14,-7.87048456909686E-16,56.7128181961766));
#460=CARTESIAN_POINT('',(-29.8857202645196,8.23673019291537,9.99999999999994));
#461=CARTESIAN_POINT('',(-1.66533453693774E-14,-1.38777878078143E-16,10.));
#462=CARTESIAN_POINT('',(-29.8857202645196,-8.23673019291527,9.99999999999996));
#463=CARTESIAN_POINT('',(-9.44458148291621E-14,-7.87048456909673E-16,56.7128181961756));
#464=CARTESIAN_POINT('',(0.,0.,0.));
#465=CARTESIAN_POINT('',(-9.44458148291621E-14,-7.87048456909673E-16,56.7128181961756));
#466=CARTESIAN_POINT('',(64.4760131810979,-8.23673019291539,10.0000000000001));
#467=CARTESIAN_POINT('',(64.2261628933256,-10.0000000000001,1.06819269363166E-13));
#468=CARTESIAN_POINT('',(-100.,-8.23673019291517,9.99999999999984));
#469=CARTESIAN_POINT('',(29.8857202645196,-8.23673019291534,10.0000000000001));
#470=CARTESIAN_POINT('',(-9.44458148291621E-14,-7.87048456909673E-16,56.7128181961756));
#471=CARTESIAN_POINT('',(29.3428015022424,-10.,6.04413565199398E-14));
#472=CARTESIAN_POINT('',(-100.,-9.99999999999986,-1.54957677926026E-13));
#473=CARTESIAN_POINT('',(-100.,-9.99999999999986,-1.54957677926026E-13));
#474=CARTESIAN_POINT('',(-1.66533453693774E-14,-1.38777878078143E-16,10.));
#475=CARTESIAN_POINT('',(64.4760131810979,8.23673019291525,10.0000000000001));
#476=CARTESIAN_POINT('',(-5.45120117232257E-15,8.23673019291533,9.99999999999999));
#477=CARTESIAN_POINT('',(29.8857202645196,8.23673019291529,10.));
#478=CARTESIAN_POINT('',(-1.66533453693774E-14,-1.38777878078143E-16,10.));
#479=CARTESIAN_POINT('',(-1.66533453693774E-14,-1.38777878078143E-16,10.));
#480=CARTESIAN_POINT('',(-9.44458148291636E-14,-7.87048456909686E-16,56.7128181961766));
#481=CARTESIAN_POINT('',(64.2261628933257,9.99999999999991,1.07096825119322E-13));
#482=CARTESIAN_POINT('',(-100.,10.0000000000001,-1.78109229461521E-13));
#483=CARTESIAN_POINT('',(29.3428015022424,9.99999999999996,3.72898049844457E-14));
#484=CARTESIAN_POINT('',(-9.44458148291636E-14,-7.87048456909686E-16,56.7128181961766));
#485=CARTESIAN_POINT('',(-100.,8.23673019291547,9.99999999999982));
#486=CARTESIAN_POINT('',(-9.44458148291636E-14,-7.87048456909686E-16,56.7128181961766));
#487=CARTESIAN_POINT('',(-64.476013181098,8.23673019291542,9.99999999999988));
#488=CARTESIAN_POINT('',(-64.2261628933257,10.0000000000001,-1.18533823008991E-13));
#489=CARTESIAN_POINT('',(-100.,8.23673019291547,9.99999999999982));
#490=CARTESIAN_POINT('',(-100.,10.0000000000001,-1.78109229461521E-13));
#491=CARTESIAN_POINT('',(-100.,8.23673019291547,9.99999999999982));
#492=CARTESIAN_POINT('',(-1.66533453693774E-14,-1.38777878078143E-16,10.));
#493=CARTESIAN_POINT('',(-64.476013181098,-8.23673019291522,9.9999999999999));
#494=CARTESIAN_POINT('',(-2.78554895664321E-14,-8.23673019291531,10.));
#495=CARTESIAN_POINT('',(-1.66533453693774E-14,-1.38777878078143E-16,10.));
#496=CARTESIAN_POINT('',(-9.44458148291621E-14,-7.87048456909673E-16,56.7128181961756));
#497=CARTESIAN_POINT('',(-64.2261628933257,-9.99999999999991,-1.07096825119322E-13));
#498=CARTESIAN_POINT('',(-100.,-9.99999999999986,-1.54957677926026E-13));
#499=CARTESIAN_POINT('',(-100.,-9.99999999999986,-1.54957677926026E-13));
#500=CARTESIAN_POINT('',(0.,0.,0.));
#501=CARTESIAN_POINT('',(0.,0.,0.));
#502=CARTESIAN_POINT('',(0.,0.,0.));
#503=CARTESIAN_POINT('',(0.,0.,0.));
#504=CARTESIAN_POINT('',(0.,0.,0.));
#505=CARTESIAN_POINT('',(1.83186799063151E-14,1.52655665885957E-16,-11.));
#506=CARTESIAN_POINT('',(-65.,1.52655665885957E-16,-11.));
#507=CARTESIAN_POINT('',(1.70974345792274E-14,-1.52655665885957E-16,-11.));
#508=CARTESIAN_POINT('',(68.,-1.52655665885957E-16,-11.));
#509=CARTESIAN_POINT('',(1.4210854715202E-14,-7.69756236506549E-48,-11.));
#510=CARTESIAN_POINT('',(2.64233079860787E-14,-2.35922392732842E-16,-17.));
#511=CARTESIAN_POINT('',(-8.02136135291675E-14,-68.,-17.));
#512=CARTESIAN_POINT('',(0.,0.,0.));
#513=CARTESIAN_POINT('',(3.64291929955129E-14,3.46944695195361E-16,-25.));
#514=CARTESIAN_POINT('',(33.4026802737673,-17.0443817878057,-25.));
#515=CARTESIAN_POINT('',(31.1577559434729,-20.8673008452694,-25.));
#516=CARTESIAN_POINT('',(3.64291929955129E-14,3.46944695195361E-16,-25.));
#517=CARTESIAN_POINT('',(1.42802436542411E-13,1.36002320516582E-15,-98.));
#518=CARTESIAN_POINT('',(37.5000000000001,1.36002320516582E-15,-97.9999999999999));
#519=CARTESIAN_POINT('',(0.,0.,0.));
#520=CARTESIAN_POINT('',(3.88578058618804E-14,-3.46944695195356E-16,-25.));
#521=CARTESIAN_POINT('',(-5.52335954751015E-14,-60.,-25.));
#522=CARTESIAN_POINT('',(2.64233079860787E-14,-2.35922392732842E-16,-17.));
#523=CARTESIAN_POINT('',(-68.,1.06289976820051E-13,-25.0000000000001));
#524=CARTESIAN_POINT('',(1.45716771982052E-13,1.38777878078144E-15,-100.));
#525=CARTESIAN_POINT('',(1.9744622603568E-13,35.5,-100.));
#526=CARTESIAN_POINT('',(1.42802436542411E-13,1.36002320516582E-15,-98.));
#527=CARTESIAN_POINT('',(-35.4999999999999,5.31172328344098E-14,-100.));
#528=CARTESIAN_POINT('',(8.32667268468881E-16,6.93889390390724E-18,-0.500000000000008));
#529=MECHANICAL_DESIGN_GEOMETRIC_PRESENTATION_REPRESENTATION('',(#284,#285,
#286,#287,#288,#289,#290),#530);
#530=(
GEOMETRIC_REPRESENTATION_CONTEXT(3)
GLOBAL_UNCERTAINTY_ASSIGNED_CONTEXT((#531))
GLOBAL_UNIT_ASSIGNED_CONTEXT((#537,#533,#532))
REPRESENTATION_CONTEXT('1566220001251','TOP_LEVEL_ASSEMBLY_PART')
);
#531=UNCERTAINTY_MEASURE_WITH_UNIT(LENGTH_MEASURE(2.E-5),#537,
'DISTANCE_ACCURACY_VALUE','Maximum Tolerance applied to model');
#532=(
NAMED_UNIT(*)
SI_UNIT($,.STERADIAN.)
SOLID_ANGLE_UNIT()
);
#533=(
CONVERSION_BASED_UNIT('DEGREE',#535)
NAMED_UNIT(#534)
PLANE_ANGLE_UNIT()
);
#534=DIMENSIONAL_EXPONENTS(0.,0.,0.,0.,0.,0.,0.);
#535=PLANE_ANGLE_MEASURE_WITH_UNIT(PLANE_ANGLE_MEASURE(0.0174532925),#536);
#536=(
NAMED_UNIT(*)
PLANE_ANGLE_UNIT()
SI_UNIT($,.RADIAN.)
);
#537=(
LENGTH_UNIT()
NAMED_UNIT(*)
SI_UNIT(.MILLI.,.METRE.)
);
ENDSEC;
END-ISO-10303-21;
