ISO-10303-21;
HEADER;
/* Generated by software containing ST-Developer
 * from STEP Tools, Inc. (www.steptools.com) 
 */
/* OPTION: using custom schema-name function */

FILE_DESCRIPTION(
/* description */ (''),
/* implementation_level */ '2;1');

FILE_NAME(
/* name */ '1566219973013.stp',
/* time_stamp */ '2019-08-19T15:06:19+02:00',
/* author */ (''),
/* organization */ ('SMS'),
/* preprocessor_version */ 'ST-DEVELOPER v16.7',
/* originating_system */ 'SIEMENS PLM Software NX 12.0',
/* authorisation */ '');

FILE_SCHEMA (('AUTOMOTIVE_DESIGN { 1 0 10303 214 3 1 1 1 }'));
ENDSEC;

DATA;
#10=CONSTRUCTIVE_GEOMETRY_REPRESENTATION_RELATIONSHIP(
'supplemental geometry','',#26,#11);
#11=CONSTRUCTIVE_GEOMETRY_REPRESENTATION('supplemental geometry',(#310,
#311,#312),#512);
#12=GEOMETRICALLY_BOUNDED_WIREFRAME_SHAPE_REPRESENTATION(
'202504691mod000_00-None',(#27),#512);
#13=SHAPE_REPRESENTATION_RELATIONSHIP('None',
'relationship between 202504691mod000_00-None and 202504691mod000_00-N
one',#26,#15);
#14=SHAPE_REPRESENTATION_RELATIONSHIP('None',
'relationship between 202504691mod000_00-None and 202504691mod000_00-N
one',#26,#12);
#15=ADVANCED_BREP_SHAPE_REPRESENTATION('202504691mod000_00-None',(#33),
#512);
#16=SHAPE_DEFINITION_REPRESENTATION(#17,#26);
#17=PRODUCT_DEFINITION_SHAPE('','',#18);
#18=PRODUCT_DEFINITION(' ','',#20,#19);
#19=PRODUCT_DEFINITION_CONTEXT('part definition',#25,'design');
#20=PRODUCT_DEFINITION_FORMATION_WITH_SPECIFIED_SOURCE(' ',' ',#22,
 .NOT_KNOWN.);
#21=PRODUCT_RELATED_PRODUCT_CATEGORY('part','',(#22));
#22=PRODUCT('202504691mod000_00','202504691mod000_00','NOCUT',(#23));
#23=PRODUCT_CONTEXT(' ',#25,'mechanical');
#24=APPLICATION_PROTOCOL_DEFINITION('international standard',
'automotive_design',2010,#25);
#25=APPLICATION_CONTEXT(
'core data for automotive mechanical design processes');
#26=SHAPE_REPRESENTATION('202504691mod000_00-None',(#309),#512);
#27=GEOMETRIC_CURVE_SET('None',(#434,#435,#436));
#28=SURFACE_STYLE_USAGE(.BOTH.,#29);
#29=SURFACE_SIDE_STYLE('',(#30));
#30=SURFACE_STYLE_FILL_AREA(#31);
#31=FILL_AREA_STYLE('',(#32));
#32=FILL_AREA_STYLE_COLOUR('',#308);
#33=MANIFOLD_SOLID_BREP('NOCUT',#34);
#34=CLOSED_SHELL('',(#61,#62,#63,#64,#65,#66,#67,#68,#69,#70,#71,#72,#73,
#74,#75,#76,#77));
#35=CONICAL_SURFACE('',#323,32.5,45.);
#36=CONICAL_SURFACE('',#329,68.,45.);
#37=PLANE('',#318);
#38=PLANE('',#324);
#39=PLANE('',#328);
#40=PLANE('',#330);
#41=PLANE('',#331);
#42=PLANE('',#335);
#43=PLANE('',#339);
#44=PLANE('',#340);
#45=PLANE('',#342);
#46=PLANE('',#343);
#47=FACE_BOUND('',#94,.T.);
#48=FACE_BOUND('',#95,.T.);
#49=FACE_BOUND('',#96,.T.);
#50=FACE_BOUND('',#97,.T.);
#51=FACE_BOUND('',#98,.T.);
#52=FACE_BOUND('',#99,.T.);
#53=FACE_BOUND('',#101,.T.);
#54=FACE_BOUND('',#102,.T.);
#55=FACE_BOUND('',#103,.T.);
#56=FACE_BOUND('',#104,.T.);
#57=FACE_BOUND('',#105,.T.);
#58=FACE_BOUND('',#106,.T.);
#59=FACE_BOUND('',#110,.T.);
#60=FACE_BOUND('',#111,.T.);
#61=ADVANCED_FACE('',(#83),#78,.F.);
#62=ADVANCED_FACE('',(#47,#48),#37,.T.);
#63=ADVANCED_FACE('',(#49,#50),#79,.T.);
#64=ADVANCED_FACE('',(#51,#52),#35,.T.);
#65=ADVANCED_FACE('',(#84),#38,.T.);
#66=ADVANCED_FACE('',(#53,#54),#80,.T.);
#67=ADVANCED_FACE('',(#55,#56),#39,.T.);
#68=ADVANCED_FACE('',(#57,#58),#36,.T.);
#69=ADVANCED_FACE('',(#85),#40,.T.);
#70=ADVANCED_FACE('',(#86),#41,.T.);
#71=ADVANCED_FACE('',(#87),#42,.T.);
#72=ADVANCED_FACE('',(#59,#60),#81,.T.);
#73=ADVANCED_FACE('',(#88),#43,.T.);
#74=ADVANCED_FACE('',(#89),#44,.T.);
#75=ADVANCED_FACE('',(#90),#45,.T.);
#76=ADVANCED_FACE('',(#91),#46,.T.);
#77=ADVANCED_FACE('',(#92),#82,.F.);
#78=CYLINDRICAL_SURFACE('',#315,31.);
#79=CYLINDRICAL_SURFACE('',#320,68.);
#80=CYLINDRICAL_SURFACE('',#326,32.5);
#81=CYLINDRICAL_SURFACE('',#338,65.);
#82=CYLINDRICAL_SURFACE('',#344,31.);
#83=FACE_OUTER_BOUND('',#93,.T.);
#84=FACE_OUTER_BOUND('',#100,.T.);
#85=FACE_OUTER_BOUND('',#107,.T.);
#86=FACE_OUTER_BOUND('',#108,.T.);
#87=FACE_OUTER_BOUND('',#109,.T.);
#88=FACE_OUTER_BOUND('',#112,.T.);
#89=FACE_OUTER_BOUND('',#113,.T.);
#90=FACE_OUTER_BOUND('',#114,.T.);
#91=FACE_OUTER_BOUND('',#115,.T.);
#92=FACE_OUTER_BOUND('',#116,.T.);
#93=EDGE_LOOP('',(#149,#150,#151,#152));
#94=EDGE_LOOP('',(#153));
#95=EDGE_LOOP('',(#154));
#96=EDGE_LOOP('',(#155));
#97=EDGE_LOOP('',(#156));
#98=EDGE_LOOP('',(#157));
#99=EDGE_LOOP('',(#158));
#100=EDGE_LOOP('',(#159));
#101=EDGE_LOOP('',(#160));
#102=EDGE_LOOP('',(#161));
#103=EDGE_LOOP('',(#162));
#104=EDGE_LOOP('',(#163));
#105=EDGE_LOOP('',(#164));
#106=EDGE_LOOP('',(#165));
#107=EDGE_LOOP('',(#166,#167,#168,#169));
#108=EDGE_LOOP('',(#170,#171,#172,#173));
#109=EDGE_LOOP('',(#174,#175,#176,#177,#178,#179,#180,#181));
#110=EDGE_LOOP('',(#182,#183,#184,#185,#186,#187,#188,#189));
#111=EDGE_LOOP('',(#190));
#112=EDGE_LOOP('',(#191,#192,#193,#194));
#113=EDGE_LOOP('',(#195,#196,#197,#198));
#114=EDGE_LOOP('',(#199,#200,#201,#202));
#115=EDGE_LOOP('',(#203,#204,#205,#206));
#116=EDGE_LOOP('',(#207,#208,#209,#210));
#117=LINE('',#443,#133);
#118=LINE('',#447,#134);
#119=LINE('',#470,#135);
#120=LINE('',#473,#136);
#121=LINE('',#475,#137);
#122=LINE('',#477,#138);
#123=LINE('',#479,#139);
#124=LINE('',#481,#140);
#125=LINE('',#483,#141);
#126=LINE('',#485,#142);
#127=LINE('',#489,#143);
#128=LINE('',#494,#144);
#129=LINE('',#498,#145);
#130=LINE('',#501,#146);
#131=LINE('',#503,#147);
#132=LINE('',#505,#148);
#133=VECTOR('',#355,1.);
#134=VECTOR('',#358,1.);
#135=VECTOR('',#389,1.);
#136=VECTOR('',#390,1.);
#137=VECTOR('',#391,1.);
#138=VECTOR('',#392,1.);
#139=VECTOR('',#395,1.);
#140=VECTOR('',#396,1.);
#141=VECTOR('',#397,1.);
#142=VECTOR('',#400,1.);
#143=VECTOR('',#403,1.);
#144=VECTOR('',#410,1.);
#145=VECTOR('',#413,1.);
#146=VECTOR('',#418,1.);
#147=VECTOR('',#421,1.);
#148=VECTOR('',#422,1.);
#149=ORIENTED_EDGE('',*,*,#234,.T.);
#150=ORIENTED_EDGE('',*,*,#235,.F.);
#151=ORIENTED_EDGE('',*,*,#236,.T.);
#152=ORIENTED_EDGE('',*,*,#237,.F.);
#153=ORIENTED_EDGE('',*,*,#238,.F.);
#154=ORIENTED_EDGE('',*,*,#239,.F.);
#155=ORIENTED_EDGE('',*,*,#240,.T.);
#156=ORIENTED_EDGE('',*,*,#239,.T.);
#157=ORIENTED_EDGE('',*,*,#241,.T.);
#158=ORIENTED_EDGE('',*,*,#242,.F.);
#159=ORIENTED_EDGE('',*,*,#241,.F.);
#160=ORIENTED_EDGE('',*,*,#242,.T.);
#161=ORIENTED_EDGE('',*,*,#243,.F.);
#162=ORIENTED_EDGE('',*,*,#243,.T.);
#163=ORIENTED_EDGE('',*,*,#244,.T.);
#164=ORIENTED_EDGE('',*,*,#244,.F.);
#165=ORIENTED_EDGE('',*,*,#240,.F.);
#166=ORIENTED_EDGE('',*,*,#245,.F.);
#167=ORIENTED_EDGE('',*,*,#246,.T.);
#168=ORIENTED_EDGE('',*,*,#247,.T.);
#169=ORIENTED_EDGE('',*,*,#248,.F.);
#170=ORIENTED_EDGE('',*,*,#249,.T.);
#171=ORIENTED_EDGE('',*,*,#237,.T.);
#172=ORIENTED_EDGE('',*,*,#250,.F.);
#173=ORIENTED_EDGE('',*,*,#251,.F.);
#174=ORIENTED_EDGE('',*,*,#252,.T.);
#175=ORIENTED_EDGE('',*,*,#234,.F.);
#176=ORIENTED_EDGE('',*,*,#249,.F.);
#177=ORIENTED_EDGE('',*,*,#253,.F.);
#178=ORIENTED_EDGE('',*,*,#254,.F.);
#179=ORIENTED_EDGE('',*,*,#255,.F.);
#180=ORIENTED_EDGE('',*,*,#245,.T.);
#181=ORIENTED_EDGE('',*,*,#256,.F.);
#182=ORIENTED_EDGE('',*,*,#257,.T.);
#183=ORIENTED_EDGE('',*,*,#253,.T.);
#184=ORIENTED_EDGE('',*,*,#251,.T.);
#185=ORIENTED_EDGE('',*,*,#258,.T.);
#186=ORIENTED_EDGE('',*,*,#259,.T.);
#187=ORIENTED_EDGE('',*,*,#256,.T.);
#188=ORIENTED_EDGE('',*,*,#248,.T.);
#189=ORIENTED_EDGE('',*,*,#260,.T.);
#190=ORIENTED_EDGE('',*,*,#238,.T.);
#191=ORIENTED_EDGE('',*,*,#261,.T.);
#192=ORIENTED_EDGE('',*,*,#235,.T.);
#193=ORIENTED_EDGE('',*,*,#252,.F.);
#194=ORIENTED_EDGE('',*,*,#259,.F.);
#195=ORIENTED_EDGE('',*,*,#262,.F.);
#196=ORIENTED_EDGE('',*,*,#263,.T.);
#197=ORIENTED_EDGE('',*,*,#254,.T.);
#198=ORIENTED_EDGE('',*,*,#257,.F.);
#199=ORIENTED_EDGE('',*,*,#264,.F.);
#200=ORIENTED_EDGE('',*,*,#262,.T.);
#201=ORIENTED_EDGE('',*,*,#260,.F.);
#202=ORIENTED_EDGE('',*,*,#247,.F.);
#203=ORIENTED_EDGE('',*,*,#236,.F.);
#204=ORIENTED_EDGE('',*,*,#261,.F.);
#205=ORIENTED_EDGE('',*,*,#258,.F.);
#206=ORIENTED_EDGE('',*,*,#250,.T.);
#207=ORIENTED_EDGE('',*,*,#264,.T.);
#208=ORIENTED_EDGE('',*,*,#246,.F.);
#209=ORIENTED_EDGE('',*,*,#255,.T.);
#210=ORIENTED_EDGE('',*,*,#263,.F.);
#211=VERTEX_POINT('',#441);
#212=VERTEX_POINT('',#442);
#213=VERTEX_POINT('',#444);
#214=VERTEX_POINT('',#446);
#215=VERTEX_POINT('',#450);
#216=VERTEX_POINT('',#452);
#217=VERTEX_POINT('',#455);
#218=VERTEX_POINT('',#458);
#219=VERTEX_POINT('',#460);
#220=VERTEX_POINT('',#464);
#221=VERTEX_POINT('',#467);
#222=VERTEX_POINT('',#471);
#223=VERTEX_POINT('',#472);
#224=VERTEX_POINT('',#474);
#225=VERTEX_POINT('',#476);
#226=VERTEX_POINT('',#480);
#227=VERTEX_POINT('',#482);
#228=VERTEX_POINT('',#486);
#229=VERTEX_POINT('',#488);
#230=VERTEX_POINT('',#490);
#231=VERTEX_POINT('',#495);
#232=VERTEX_POINT('',#497);
#233=VERTEX_POINT('',#504);
#234=EDGE_CURVE('',#211,#212,#265,.T.);
#235=EDGE_CURVE('',#213,#212,#117,.T.);
#236=EDGE_CURVE('',#213,#214,#266,.T.);
#237=EDGE_CURVE('',#211,#214,#118,.T.);
#238=EDGE_CURVE('',#215,#215,#267,.T.);
#239=EDGE_CURVE('',#216,#216,#268,.T.);
#240=EDGE_CURVE('',#217,#217,#269,.T.);
#241=EDGE_CURVE('',#218,#218,#270,.T.);
#242=EDGE_CURVE('',#219,#219,#271,.T.);
#243=EDGE_CURVE('',#220,#220,#272,.T.);
#244=EDGE_CURVE('',#221,#221,#273,.T.);
#245=EDGE_CURVE('',#222,#223,#119,.T.);
#246=EDGE_CURVE('',#222,#224,#120,.T.);
#247=EDGE_CURVE('',#224,#225,#121,.T.);
#248=EDGE_CURVE('',#223,#225,#122,.T.);
#249=EDGE_CURVE('',#226,#211,#123,.T.);
#250=EDGE_CURVE('',#227,#214,#124,.T.);
#251=EDGE_CURVE('',#226,#227,#125,.T.);
#252=EDGE_CURVE('',#228,#212,#126,.T.);
#253=EDGE_CURVE('',#229,#226,#274,.T.);
#254=EDGE_CURVE('',#230,#229,#127,.T.);
#255=EDGE_CURVE('',#222,#230,#275,.T.);
#256=EDGE_CURVE('',#228,#223,#276,.T.);
#257=EDGE_CURVE('',#231,#229,#128,.T.);
#258=EDGE_CURVE('',#227,#232,#277,.T.);
#259=EDGE_CURVE('',#232,#228,#129,.T.);
#260=EDGE_CURVE('',#225,#231,#278,.T.);
#261=EDGE_CURVE('',#232,#213,#130,.T.);
#262=EDGE_CURVE('',#233,#231,#131,.T.);
#263=EDGE_CURVE('',#233,#230,#132,.T.);
#264=EDGE_CURVE('',#233,#224,#279,.T.);
#265=CIRCLE('',#313,31.);
#266=CIRCLE('',#314,31.);
#267=CIRCLE('',#316,65.);
#268=CIRCLE('',#317,68.);
#269=CIRCLE('',#319,68.);
#270=CIRCLE('',#321,30.5);
#271=CIRCLE('',#322,32.5);
#272=CIRCLE('',#325,32.5);
#273=CIRCLE('',#327,60.);
#274=CIRCLE('',#332,65.);
#275=CIRCLE('',#333,31.);
#276=CIRCLE('',#334,65.);
#277=CIRCLE('',#336,65.);
#278=CIRCLE('',#337,65.);
#279=CIRCLE('',#341,31.);
#280=CURVE_STYLE('',#283,POSITIVE_LENGTH_MEASURE(0.18),#307);
#281=CURVE_STYLE('',#284,POSITIVE_LENGTH_MEASURE(0.18),#307);
#282=CURVE_STYLE('',#285,POSITIVE_LENGTH_MEASURE(0.18),#307);
#283=DRAUGHTING_PRE_DEFINED_CURVE_FONT('continuous');
#284=DRAUGHTING_PRE_DEFINED_CURVE_FONT('continuous');
#285=DRAUGHTING_PRE_DEFINED_CURVE_FONT('continuous');
#286=PRESENTATION_LAYER_ASSIGNMENT('1','Layer 1',(#434,#435,#436,#310,#311,
#312,#33));
#287=STYLED_ITEM('',(#294),#434);
#288=STYLED_ITEM('',(#295),#435);
#289=STYLED_ITEM('',(#296),#436);
#290=STYLED_ITEM('',(#297),#310);
#291=STYLED_ITEM('',(#298),#311);
#292=STYLED_ITEM('',(#299),#312);
#293=STYLED_ITEM('',(#300),#33);
#294=PRESENTATION_STYLE_ASSIGNMENT((#301));
#295=PRESENTATION_STYLE_ASSIGNMENT((#302));
#296=PRESENTATION_STYLE_ASSIGNMENT((#303));
#297=PRESENTATION_STYLE_ASSIGNMENT((#280));
#298=PRESENTATION_STYLE_ASSIGNMENT((#281));
#299=PRESENTATION_STYLE_ASSIGNMENT((#282));
#300=PRESENTATION_STYLE_ASSIGNMENT((#28));
#301=POINT_STYLE('',#304,POSITIVE_LENGTH_MEASURE(3.),#307);
#302=POINT_STYLE('',#305,POSITIVE_LENGTH_MEASURE(3.),#307);
#303=POINT_STYLE('',#306,POSITIVE_LENGTH_MEASURE(3.),#307);
#304=PRE_DEFINED_POINT_MARKER_SYMBOL('plus');
#305=PRE_DEFINED_POINT_MARKER_SYMBOL('plus');
#306=PRE_DEFINED_POINT_MARKER_SYMBOL('plus');
#307=COLOUR_RGB('Medium Maroon',0.6,0.4,0.4);
#308=COLOUR_RGB('Medium Gray',0.501960784313725,0.501960784313725,0.501960784313725);
#309=AXIS2_PLACEMENT_3D('',#433,#345,#346);
#310=AXIS2_PLACEMENT_3D('MCS',#437,#347,#348);
#311=AXIS2_PLACEMENT_3D('PCS',#438,#349,#350);
#312=AXIS2_PLACEMENT_3D('CSW',#439,#351,#352);
#313=AXIS2_PLACEMENT_3D('',#440,#353,#354);
#314=AXIS2_PLACEMENT_3D('',#445,#356,#357);
#315=AXIS2_PLACEMENT_3D('',#448,#359,#360);
#316=AXIS2_PLACEMENT_3D('',#449,#361,#362);
#317=AXIS2_PLACEMENT_3D('',#451,#363,#364);
#318=AXIS2_PLACEMENT_3D('',#453,#365,#366);
#319=AXIS2_PLACEMENT_3D('',#454,#367,#368);
#320=AXIS2_PLACEMENT_3D('',#456,#369,#370);
#321=AXIS2_PLACEMENT_3D('',#457,#371,#372);
#322=AXIS2_PLACEMENT_3D('',#459,#373,#374);
#323=AXIS2_PLACEMENT_3D('',#461,#375,#376);
#324=AXIS2_PLACEMENT_3D('',#462,#377,#378);
#325=AXIS2_PLACEMENT_3D('',#463,#379,#380);
#326=AXIS2_PLACEMENT_3D('',#465,#381,#382);
#327=AXIS2_PLACEMENT_3D('',#466,#383,#384);
#328=AXIS2_PLACEMENT_3D('',#468,#385,#386);
#329=AXIS2_PLACEMENT_3D('',#469,#387,#388);
#330=AXIS2_PLACEMENT_3D('',#478,#393,#394);
#331=AXIS2_PLACEMENT_3D('',#484,#398,#399);
#332=AXIS2_PLACEMENT_3D('',#487,#401,#402);
#333=AXIS2_PLACEMENT_3D('',#491,#404,#405);
#334=AXIS2_PLACEMENT_3D('',#492,#406,#407);
#335=AXIS2_PLACEMENT_3D('',#493,#408,#409);
#336=AXIS2_PLACEMENT_3D('',#496,#411,#412);
#337=AXIS2_PLACEMENT_3D('',#499,#414,#415);
#338=AXIS2_PLACEMENT_3D('',#500,#416,#417);
#339=AXIS2_PLACEMENT_3D('',#502,#419,#420);
#340=AXIS2_PLACEMENT_3D('',#506,#423,#424);
#341=AXIS2_PLACEMENT_3D('',#507,#425,#426);
#342=AXIS2_PLACEMENT_3D('',#508,#427,#428);
#343=AXIS2_PLACEMENT_3D('',#509,#429,#430);
#344=AXIS2_PLACEMENT_3D('',#510,#431,#432);
#345=DIRECTION('',(0.,0.,1.));
#346=DIRECTION('',(1.,0.,0.));
#347=DIRECTION('',(0.,0.,1.));
#348=DIRECTION('',(1.,0.,0.));
#349=DIRECTION('',(0.,0.,1.));
#350=DIRECTION('',(1.,0.,0.));
#351=DIRECTION('',(0.,0.,1.));
#352=DIRECTION('',(1.,0.,0.));
#353=DIRECTION('',(1.72084568816899E-15,1.38777878078144E-17,-1.));
#354=DIRECTION('',(1.,0.,1.72084568816899E-15));
#355=DIRECTION('',(1.72084568816899E-15,1.38777878078144E-17,-1.));
#356=DIRECTION('',(-1.72084568816899E-15,-1.18533315239034E-15,1.));
#357=DIRECTION('',(1.,0.,1.73472347597681E-15));
#358=DIRECTION('',(-1.72084568816899E-15,-1.38777878078144E-17,1.));
#359=DIRECTION('',(-1.72084568816899E-15,-1.38777878078144E-17,1.));
#360=DIRECTION('',(1.,0.,1.72084568816899E-15));
#361=DIRECTION('',(0.,0.,1.));
#362=DIRECTION('',(-1.,0.,0.));
#363=DIRECTION('',(0.,0.,-1.));
#364=DIRECTION('',(1.,0.,0.));
#365=DIRECTION('',(0.,0.,1.));
#366=DIRECTION('',(1.,0.,0.));
#367=DIRECTION('',(-1.55431223447522E-15,1.38777878078142E-17,1.));
#368=DIRECTION('',(-1.56819002228303E-15,-1.,0.));
#369=DIRECTION('',(-1.55431223447522E-15,1.38777878078142E-17,1.));
#370=DIRECTION('',(1.56819002228303E-15,1.,-1.38777878078118E-17));
#371=DIRECTION('',(-1.55431223447522E-15,1.38777878078142E-17,1.));
#372=DIRECTION('',(1.56819002228303E-15,1.,0.));
#373=DIRECTION('',(-1.55431223447522E-15,1.38777878078142E-17,1.));
#374=DIRECTION('',(1.,0.,1.70803542250024E-15));
#375=DIRECTION('',(-1.55431223447522E-15,1.38777878078142E-17,1.));
#376=DIRECTION('',(1.56819002228303E-15,1.,2.68819134291805E-17));
#377=DIRECTION('',(1.55431223447522E-15,-1.38777878078142E-17,-1.));
#378=DIRECTION('',(-1.56819002228303E-15,-1.,1.38777878078145E-17));
#379=DIRECTION('',(-1.55431223447522E-15,1.38777878078142E-17,1.));
#380=DIRECTION('',(-1.,0.,-1.60128320859398E-15));
#381=DIRECTION('',(-1.55431223447522E-15,1.38777878078142E-17,1.));
#382=DIRECTION('',(1.56819002228303E-15,1.,-1.38777878078118E-17));
#383=DIRECTION('',(1.55431223447522E-15,-1.38777878078142E-17,-1.));
#384=DIRECTION('',(-1.56819002228303E-15,-1.,0.));
#385=DIRECTION('',(1.55431223447522E-15,-1.38777878078142E-17,-1.));
#386=DIRECTION('',(-1.56819002228303E-15,-1.,1.38777878078145E-17));
#387=DIRECTION('',(-1.55431223447522E-15,1.38777878078142E-17,1.));
#388=DIRECTION('',(1.56819002228303E-15,1.,-1.29941833406502E-17));
#389=DIRECTION('',(-1.,-1.52655665885959E-15,-1.72084568816899E-15));
#390=DIRECTION('',(-1.72084568816899E-15,-1.38777878078144E-17,1.));
#391=DIRECTION('',(-1.,-1.52655665885959E-15,-1.72084568816899E-15));
#392=DIRECTION('',(-1.72084568816899E-15,-1.38777878078144E-17,1.));
#393=DIRECTION('',(1.52655665885959E-15,-1.,-1.38777878078118E-17));
#394=DIRECTION('',(1.,1.52655665885959E-15,0.));
#395=DIRECTION('',(-1.,-1.52655665885959E-15,-1.72084568816899E-15));
#396=DIRECTION('',(-1.,-1.52655665885959E-15,-1.72084568816899E-15));
#397=DIRECTION('',(-1.72084568816899E-15,-1.38777878078144E-17,1.));
#398=DIRECTION('',(-1.52655665885959E-15,1.,1.38777878078118E-17));
#399=DIRECTION('',(-1.,-1.52655665885959E-15,0.));
#400=DIRECTION('',(-1.,-1.52655665885959E-15,-1.72084568816899E-15));
#401=DIRECTION('',(1.72084568816899E-15,1.38777878078144E-17,-1.));
#402=DIRECTION('',(-1.52655665885959E-15,1.,1.38777878078118E-17));
#403=DIRECTION('',(-1.,-1.52655665885959E-15,-1.72084568816899E-15));
#404=DIRECTION('',(1.72084568816899E-15,1.38777878078144E-17,-1.));
#405=DIRECTION('',(1.,0.,1.72084568816899E-15));
#406=DIRECTION('',(1.72084568816899E-15,1.38777878078144E-17,-1.));
#407=DIRECTION('',(-1.52655665885959E-15,1.,1.38777878078118E-17));
#408=DIRECTION('',(-1.72084568816899E-15,-1.38777878078144E-17,1.));
#409=DIRECTION('',(1.52655665885959E-15,-1.,-1.38777878078118E-17));
#410=DIRECTION('',(1.72084568816899E-15,1.38777878078144E-17,-1.));
#411=DIRECTION('',(1.72084568816899E-15,1.38777878078144E-17,-1.));
#412=DIRECTION('',(-1.52655665885959E-15,1.,2.66880534765663E-17));
#413=DIRECTION('',(1.72084568816899E-15,1.38777878078144E-17,-1.));
#414=DIRECTION('',(1.72084568816899E-15,1.38777878078144E-17,-1.));
#415=DIRECTION('',(-1.52655665885959E-15,1.,2.66880534765663E-17));
#416=DIRECTION('',(1.72084568816899E-15,1.38777878078144E-17,-1.));
#417=DIRECTION('',(-1.52655665885959E-15,1.,1.33440267382831E-17));
#418=DIRECTION('',(-1.,-1.52655665885959E-15,-1.72084568816899E-15));
#419=DIRECTION('',(1.52655665885959E-15,-1.,-1.38777878078118E-17));
#420=DIRECTION('',(1.,1.52655665885959E-15,0.));
#421=DIRECTION('',(-1.,-1.52655665885959E-15,-1.72084568816899E-15));
#422=DIRECTION('',(1.72084568816899E-15,1.38777878078144E-17,-1.));
#423=DIRECTION('',(-1.52655665885959E-15,1.,1.38777878078118E-17));
#424=DIRECTION('',(-1.,-1.52655665885959E-15,0.));
#425=DIRECTION('',(-1.72084568816899E-15,-1.18533315239034E-15,1.));
#426=DIRECTION('',(1.,0.,1.73472347597681E-15));
#427=DIRECTION('',(-1.72084568816899E-15,-1.18533315239034E-15,1.));
#428=DIRECTION('',(1.52655665885959E-15,-1.,-1.18481613409216E-15));
#429=DIRECTION('',(-1.72084568816899E-15,-1.18533315239034E-15,1.));
#430=DIRECTION('',(1.52655665885959E-15,-1.,-1.18481613409216E-15));
#431=DIRECTION('',(-1.72084568816899E-15,-1.38777878078144E-17,1.));
#432=DIRECTION('',(1.,0.,1.72084568816899E-15));
#433=CARTESIAN_POINT('',(0.,0.,0.));
#434=CARTESIAN_POINT('',(0.,0.,0.));
#435=CARTESIAN_POINT('',(0.,0.,0.));
#436=CARTESIAN_POINT('',(1.3988810110277E-13,-1.24900090270328E-15,-90.));
#437=CARTESIAN_POINT('',(0.,0.,0.));
#438=CARTESIAN_POINT('',(0.,0.,0.));
#439=CARTESIAN_POINT('',(1.3988810110277E-13,-1.24900090270328E-15,-90.));
#440=CARTESIAN_POINT('',(0.,0.,0.));
#441=CARTESIAN_POINT('',(29.3428015022424,10.,5.06332113220106E-14));
#442=CARTESIAN_POINT('',(29.3428015022424,-9.99999999999995,5.03556555658544E-14));
#443=CARTESIAN_POINT('',(29.3428015022424,-9.99999999999995,10.));
#444=CARTESIAN_POINT('',(29.3428015022424,-9.99999999999995,10.));
#445=CARTESIAN_POINT('',(-1.72084568816899E-14,-1.38777878078144E-16,10.));
#446=CARTESIAN_POINT('',(29.3428015022424,10.,10.0000000000001));
#447=CARTESIAN_POINT('',(29.3428015022424,10.,5.06332113220106E-14));
#448=CARTESIAN_POINT('',(0.,0.,0.));
#449=CARTESIAN_POINT('',(1.89293025698589E-14,1.52655665885959E-16,-11.));
#450=CARTESIAN_POINT('',(-65.,1.52655665885959E-16,-11.));
#451=CARTESIAN_POINT('',(1.70974345792274E-14,-1.52655665885957E-16,-11.));
#452=CARTESIAN_POINT('',(68.,-1.52655665885957E-16,-11.));
#453=CARTESIAN_POINT('',(1.4210854715202E-14,2.46519032881566E-32,-11.));
#454=CARTESIAN_POINT('',(2.64233079860787E-14,-2.35922392732842E-16,-17.));
#455=CARTESIAN_POINT('',(-8.02136135291675E-14,-68.,-17.));
#456=CARTESIAN_POINT('',(0.,0.,0.));
#457=CARTESIAN_POINT('',(1.3988810110277E-13,-1.24900090270328E-15,-90.));
#458=CARTESIAN_POINT('',(1.87717896782402E-13,30.5,-90.));
#459=CARTESIAN_POINT('',(1.36779476633819E-13,-1.22124532708765E-15,-88.));
#460=CARTESIAN_POINT('',(32.5000000000001,-1.22124532708765E-15,-87.9999999999999));
#461=CARTESIAN_POINT('',(1.36779476633819E-13,-1.22124532708765E-15,-88.));
#462=CARTESIAN_POINT('',(-30.4999999999999,4.65807947769292E-14,-90.));
#463=CARTESIAN_POINT('',(3.88578058618804E-14,-3.46944695195356E-16,-25.));
#464=CARTESIAN_POINT('',(-32.5,-3.46944695195356E-16,-25.0000000000001));
#465=CARTESIAN_POINT('',(0.,0.,0.));
#466=CARTESIAN_POINT('',(3.88578058618804E-14,-3.46944695195356E-16,-25.));
#467=CARTESIAN_POINT('',(-5.52335954751015E-14,-60.,-25.));
#468=CARTESIAN_POINT('',(-68.,1.06289976820051E-13,-25.0000000000001));
#469=CARTESIAN_POINT('',(2.64233079860787E-14,-2.35922392732842E-16,-17.));
#470=CARTESIAN_POINT('',(8.00000000000002,-9.99999999999998,1.36279876272738E-14));
#471=CARTESIAN_POINT('',(-29.3428015022424,-10.,-5.06332113220106E-14));
#472=CARTESIAN_POINT('',(-64.2261628933256,-10.0000000000001,-1.10662093360697E-13));
#473=CARTESIAN_POINT('',(-29.3428015022424,-10.,-5.06332113220106E-14));
#474=CARTESIAN_POINT('',(-29.3428015022424,-10.,9.99999999999994));
#475=CARTESIAN_POINT('',(-1.942890293094E-15,-10.,9.99999999999999));
#476=CARTESIAN_POINT('',(-64.2261628933257,-10.0000000000001,9.99999999999988));
#477=CARTESIAN_POINT('',(-64.2261628933256,-10.0000000000001,-0.500000000000119));
#478=CARTESIAN_POINT('',(1.17961196366423E-14,-10.,-1.38777878078124E-16));
#479=CARTESIAN_POINT('',(-1.87350135405495E-14,10.,1.38777878078112E-16));
#480=CARTESIAN_POINT('',(64.2261628933256,10.0000000000001,1.10662093360697E-13));
#481=CARTESIAN_POINT('',(-3.59434704222394E-14,10.,10.));
#482=CARTESIAN_POINT('',(64.2261628933256,10.0000000000001,10.0000000000001));
#483=CARTESIAN_POINT('',(64.2261628933256,10.0000000000001,-0.499999999999898));
#484=CARTESIAN_POINT('',(-1.87350135405495E-14,10.,1.38777878078112E-16));
#485=CARTESIAN_POINT('',(8.00000000000002,-9.99999999999998,1.36279876272738E-14));
#486=CARTESIAN_POINT('',(64.2261628933257,-9.9999999999999,1.10384537604541E-13));
#487=CARTESIAN_POINT('',(0.,0.,0.));
#488=CARTESIAN_POINT('',(-64.2261628933257,9.9999999999999,-1.10384537604541E-13));
#489=CARTESIAN_POINT('',(-1.87350135405495E-14,10.,1.38777878078112E-16));
#490=CARTESIAN_POINT('',(-29.3428015022424,9.99999999999996,-5.03556555658544E-14));
#491=CARTESIAN_POINT('',(0.,0.,0.));
#492=CARTESIAN_POINT('',(0.,0.,0.));
#493=CARTESIAN_POINT('',(8.,1.22124532708767E-14,1.37667655053519E-14));
#494=CARTESIAN_POINT('',(-64.2261628933257,9.9999999999999,-0.500000000000119));
#495=CARTESIAN_POINT('',(-64.2261628933257,9.9999999999999,9.99999999999988));
#496=CARTESIAN_POINT('',(-1.72084568816899E-14,-1.38777878078144E-16,9.99999999999999));
#497=CARTESIAN_POINT('',(64.2261628933257,-9.9999999999999,10.0000000000001));
#498=CARTESIAN_POINT('',(64.2261628933257,-9.9999999999999,-0.499999999999898));
#499=CARTESIAN_POINT('',(-1.72084568816899E-14,-1.38777878078144E-16,9.99999999999999));
#500=CARTESIAN_POINT('',(8.6042284408451E-16,6.93889390390733E-18,-0.500000000000008));
#501=CARTESIAN_POINT('',(-1.942890293094E-15,-10.,9.99999999999999));
#502=CARTESIAN_POINT('',(1.17961196366423E-14,-10.,-1.38777878078124E-16));
#503=CARTESIAN_POINT('',(-3.59434704222394E-14,10.,10.));
#504=CARTESIAN_POINT('',(-29.3428015022425,9.99999999999996,9.99999999999996));
#505=CARTESIAN_POINT('',(-29.3428015022425,9.99999999999996,9.99999999999996));
#506=CARTESIAN_POINT('',(-1.87350135405495E-14,10.,1.38777878078112E-16));
#507=CARTESIAN_POINT('',(-1.72084568816899E-14,-1.38777878078144E-16,10.));
#508=CARTESIAN_POINT('',(-1.72084568816899E-14,-1.38777878078144E-16,10.));
#509=CARTESIAN_POINT('',(-1.72084568816899E-14,-1.38777878078144E-16,10.));
#510=CARTESIAN_POINT('',(0.,0.,0.));
#511=MECHANICAL_DESIGN_GEOMETRIC_PRESENTATION_REPRESENTATION('',(#287,#288,
#289,#290,#291,#292,#293),#512);
#512=(
GEOMETRIC_REPRESENTATION_CONTEXT(3)
GLOBAL_UNCERTAINTY_ASSIGNED_CONTEXT((#513))
GLOBAL_UNIT_ASSIGNED_CONTEXT((#519,#515,#514))
REPRESENTATION_CONTEXT('1566219973013','TOP_LEVEL_ASSEMBLY_PART')
);
#513=UNCERTAINTY_MEASURE_WITH_UNIT(LENGTH_MEASURE(2.E-5),#519,
'DISTANCE_ACCURACY_VALUE','Maximum Tolerance applied to model');
#514=(
NAMED_UNIT(*)
SI_UNIT($,.STERADIAN.)
SOLID_ANGLE_UNIT()
);
#515=(
CONVERSION_BASED_UNIT('DEGREE',#517)
NAMED_UNIT(#516)
PLANE_ANGLE_UNIT()
);
#516=DIMENSIONAL_EXPONENTS(0.,0.,0.,0.,0.,0.,0.);
#517=PLANE_ANGLE_MEASURE_WITH_UNIT(PLANE_ANGLE_MEASURE(0.0174532925),#518);
#518=(
NAMED_UNIT(*)
PLANE_ANGLE_UNIT()
SI_UNIT($,.RADIAN.)
);
#519=(
LENGTH_UNIT()
NAMED_UNIT(*)
SI_UNIT(.MILLI.,.METRE.)
);
ENDSEC;
END-ISO-10303-21;
