ISO-10303-21;
HEADER;
/* Generated by software containing ST-Developer
 * from STEP Tools, Inc. (www.steptools.com) 
 */
/* OPTION: using custom schema-name function */

FILE_DESCRIPTION(
/* description */ (''),
/* implementation_level */ '2;1');

FILE_NAME(
/* name */ '1566219780367.stp',
/* time_stamp */ '2019-08-19T15:03:06+02:00',
/* author */ (''),
/* organization */ ('SMS'),
/* preprocessor_version */ 'ST-DEVELOPER v16.7',
/* originating_system */ 'SIEMENS PLM Software NX 12.0',
/* authorisation */ '');

FILE_SCHEMA (('AUTOMOTIVE_DESIGN { 1 0 10303 214 3 1 1 1 }'));
ENDSEC;

DATA;
#10=CONSTRUCTIVE_GEOMETRY_REPRESENTATION_RELATIONSHIP(
'supplemental geometry','',#26,#11);
#11=CONSTRUCTIVE_GEOMETRY_REPRESENTATION('supplemental geometry',(#255,
#256,#257),#412);
#12=GEOMETRICALLY_BOUNDED_WIREFRAME_SHAPE_REPRESENTATION(
'202504547mod000_00-None',(#27),#412);
#13=SHAPE_REPRESENTATION_RELATIONSHIP('None',
'relationship between 202504547mod000_00-None and 202504547mod000_00-N
one',#26,#15);
#14=SHAPE_REPRESENTATION_RELATIONSHIP('None',
'relationship between 202504547mod000_00-None and 202504547mod000_00-N
one',#26,#12);
#15=ADVANCED_BREP_SHAPE_REPRESENTATION('202504547mod000_00-None',(#33),
#412);
#16=SHAPE_DEFINITION_REPRESENTATION(#17,#26);
#17=PRODUCT_DEFINITION_SHAPE('','',#18);
#18=PRODUCT_DEFINITION(' ','',#20,#19);
#19=PRODUCT_DEFINITION_CONTEXT('part definition',#25,'design');
#20=PRODUCT_DEFINITION_FORMATION_WITH_SPECIFIED_SOURCE(' ',' ',#22,
 .NOT_KNOWN.);
#21=PRODUCT_RELATED_PRODUCT_CATEGORY('part','',(#22));
#22=PRODUCT('202504547mod000_00','202504547mod000_00','NOCUT',(#23));
#23=PRODUCT_CONTEXT(' ',#25,'mechanical');
#24=APPLICATION_PROTOCOL_DEFINITION('international standard',
'automotive_design',2010,#25);
#25=APPLICATION_CONTEXT(
'core data for automotive mechanical design processes');
#26=SHAPE_REPRESENTATION('202504547mod000_00-None',(#254),#412);
#27=GEOMETRIC_CURVE_SET('None',(#349,#350,#351));
#28=SURFACE_STYLE_USAGE(.BOTH.,#29);
#29=SURFACE_SIDE_STYLE('',(#30));
#30=SURFACE_STYLE_FILL_AREA(#31);
#31=FILL_AREA_STYLE('',(#32));
#32=FILL_AREA_STYLE_COLOUR('',#253);
#33=MANIFOLD_SOLID_BREP('NOCUT',#34);
#34=CLOSED_SHELL('',(#43,#44,#45,#46,#47,#48,#49,#50,#51,#52,#53,#54));
#35=CONICAL_SURFACE('',#267,20.5,44.9999999999999);
#36=CYLINDRICAL_SURFACE('',#264,22.5);
#37=CYLINDRICAL_SURFACE('',#273,38.975);
#38=CYLINDRICAL_SURFACE('',#276,38.975);
#39=FACE_BOUND('',#74,.T.);
#40=FACE_BOUND('',#75,.T.);
#41=FACE_BOUND('',#77,.T.);
#42=FACE_BOUND('',#78,.T.);
#43=ADVANCED_FACE('',(#63),#55,.T.);
#44=ADVANCED_FACE('',(#39,#40),#36,.T.);
#45=ADVANCED_FACE('',(#64),#56,.T.);
#46=ADVANCED_FACE('',(#41,#42),#35,.T.);
#47=ADVANCED_FACE('',(#65),#57,.T.);
#48=ADVANCED_FACE('',(#66),#58,.T.);
#49=ADVANCED_FACE('',(#67),#37,.T.);
#50=ADVANCED_FACE('',(#68),#59,.F.);
#51=ADVANCED_FACE('',(#69),#38,.T.);
#52=ADVANCED_FACE('',(#70),#60,.F.);
#53=ADVANCED_FACE('',(#71),#61,.F.);
#54=ADVANCED_FACE('',(#72),#62,.F.);
#55=PLANE('',#259);
#56=PLANE('',#266);
#57=PLANE('',#268);
#58=PLANE('',#271);
#59=PLANE('',#275);
#60=PLANE('',#277);
#61=PLANE('',#278);
#62=PLANE('',#279);
#63=FACE_OUTER_BOUND('',#73,.T.);
#64=FACE_OUTER_BOUND('',#76,.T.);
#65=FACE_OUTER_BOUND('',#79,.T.);
#66=FACE_OUTER_BOUND('',#80,.T.);
#67=FACE_OUTER_BOUND('',#81,.T.);
#68=FACE_OUTER_BOUND('',#82,.T.);
#69=FACE_OUTER_BOUND('',#83,.T.);
#70=FACE_OUTER_BOUND('',#84,.T.);
#71=FACE_OUTER_BOUND('',#85,.T.);
#72=FACE_OUTER_BOUND('',#86,.T.);
#73=EDGE_LOOP('',(#119,#120));
#74=EDGE_LOOP('',(#121));
#75=EDGE_LOOP('',(#122,#123,#124,#125,#126,#127,#128,#129));
#76=EDGE_LOOP('',(#130));
#77=EDGE_LOOP('',(#131));
#78=EDGE_LOOP('',(#132));
#79=EDGE_LOOP('',(#133,#134));
#80=EDGE_LOOP('',(#135,#136,#137,#138));
#81=EDGE_LOOP('',(#139,#140,#141,#142));
#82=EDGE_LOOP('',(#143,#144,#145,#146));
#83=EDGE_LOOP('',(#147,#148,#149,#150));
#84=EDGE_LOOP('',(#151,#152,#153,#154));
#85=EDGE_LOOP('',(#155,#156,#157,#158,#159,#160,#161,#162));
#86=EDGE_LOOP('',(#163,#164,#165,#166,#167,#168,#169,#170));
#87=LINE('',#358,#103);
#88=LINE('',#362,#104);
#89=LINE('',#366,#105);
#90=LINE('',#370,#106);
#91=LINE('',#374,#107);
#92=LINE('',#380,#108);
#93=LINE('',#385,#109);
#94=LINE('',#389,#110);
#95=LINE('',#391,#111);
#96=LINE('',#393,#112);
#97=LINE('',#400,#113);
#98=LINE('',#401,#114);
#99=LINE('',#403,#115);
#100=LINE('',#404,#116);
#101=LINE('',#406,#117);
#102=LINE('',#407,#118);
#103=VECTOR('',#290,1.);
#104=VECTOR('',#295,1.);
#105=VECTOR('',#298,1.);
#106=VECTOR('',#301,1.);
#107=VECTOR('',#304,1.);
#108=VECTOR('',#313,1.);
#109=VECTOR('',#318,1.);
#110=VECTOR('',#321,1.);
#111=VECTOR('',#324,1.);
#112=VECTOR('',#325,1.);
#113=VECTOR('',#332,1.);
#114=VECTOR('',#333,1.);
#115=VECTOR('',#336,1.);
#116=VECTOR('',#337,1.);
#117=VECTOR('',#340,1.);
#118=VECTOR('',#341,1.);
#119=ORIENTED_EDGE('',*,*,#189,.F.);
#120=ORIENTED_EDGE('',*,*,#190,.T.);
#121=ORIENTED_EDGE('',*,*,#191,.T.);
#122=ORIENTED_EDGE('',*,*,#189,.T.);
#123=ORIENTED_EDGE('',*,*,#192,.F.);
#124=ORIENTED_EDGE('',*,*,#193,.F.);
#125=ORIENTED_EDGE('',*,*,#194,.F.);
#126=ORIENTED_EDGE('',*,*,#195,.T.);
#127=ORIENTED_EDGE('',*,*,#196,.F.);
#128=ORIENTED_EDGE('',*,*,#197,.F.);
#129=ORIENTED_EDGE('',*,*,#198,.F.);
#130=ORIENTED_EDGE('',*,*,#199,.T.);
#131=ORIENTED_EDGE('',*,*,#191,.F.);
#132=ORIENTED_EDGE('',*,*,#199,.F.);
#133=ORIENTED_EDGE('',*,*,#200,.F.);
#134=ORIENTED_EDGE('',*,*,#195,.F.);
#135=ORIENTED_EDGE('',*,*,#201,.T.);
#136=ORIENTED_EDGE('',*,*,#202,.T.);
#137=ORIENTED_EDGE('',*,*,#203,.T.);
#138=ORIENTED_EDGE('',*,*,#204,.T.);
#139=ORIENTED_EDGE('',*,*,#205,.F.);
#140=ORIENTED_EDGE('',*,*,#201,.F.);
#141=ORIENTED_EDGE('',*,*,#206,.F.);
#142=ORIENTED_EDGE('',*,*,#207,.T.);
#143=ORIENTED_EDGE('',*,*,#208,.F.);
#144=ORIENTED_EDGE('',*,*,#209,.T.);
#145=ORIENTED_EDGE('',*,*,#197,.T.);
#146=ORIENTED_EDGE('',*,*,#210,.T.);
#147=ORIENTED_EDGE('',*,*,#203,.F.);
#148=ORIENTED_EDGE('',*,*,#211,.F.);
#149=ORIENTED_EDGE('',*,*,#208,.T.);
#150=ORIENTED_EDGE('',*,*,#212,.F.);
#151=ORIENTED_EDGE('',*,*,#213,.T.);
#152=ORIENTED_EDGE('',*,*,#193,.T.);
#153=ORIENTED_EDGE('',*,*,#214,.T.);
#154=ORIENTED_EDGE('',*,*,#207,.F.);
#155=ORIENTED_EDGE('',*,*,#212,.T.);
#156=ORIENTED_EDGE('',*,*,#210,.F.);
#157=ORIENTED_EDGE('',*,*,#196,.T.);
#158=ORIENTED_EDGE('',*,*,#200,.T.);
#159=ORIENTED_EDGE('',*,*,#194,.T.);
#160=ORIENTED_EDGE('',*,*,#213,.F.);
#161=ORIENTED_EDGE('',*,*,#206,.T.);
#162=ORIENTED_EDGE('',*,*,#204,.F.);
#163=ORIENTED_EDGE('',*,*,#214,.F.);
#164=ORIENTED_EDGE('',*,*,#192,.T.);
#165=ORIENTED_EDGE('',*,*,#190,.F.);
#166=ORIENTED_EDGE('',*,*,#198,.T.);
#167=ORIENTED_EDGE('',*,*,#209,.F.);
#168=ORIENTED_EDGE('',*,*,#211,.T.);
#169=ORIENTED_EDGE('',*,*,#202,.F.);
#170=ORIENTED_EDGE('',*,*,#205,.T.);
#171=VERTEX_POINT('',#356);
#172=VERTEX_POINT('',#357);
#173=VERTEX_POINT('',#361);
#174=VERTEX_POINT('',#363);
#175=VERTEX_POINT('',#365);
#176=VERTEX_POINT('',#367);
#177=VERTEX_POINT('',#369);
#178=VERTEX_POINT('',#371);
#179=VERTEX_POINT('',#373);
#180=VERTEX_POINT('',#377);
#181=VERTEX_POINT('',#383);
#182=VERTEX_POINT('',#384);
#183=VERTEX_POINT('',#386);
#184=VERTEX_POINT('',#388);
#185=VERTEX_POINT('',#392);
#186=VERTEX_POINT('',#394);
#187=VERTEX_POINT('',#398);
#188=VERTEX_POINT('',#399);
#189=EDGE_CURVE('',#171,#172,#215,.T.);
#190=EDGE_CURVE('',#171,#172,#87,.T.);
#191=EDGE_CURVE('',#173,#173,#216,.T.);
#192=EDGE_CURVE('',#174,#172,#88,.T.);
#193=EDGE_CURVE('',#175,#174,#217,.T.);
#194=EDGE_CURVE('',#176,#175,#89,.T.);
#195=EDGE_CURVE('',#176,#177,#218,.T.);
#196=EDGE_CURVE('',#178,#177,#90,.T.);
#197=EDGE_CURVE('',#179,#178,#219,.T.);
#198=EDGE_CURVE('',#171,#179,#91,.T.);
#199=EDGE_CURVE('',#180,#180,#220,.T.);
#200=EDGE_CURVE('',#177,#176,#92,.T.);
#201=EDGE_CURVE('',#181,#182,#221,.T.);
#202=EDGE_CURVE('',#182,#183,#93,.T.);
#203=EDGE_CURVE('',#183,#184,#222,.T.);
#204=EDGE_CURVE('',#184,#181,#94,.T.);
#205=EDGE_CURVE('',#182,#185,#95,.T.);
#206=EDGE_CURVE('',#186,#181,#96,.T.);
#207=EDGE_CURVE('',#186,#185,#223,.T.);
#208=EDGE_CURVE('',#187,#188,#224,.T.);
#209=EDGE_CURVE('',#187,#179,#97,.T.);
#210=EDGE_CURVE('',#178,#188,#98,.T.);
#211=EDGE_CURVE('',#187,#183,#99,.T.);
#212=EDGE_CURVE('',#184,#188,#100,.T.);
#213=EDGE_CURVE('',#186,#175,#101,.T.);
#214=EDGE_CURVE('',#174,#185,#102,.T.);
#215=CIRCLE('',#258,22.5);
#216=CIRCLE('',#260,22.5);
#217=CIRCLE('',#261,22.5);
#218=CIRCLE('',#262,22.5);
#219=CIRCLE('',#263,22.5);
#220=CIRCLE('',#265,20.5);
#221=CIRCLE('',#269,38.975);
#222=CIRCLE('',#270,38.975);
#223=CIRCLE('',#272,38.975);
#224=CIRCLE('',#274,38.975);
#225=CURVE_STYLE('',#228,POSITIVE_LENGTH_MEASURE(0.18),#252);
#226=CURVE_STYLE('',#229,POSITIVE_LENGTH_MEASURE(0.18),#252);
#227=CURVE_STYLE('',#230,POSITIVE_LENGTH_MEASURE(0.18),#252);
#228=DRAUGHTING_PRE_DEFINED_CURVE_FONT('continuous');
#229=DRAUGHTING_PRE_DEFINED_CURVE_FONT('continuous');
#230=DRAUGHTING_PRE_DEFINED_CURVE_FONT('continuous');
#231=PRESENTATION_LAYER_ASSIGNMENT('1','Layer 1',(#349,#350,#351,#255,#256,
#257,#33));
#232=STYLED_ITEM('',(#239),#349);
#233=STYLED_ITEM('',(#240),#350);
#234=STYLED_ITEM('',(#241),#351);
#235=STYLED_ITEM('',(#242),#255);
#236=STYLED_ITEM('',(#243),#256);
#237=STYLED_ITEM('',(#244),#257);
#238=STYLED_ITEM('',(#245),#33);
#239=PRESENTATION_STYLE_ASSIGNMENT((#246));
#240=PRESENTATION_STYLE_ASSIGNMENT((#247));
#241=PRESENTATION_STYLE_ASSIGNMENT((#248));
#242=PRESENTATION_STYLE_ASSIGNMENT((#225));
#243=PRESENTATION_STYLE_ASSIGNMENT((#226));
#244=PRESENTATION_STYLE_ASSIGNMENT((#227));
#245=PRESENTATION_STYLE_ASSIGNMENT((#28));
#246=POINT_STYLE('',#249,POSITIVE_LENGTH_MEASURE(3.),#252);
#247=POINT_STYLE('',#250,POSITIVE_LENGTH_MEASURE(3.),#252);
#248=POINT_STYLE('',#251,POSITIVE_LENGTH_MEASURE(3.),#252);
#249=PRE_DEFINED_POINT_MARKER_SYMBOL('plus');
#250=PRE_DEFINED_POINT_MARKER_SYMBOL('plus');
#251=PRE_DEFINED_POINT_MARKER_SYMBOL('plus');
#252=COLOUR_RGB('Medium Maroon',0.6,0.4,0.4);
#253=COLOUR_RGB('Medium Gray',0.501960784313725,0.501960784313725,0.501960784313725);
#254=AXIS2_PLACEMENT_3D('',#348,#280,#281);
#255=AXIS2_PLACEMENT_3D('MCS',#352,#282,#283);
#256=AXIS2_PLACEMENT_3D('PCS',#353,#284,#285);
#257=AXIS2_PLACEMENT_3D('CSW',#354,#286,#287);
#258=AXIS2_PLACEMENT_3D('',#355,#288,#289);
#259=AXIS2_PLACEMENT_3D('',#359,#291,#292);
#260=AXIS2_PLACEMENT_3D('',#360,#293,#294);
#261=AXIS2_PLACEMENT_3D('',#364,#296,#297);
#262=AXIS2_PLACEMENT_3D('',#368,#299,#300);
#263=AXIS2_PLACEMENT_3D('',#372,#302,#303);
#264=AXIS2_PLACEMENT_3D('',#375,#305,#306);
#265=AXIS2_PLACEMENT_3D('',#376,#307,#308);
#266=AXIS2_PLACEMENT_3D('',#378,#309,#310);
#267=AXIS2_PLACEMENT_3D('',#379,#311,#312);
#268=AXIS2_PLACEMENT_3D('',#381,#314,#315);
#269=AXIS2_PLACEMENT_3D('',#382,#316,#317);
#270=AXIS2_PLACEMENT_3D('',#387,#319,#320);
#271=AXIS2_PLACEMENT_3D('',#390,#322,#323);
#272=AXIS2_PLACEMENT_3D('',#395,#326,#327);
#273=AXIS2_PLACEMENT_3D('',#396,#328,#329);
#274=AXIS2_PLACEMENT_3D('',#397,#330,#331);
#275=AXIS2_PLACEMENT_3D('',#402,#334,#335);
#276=AXIS2_PLACEMENT_3D('',#405,#338,#339);
#277=AXIS2_PLACEMENT_3D('',#408,#342,#343);
#278=AXIS2_PLACEMENT_3D('',#409,#344,#345);
#279=AXIS2_PLACEMENT_3D('',#410,#346,#347);
#280=DIRECTION('',(0.,0.,1.));
#281=DIRECTION('',(1.,0.,0.));
#282=DIRECTION('',(0.,0.,1.));
#283=DIRECTION('',(1.,0.,0.));
#284=DIRECTION('',(0.,0.,1.));
#285=DIRECTION('',(1.,0.,0.));
#286=DIRECTION('',(0.,0.,1.));
#287=DIRECTION('',(1.,0.,0.));
#288=DIRECTION('',(0.,0.,-1.));
#289=DIRECTION('',(1.,0.,0.));
#290=DIRECTION('',(-1.,0.,-2.34291072916505E-15));
#291=DIRECTION('',(0.,0.,1.));
#292=DIRECTION('',(1.,0.,0.));
#293=DIRECTION('',(-2.52263044339295E-15,0.,1.));
#294=DIRECTION('',(1.,0.,2.46716227694479E-15));
#295=DIRECTION('',(2.34291072916505E-15,0.,-1.));
#296=DIRECTION('',(-2.34291072916505E-15,0.,1.));
#297=DIRECTION('',(1.,0.,2.31296463463574E-15));
#298=DIRECTION('',(-2.34291072916505E-15,0.,1.));
#299=DIRECTION('',(0.,0.,-1.));
#300=DIRECTION('',(1.,0.,0.));
#301=DIRECTION('',(2.34291072916505E-15,0.,-1.));
#302=DIRECTION('',(-2.34291072916505E-15,0.,1.));
#303=DIRECTION('',(1.,0.,2.31296463463574E-15));
#304=DIRECTION('',(-2.34291072916505E-15,0.,1.));
#305=DIRECTION('',(-2.65065747129256E-15,0.,1.));
#306=DIRECTION('',(1.,0.,2.65065747129256E-15));
#307=DIRECTION('',(2.52263044339295E-15,0.,-1.));
#308=DIRECTION('',(-1.,0.,-2.70786103567111E-15));
#309=DIRECTION('',(2.52263044339295E-15,0.,-1.));
#310=DIRECTION('',(-1.,0.,-2.52575738102223E-15));
#311=DIRECTION('',(-2.52263044339295E-15,0.,1.));
#312=DIRECTION('',(1.,0.,2.54301452235307E-15));
#313=DIRECTION('',(-1.,0.,-2.34291072916505E-15));
#314=DIRECTION('',(0.,0.,1.));
#315=DIRECTION('',(1.,0.,0.));
#316=DIRECTION('',(-2.34291072916505E-15,0.,1.));
#317=DIRECTION('',(1.,0.,2.34291072916505E-15));
#318=DIRECTION('',(1.,0.,2.34291072916505E-15));
#319=DIRECTION('',(-2.34291072916505E-15,0.,1.));
#320=DIRECTION('',(1.,0.,2.34291072916505E-15));
#321=DIRECTION('',(-1.,0.,-2.34291072916505E-15));
#322=DIRECTION('',(-2.34291072916505E-15,0.,1.));
#323=DIRECTION('',(1.,0.,2.34291072916505E-15));
#324=DIRECTION('',(2.34291072916505E-15,0.,-1.));
#325=DIRECTION('',(-2.34291072916505E-15,0.,1.));
#326=DIRECTION('',(-2.34291072916505E-15,0.,1.));
#327=DIRECTION('',(1.,0.,2.35895687560669E-15));
#328=DIRECTION('',(-2.34291072916505E-15,0.,1.));
#329=DIRECTION('',(1.,0.,2.34291072916505E-15));
#330=DIRECTION('',(-2.34291072916505E-15,0.,1.));
#331=DIRECTION('',(1.,0.,2.35895687560669E-15));
#332=DIRECTION('',(-1.,0.,-2.34291072916505E-15));
#333=DIRECTION('',(1.,0.,2.34291072916505E-15));
#334=DIRECTION('',(-2.34291072916505E-15,0.,1.));
#335=DIRECTION('',(1.,0.,2.34361141604467E-15));
#336=DIRECTION('',(-2.34291072916505E-15,0.,1.));
#337=DIRECTION('',(2.34291072916505E-15,0.,-1.));
#338=DIRECTION('',(-2.34291072916505E-15,0.,1.));
#339=DIRECTION('',(1.,0.,2.34291072916505E-15));
#340=DIRECTION('',(1.,0.,2.34291072916505E-15));
#341=DIRECTION('',(-1.,0.,-2.34291072916505E-15));
#342=DIRECTION('',(-2.34291072916505E-15,0.,1.));
#343=DIRECTION('',(1.,0.,2.34361141604467E-15));
#344=DIRECTION('',(0.,-1.,0.));
#345=DIRECTION('',(-2.34534613952064E-15,0.,1.));
#346=DIRECTION('',(0.,1.,0.));
#347=DIRECTION('',(2.34534613952064E-15,0.,-1.));
#348=CARTESIAN_POINT('',(0.,0.,0.));
#349=CARTESIAN_POINT('',(0.,0.,0.));
#350=CARTESIAN_POINT('',(0.,0.,0.));
#351=CARTESIAN_POINT('',(2.12052597703405E-13,-1.65589383204234E-15,-80.));
#352=CARTESIAN_POINT('',(0.,0.,0.));
#353=CARTESIAN_POINT('',(0.,0.,0.));
#354=CARTESIAN_POINT('',(2.12052597703405E-13,-1.65589383204234E-15,-80.));
#355=CARTESIAN_POINT('',(3.207295540264E-14,0.,-12.1));
#356=CARTESIAN_POINT('',(15.3293541938335,-16.47,-12.1));
#357=CARTESIAN_POINT('',(-15.3293541938334,-16.47,-12.1));
#358=CARTESIAN_POINT('',(-40.,-16.47,-12.1000000000001));
#359=CARTESIAN_POINT('',(2.75335310107039E-14,19.28125,-12.1));
#360=CARTESIAN_POINT('',(2.03239239316916E-13,0.,-78.));
#361=CARTESIAN_POINT('',(22.5000000000002,0.,-77.9999999999999));
#362=CARTESIAN_POINT('',(-15.3293541938334,-16.47,-11.0422178913629));
#363=CARTESIAN_POINT('',(-15.3293541938334,-16.47,-9.98450000000004));
#364=CARTESIAN_POINT('',(2.33927921753484E-14,0.,-9.9845));
#365=CARTESIAN_POINT('',(-15.3293541938335,16.47,-9.98450000000004));
#366=CARTESIAN_POINT('',(-15.3293541938335,16.47,-11.0422178913629));
#367=CARTESIAN_POINT('',(-15.3293541938335,16.47,-12.1));
#368=CARTESIAN_POINT('',(3.207295540264E-14,0.,-12.1));
#369=CARTESIAN_POINT('',(15.3293541938335,16.47,-12.1));
#370=CARTESIAN_POINT('',(15.3293541938335,16.47,-11.0422178913628));
#371=CARTESIAN_POINT('',(15.3293541938335,16.47,-9.98449999999996));
#372=CARTESIAN_POINT('',(2.33927921753484E-14,0.,-9.9845));
#373=CARTESIAN_POINT('',(15.3293541938335,-16.47,-9.98449999999996));
#374=CARTESIAN_POINT('',(15.3293541938335,-16.47,-11.0422178913628));
#375=CARTESIAN_POINT('',(0.,0.,0.));
#376=CARTESIAN_POINT('',(2.08284500203702E-13,0.,-80.));
#377=CARTESIAN_POINT('',(-20.4999999999998,0.,-80.0000000000001));
#378=CARTESIAN_POINT('',(2.08499884024604E-13,0.,-80.));
#379=CARTESIAN_POINT('',(2.08284500203702E-13,0.,-80.));
#380=CARTESIAN_POINT('',(-40.,16.47,-12.1000000000001));
#381=CARTESIAN_POINT('',(2.75335310107039E-14,19.28125,-12.1));
#382=CARTESIAN_POINT('',(0.,0.,0.));
#383=CARTESIAN_POINT('',(-35.3240672205226,16.47,-8.27197746248555E-14));
#384=CARTESIAN_POINT('',(-35.3240672205226,-16.47,-8.27611360887098E-14));
#385=CARTESIAN_POINT('',(-40.,-16.47,-9.36750677027476E-14));
#386=CARTESIAN_POINT('',(35.3240672205226,-16.47,8.27611360887098E-14));
#387=CARTESIAN_POINT('',(0.,0.,0.));
#388=CARTESIAN_POINT('',(35.3240672205226,16.47,8.27611360887098E-14));
#389=CARTESIAN_POINT('',(-40.,16.47,-9.36750677027476E-14));
#390=CARTESIAN_POINT('',(-7.5,0.,-1.75718304687379E-14));
#391=CARTESIAN_POINT('',(-35.3240672205226,-16.47,-8.27611360887098E-14));
#392=CARTESIAN_POINT('',(-35.3240672205226,-16.47,-9.98450000000008));
#393=CARTESIAN_POINT('',(-35.3240672205226,16.47,-8.27611360887098E-14));
#394=CARTESIAN_POINT('',(-35.3240672205226,16.47,-9.98450000000008));
#395=CARTESIAN_POINT('',(2.33927921753484E-14,0.,-9.9845));
#396=CARTESIAN_POINT('',(0.,0.,0.));
#397=CARTESIAN_POINT('',(2.33927921753484E-14,0.,-9.9845));
#398=CARTESIAN_POINT('',(35.3240672205226,-16.47,-9.98449999999992));
#399=CARTESIAN_POINT('',(35.3240672205226,16.47,-9.98449999999992));
#400=CARTESIAN_POINT('',(-26.8925,-16.47,-9.98450000000006));
#401=CARTESIAN_POINT('',(-26.8925,16.47,-9.98450000000006));
#402=CARTESIAN_POINT('',(-26.8925,0.,-9.98450000000006));
#403=CARTESIAN_POINT('',(35.3240672205226,-16.47,8.27611360887098E-14));
#404=CARTESIAN_POINT('',(35.3240672205226,16.47,8.27611360887098E-14));
#405=CARTESIAN_POINT('',(0.,0.,0.));
#406=CARTESIAN_POINT('',(-26.8925,16.47,-9.98450000000006));
#407=CARTESIAN_POINT('',(-26.8925,-16.47,-9.98450000000006));
#408=CARTESIAN_POINT('',(-26.8925,0.,-9.98450000000006));
#409=CARTESIAN_POINT('',(-40.,16.47,-9.80577251982136));
#410=CARTESIAN_POINT('',(-40.,-16.47,-12.1000000000001));
#411=MECHANICAL_DESIGN_GEOMETRIC_PRESENTATION_REPRESENTATION('',(#232,#233,
#234,#235,#236,#237,#238),#412);
#412=(
GEOMETRIC_REPRESENTATION_CONTEXT(3)
GLOBAL_UNCERTAINTY_ASSIGNED_CONTEXT((#413))
GLOBAL_UNIT_ASSIGNED_CONTEXT((#419,#415,#414))
REPRESENTATION_CONTEXT('1566219780367','TOP_LEVEL_ASSEMBLY_PART')
);
#413=UNCERTAINTY_MEASURE_WITH_UNIT(LENGTH_MEASURE(2.E-5),#419,
'DISTANCE_ACCURACY_VALUE','Maximum Tolerance applied to model');
#414=(
NAMED_UNIT(*)
SI_UNIT($,.STERADIAN.)
SOLID_ANGLE_UNIT()
);
#415=(
CONVERSION_BASED_UNIT('DEGREE',#417)
NAMED_UNIT(#416)
PLANE_ANGLE_UNIT()
);
#416=DIMENSIONAL_EXPONENTS(0.,0.,0.,0.,0.,0.,0.);
#417=PLANE_ANGLE_MEASURE_WITH_UNIT(PLANE_ANGLE_MEASURE(0.0174532925),#418);
#418=(
NAMED_UNIT(*)
PLANE_ANGLE_UNIT()
SI_UNIT($,.RADIAN.)
);
#419=(
LENGTH_UNIT()
NAMED_UNIT(*)
SI_UNIT(.MILLI.,.METRE.)
);
ENDSEC;
END-ISO-10303-21;
