ISO-10303-21;
HEADER;
/* Generated by software containing ST-Developer
 * from STEP Tools, Inc. (www.steptools.com) 
 */
/* OPTION: using custom schema-name function */

FILE_DESCRIPTION(
/* description */ (''),
/* implementation_level */ '2;1');

FILE_NAME(
/* name */ '1566219900275.stp',
/* time_stamp */ '2019-08-19T15:05:06+02:00',
/* author */ (''),
/* organization */ ('SMS'),
/* preprocessor_version */ 'ST-DEVELOPER v16.7',
/* originating_system */ 'SIEMENS PLM Software NX 12.0',
/* authorisation */ '');

FILE_SCHEMA (('AUTOMOTIVE_DESIGN { 1 0 10303 214 3 1 1 1 }'));
ENDSEC;

DATA;
#10=CONSTRUCTIVE_GEOMETRY_REPRESENTATION_RELATIONSHIP(
'supplemental geometry','',#26,#11);
#11=CONSTRUCTIVE_GEOMETRY_REPRESENTATION('supplemental geometry',(#277,
#278,#279),#452);
#12=GEOMETRICALLY_BOUNDED_WIREFRAME_SHAPE_REPRESENTATION(
'202499726mod000_00-None',(#27),#452);
#13=SHAPE_REPRESENTATION_RELATIONSHIP('None',
'relationship between 202499726mod000_00-None and 202499726mod000_00-N
one',#26,#15);
#14=SHAPE_REPRESENTATION_RELATIONSHIP('None',
'relationship between 202499726mod000_00-None and 202499726mod000_00-N
one',#26,#12);
#15=ADVANCED_BREP_SHAPE_REPRESENTATION('202499726mod000_00-None',(#33),
#452);
#16=SHAPE_DEFINITION_REPRESENTATION(#17,#26);
#17=PRODUCT_DEFINITION_SHAPE('','',#18);
#18=PRODUCT_DEFINITION(' ','',#20,#19);
#19=PRODUCT_DEFINITION_CONTEXT('part definition',#25,'design');
#20=PRODUCT_DEFINITION_FORMATION_WITH_SPECIFIED_SOURCE(' ',' ',#22,
 .NOT_KNOWN.);
#21=PRODUCT_RELATED_PRODUCT_CATEGORY('part','',(#22));
#22=PRODUCT('202499726mod000_00','202499726mod000_00','NOCUT',(#23));
#23=PRODUCT_CONTEXT(' ',#25,'mechanical');
#24=APPLICATION_PROTOCOL_DEFINITION('international standard',
'automotive_design',2010,#25);
#25=APPLICATION_CONTEXT(
'core data for automotive mechanical design processes');
#26=SHAPE_REPRESENTATION('202499726mod000_00-None',(#276),#452);
#27=GEOMETRIC_CURVE_SET('None',(#383,#384,#385));
#28=SURFACE_STYLE_USAGE(.BOTH.,#29);
#29=SURFACE_SIDE_STYLE('',(#30));
#30=SURFACE_STYLE_FILL_AREA(#31);
#31=FILL_AREA_STYLE('',(#32));
#32=FILL_AREA_STYLE_COLOUR('',#275);
#33=MANIFOLD_SOLID_BREP('NOCUT',#34);
#34=CLOSED_SHELL('',(#48,#49,#50,#51,#52,#53,#54,#55,#56,#57,#58,#59,#60,
#61));
#35=CONICAL_SURFACE('',#292,18.,44.9999999999999);
#36=CYLINDRICAL_SURFACE('',#286,22.5);
#37=CYLINDRICAL_SURFACE('',#293,20.);
#38=CYLINDRICAL_SURFACE('',#299,38.975);
#39=CYLINDRICAL_SURFACE('',#302,38.975);
#40=FACE_BOUND('',#82,.T.);
#41=FACE_BOUND('',#83,.T.);
#42=FACE_BOUND('',#84,.T.);
#43=FACE_BOUND('',#85,.T.);
#44=FACE_BOUND('',#87,.T.);
#45=FACE_BOUND('',#88,.T.);
#46=FACE_BOUND('',#89,.T.);
#47=FACE_BOUND('',#90,.T.);
#48=ADVANCED_FACE('',(#71),#62,.T.);
#49=ADVANCED_FACE('',(#40,#41),#36,.T.);
#50=ADVANCED_FACE('',(#42,#43),#63,.F.);
#51=ADVANCED_FACE('',(#72),#64,.T.);
#52=ADVANCED_FACE('',(#44,#45),#35,.T.);
#53=ADVANCED_FACE('',(#46,#47),#37,.T.);
#54=ADVANCED_FACE('',(#73),#65,.T.);
#55=ADVANCED_FACE('',(#74),#66,.T.);
#56=ADVANCED_FACE('',(#75),#38,.T.);
#57=ADVANCED_FACE('',(#76),#67,.F.);
#58=ADVANCED_FACE('',(#77),#39,.T.);
#59=ADVANCED_FACE('',(#78),#68,.F.);
#60=ADVANCED_FACE('',(#79),#69,.F.);
#61=ADVANCED_FACE('',(#80),#70,.F.);
#62=PLANE('',#281);
#63=PLANE('',#288);
#64=PLANE('',#290);
#65=PLANE('',#294);
#66=PLANE('',#297);
#67=PLANE('',#301);
#68=PLANE('',#303);
#69=PLANE('',#304);
#70=PLANE('',#305);
#71=FACE_OUTER_BOUND('',#81,.T.);
#72=FACE_OUTER_BOUND('',#86,.T.);
#73=FACE_OUTER_BOUND('',#91,.T.);
#74=FACE_OUTER_BOUND('',#92,.T.);
#75=FACE_OUTER_BOUND('',#93,.T.);
#76=FACE_OUTER_BOUND('',#94,.T.);
#77=FACE_OUTER_BOUND('',#95,.T.);
#78=FACE_OUTER_BOUND('',#96,.T.);
#79=FACE_OUTER_BOUND('',#97,.T.);
#80=FACE_OUTER_BOUND('',#98,.T.);
#81=EDGE_LOOP('',(#131,#132));
#82=EDGE_LOOP('',(#133));
#83=EDGE_LOOP('',(#134,#135,#136,#137,#138,#139,#140,#141));
#84=EDGE_LOOP('',(#142));
#85=EDGE_LOOP('',(#143));
#86=EDGE_LOOP('',(#144));
#87=EDGE_LOOP('',(#145));
#88=EDGE_LOOP('',(#146));
#89=EDGE_LOOP('',(#147));
#90=EDGE_LOOP('',(#148));
#91=EDGE_LOOP('',(#149,#150));
#92=EDGE_LOOP('',(#151,#152,#153,#154));
#93=EDGE_LOOP('',(#155,#156,#157,#158));
#94=EDGE_LOOP('',(#159,#160,#161,#162));
#95=EDGE_LOOP('',(#163,#164,#165,#166));
#96=EDGE_LOOP('',(#167,#168,#169,#170));
#97=EDGE_LOOP('',(#171,#172,#173,#174,#175,#176,#177,#178));
#98=EDGE_LOOP('',(#179,#180,#181,#182,#183,#184,#185,#186));
#99=LINE('',#392,#115);
#100=LINE('',#396,#116);
#101=LINE('',#400,#117);
#102=LINE('',#404,#118);
#103=LINE('',#408,#119);
#104=LINE('',#420,#120);
#105=LINE('',#425,#121);
#106=LINE('',#429,#122);
#107=LINE('',#431,#123);
#108=LINE('',#433,#124);
#109=LINE('',#440,#125);
#110=LINE('',#441,#126);
#111=LINE('',#443,#127);
#112=LINE('',#444,#128);
#113=LINE('',#446,#129);
#114=LINE('',#447,#130);
#115=VECTOR('',#316,1.);
#116=VECTOR('',#321,1.);
#117=VECTOR('',#324,1.);
#118=VECTOR('',#327,1.);
#119=VECTOR('',#330,1.);
#120=VECTOR('',#347,1.);
#121=VECTOR('',#352,1.);
#122=VECTOR('',#355,1.);
#123=VECTOR('',#358,1.);
#124=VECTOR('',#359,1.);
#125=VECTOR('',#366,1.);
#126=VECTOR('',#367,1.);
#127=VECTOR('',#370,1.);
#128=VECTOR('',#371,1.);
#129=VECTOR('',#374,1.);
#130=VECTOR('',#375,1.);
#131=ORIENTED_EDGE('',*,*,#207,.F.);
#132=ORIENTED_EDGE('',*,*,#208,.T.);
#133=ORIENTED_EDGE('',*,*,#209,.F.);
#134=ORIENTED_EDGE('',*,*,#207,.T.);
#135=ORIENTED_EDGE('',*,*,#210,.F.);
#136=ORIENTED_EDGE('',*,*,#211,.F.);
#137=ORIENTED_EDGE('',*,*,#212,.F.);
#138=ORIENTED_EDGE('',*,*,#213,.T.);
#139=ORIENTED_EDGE('',*,*,#214,.F.);
#140=ORIENTED_EDGE('',*,*,#215,.F.);
#141=ORIENTED_EDGE('',*,*,#216,.F.);
#142=ORIENTED_EDGE('',*,*,#217,.T.);
#143=ORIENTED_EDGE('',*,*,#209,.T.);
#144=ORIENTED_EDGE('',*,*,#218,.T.);
#145=ORIENTED_EDGE('',*,*,#218,.F.);
#146=ORIENTED_EDGE('',*,*,#219,.T.);
#147=ORIENTED_EDGE('',*,*,#219,.F.);
#148=ORIENTED_EDGE('',*,*,#217,.F.);
#149=ORIENTED_EDGE('',*,*,#220,.F.);
#150=ORIENTED_EDGE('',*,*,#213,.F.);
#151=ORIENTED_EDGE('',*,*,#221,.T.);
#152=ORIENTED_EDGE('',*,*,#222,.T.);
#153=ORIENTED_EDGE('',*,*,#223,.T.);
#154=ORIENTED_EDGE('',*,*,#224,.T.);
#155=ORIENTED_EDGE('',*,*,#225,.F.);
#156=ORIENTED_EDGE('',*,*,#221,.F.);
#157=ORIENTED_EDGE('',*,*,#226,.F.);
#158=ORIENTED_EDGE('',*,*,#227,.T.);
#159=ORIENTED_EDGE('',*,*,#228,.F.);
#160=ORIENTED_EDGE('',*,*,#229,.T.);
#161=ORIENTED_EDGE('',*,*,#215,.T.);
#162=ORIENTED_EDGE('',*,*,#230,.T.);
#163=ORIENTED_EDGE('',*,*,#223,.F.);
#164=ORIENTED_EDGE('',*,*,#231,.F.);
#165=ORIENTED_EDGE('',*,*,#228,.T.);
#166=ORIENTED_EDGE('',*,*,#232,.F.);
#167=ORIENTED_EDGE('',*,*,#233,.T.);
#168=ORIENTED_EDGE('',*,*,#211,.T.);
#169=ORIENTED_EDGE('',*,*,#234,.T.);
#170=ORIENTED_EDGE('',*,*,#227,.F.);
#171=ORIENTED_EDGE('',*,*,#232,.T.);
#172=ORIENTED_EDGE('',*,*,#230,.F.);
#173=ORIENTED_EDGE('',*,*,#214,.T.);
#174=ORIENTED_EDGE('',*,*,#220,.T.);
#175=ORIENTED_EDGE('',*,*,#212,.T.);
#176=ORIENTED_EDGE('',*,*,#233,.F.);
#177=ORIENTED_EDGE('',*,*,#226,.T.);
#178=ORIENTED_EDGE('',*,*,#224,.F.);
#179=ORIENTED_EDGE('',*,*,#225,.T.);
#180=ORIENTED_EDGE('',*,*,#234,.F.);
#181=ORIENTED_EDGE('',*,*,#210,.T.);
#182=ORIENTED_EDGE('',*,*,#208,.F.);
#183=ORIENTED_EDGE('',*,*,#216,.T.);
#184=ORIENTED_EDGE('',*,*,#229,.F.);
#185=ORIENTED_EDGE('',*,*,#231,.T.);
#186=ORIENTED_EDGE('',*,*,#222,.F.);
#187=VERTEX_POINT('',#390);
#188=VERTEX_POINT('',#391);
#189=VERTEX_POINT('',#395);
#190=VERTEX_POINT('',#397);
#191=VERTEX_POINT('',#399);
#192=VERTEX_POINT('',#401);
#193=VERTEX_POINT('',#403);
#194=VERTEX_POINT('',#405);
#195=VERTEX_POINT('',#407);
#196=VERTEX_POINT('',#411);
#197=VERTEX_POINT('',#414);
#198=VERTEX_POINT('',#417);
#199=VERTEX_POINT('',#423);
#200=VERTEX_POINT('',#424);
#201=VERTEX_POINT('',#426);
#202=VERTEX_POINT('',#428);
#203=VERTEX_POINT('',#432);
#204=VERTEX_POINT('',#434);
#205=VERTEX_POINT('',#438);
#206=VERTEX_POINT('',#439);
#207=EDGE_CURVE('',#187,#188,#235,.T.);
#208=EDGE_CURVE('',#187,#188,#99,.T.);
#209=EDGE_CURVE('',#189,#189,#236,.T.);
#210=EDGE_CURVE('',#190,#188,#100,.T.);
#211=EDGE_CURVE('',#191,#190,#237,.T.);
#212=EDGE_CURVE('',#192,#191,#101,.T.);
#213=EDGE_CURVE('',#192,#193,#238,.T.);
#214=EDGE_CURVE('',#194,#193,#102,.T.);
#215=EDGE_CURVE('',#195,#194,#239,.T.);
#216=EDGE_CURVE('',#187,#195,#103,.T.);
#217=EDGE_CURVE('',#196,#196,#240,.T.);
#218=EDGE_CURVE('',#197,#197,#241,.T.);
#219=EDGE_CURVE('',#198,#198,#242,.T.);
#220=EDGE_CURVE('',#193,#192,#104,.T.);
#221=EDGE_CURVE('',#199,#200,#243,.T.);
#222=EDGE_CURVE('',#200,#201,#105,.T.);
#223=EDGE_CURVE('',#201,#202,#244,.T.);
#224=EDGE_CURVE('',#202,#199,#106,.T.);
#225=EDGE_CURVE('',#200,#203,#107,.T.);
#226=EDGE_CURVE('',#204,#199,#108,.T.);
#227=EDGE_CURVE('',#204,#203,#245,.T.);
#228=EDGE_CURVE('',#205,#206,#246,.T.);
#229=EDGE_CURVE('',#205,#195,#109,.T.);
#230=EDGE_CURVE('',#194,#206,#110,.T.);
#231=EDGE_CURVE('',#205,#201,#111,.T.);
#232=EDGE_CURVE('',#202,#206,#112,.T.);
#233=EDGE_CURVE('',#204,#191,#113,.T.);
#234=EDGE_CURVE('',#190,#203,#114,.T.);
#235=CIRCLE('',#280,22.5);
#236=CIRCLE('',#282,22.5);
#237=CIRCLE('',#283,22.5);
#238=CIRCLE('',#284,22.5);
#239=CIRCLE('',#285,22.5);
#240=CIRCLE('',#287,20.);
#241=CIRCLE('',#289,18.);
#242=CIRCLE('',#291,20.);
#243=CIRCLE('',#295,38.975);
#244=CIRCLE('',#296,38.975);
#245=CIRCLE('',#298,38.975);
#246=CIRCLE('',#300,38.975);
#247=CURVE_STYLE('',#250,POSITIVE_LENGTH_MEASURE(0.18),#274);
#248=CURVE_STYLE('',#251,POSITIVE_LENGTH_MEASURE(0.18),#274);
#249=CURVE_STYLE('',#252,POSITIVE_LENGTH_MEASURE(0.18),#274);
#250=DRAUGHTING_PRE_DEFINED_CURVE_FONT('continuous');
#251=DRAUGHTING_PRE_DEFINED_CURVE_FONT('continuous');
#252=DRAUGHTING_PRE_DEFINED_CURVE_FONT('continuous');
#253=PRESENTATION_LAYER_ASSIGNMENT('1','Layer 1',(#383,#384,#385,#277,#278,
#279,#33));
#254=STYLED_ITEM('',(#261),#383);
#255=STYLED_ITEM('',(#262),#384);
#256=STYLED_ITEM('',(#263),#385);
#257=STYLED_ITEM('',(#264),#277);
#258=STYLED_ITEM('',(#265),#278);
#259=STYLED_ITEM('',(#266),#279);
#260=STYLED_ITEM('',(#267),#33);
#261=PRESENTATION_STYLE_ASSIGNMENT((#268));
#262=PRESENTATION_STYLE_ASSIGNMENT((#269));
#263=PRESENTATION_STYLE_ASSIGNMENT((#270));
#264=PRESENTATION_STYLE_ASSIGNMENT((#247));
#265=PRESENTATION_STYLE_ASSIGNMENT((#248));
#266=PRESENTATION_STYLE_ASSIGNMENT((#249));
#267=PRESENTATION_STYLE_ASSIGNMENT((#28));
#268=POINT_STYLE('',#271,POSITIVE_LENGTH_MEASURE(3.),#274);
#269=POINT_STYLE('',#272,POSITIVE_LENGTH_MEASURE(3.),#274);
#270=POINT_STYLE('',#273,POSITIVE_LENGTH_MEASURE(3.),#274);
#271=PRE_DEFINED_POINT_MARKER_SYMBOL('plus');
#272=PRE_DEFINED_POINT_MARKER_SYMBOL('plus');
#273=PRE_DEFINED_POINT_MARKER_SYMBOL('plus');
#274=COLOUR_RGB('Medium Maroon',0.6,0.4,0.4);
#275=COLOUR_RGB('Medium Gray',0.501960784313725,0.501960784313725,0.501960784313725);
#276=AXIS2_PLACEMENT_3D('',#382,#306,#307);
#277=AXIS2_PLACEMENT_3D('MCS',#386,#308,#309);
#278=AXIS2_PLACEMENT_3D('PCS',#387,#310,#311);
#279=AXIS2_PLACEMENT_3D('CSW',#388,#312,#313);
#280=AXIS2_PLACEMENT_3D('',#389,#314,#315);
#281=AXIS2_PLACEMENT_3D('',#393,#317,#318);
#282=AXIS2_PLACEMENT_3D('',#394,#319,#320);
#283=AXIS2_PLACEMENT_3D('',#398,#322,#323);
#284=AXIS2_PLACEMENT_3D('',#402,#325,#326);
#285=AXIS2_PLACEMENT_3D('',#406,#328,#329);
#286=AXIS2_PLACEMENT_3D('',#409,#331,#332);
#287=AXIS2_PLACEMENT_3D('',#410,#333,#334);
#288=AXIS2_PLACEMENT_3D('',#412,#335,#336);
#289=AXIS2_PLACEMENT_3D('',#413,#337,#338);
#290=AXIS2_PLACEMENT_3D('',#415,#339,#340);
#291=AXIS2_PLACEMENT_3D('',#416,#341,#342);
#292=AXIS2_PLACEMENT_3D('',#418,#343,#344);
#293=AXIS2_PLACEMENT_3D('',#419,#345,#346);
#294=AXIS2_PLACEMENT_3D('',#421,#348,#349);
#295=AXIS2_PLACEMENT_3D('',#422,#350,#351);
#296=AXIS2_PLACEMENT_3D('',#427,#353,#354);
#297=AXIS2_PLACEMENT_3D('',#430,#356,#357);
#298=AXIS2_PLACEMENT_3D('',#435,#360,#361);
#299=AXIS2_PLACEMENT_3D('',#436,#362,#363);
#300=AXIS2_PLACEMENT_3D('',#437,#364,#365);
#301=AXIS2_PLACEMENT_3D('',#442,#368,#369);
#302=AXIS2_PLACEMENT_3D('',#445,#372,#373);
#303=AXIS2_PLACEMENT_3D('',#448,#376,#377);
#304=AXIS2_PLACEMENT_3D('',#449,#378,#379);
#305=AXIS2_PLACEMENT_3D('',#450,#380,#381);
#306=DIRECTION('',(0.,0.,1.));
#307=DIRECTION('',(1.,0.,0.));
#308=DIRECTION('',(0.,0.,1.));
#309=DIRECTION('',(1.,0.,0.));
#310=DIRECTION('',(0.,0.,1.));
#311=DIRECTION('',(1.,0.,0.));
#312=DIRECTION('',(0.,0.,1.));
#313=DIRECTION('',(1.,0.,0.));
#314=DIRECTION('',(0.,0.,-1.));
#315=DIRECTION('',(1.,0.,0.));
#316=DIRECTION('',(-1.,0.,-2.5951463200613E-15));
#317=DIRECTION('',(0.,0.,1.));
#318=DIRECTION('',(1.,0.,0.));
#319=DIRECTION('',(0.,0.,-1.));
#320=DIRECTION('',(1.,0.,0.));
#321=DIRECTION('',(2.5951463200613E-15,0.,-1.));
#322=DIRECTION('',(-2.5951463200613E-15,0.,1.));
#323=DIRECTION('',(1.,0.,2.62135991925384E-15));
#324=DIRECTION('',(-2.5951463200613E-15,0.,1.));
#325=DIRECTION('',(0.,0.,-1.));
#326=DIRECTION('',(1.,0.,0.));
#327=DIRECTION('',(2.5951463200613E-15,0.,-1.));
#328=DIRECTION('',(-2.5951463200613E-15,0.,1.));
#329=DIRECTION('',(1.,0.,2.62135991925384E-15));
#330=DIRECTION('',(-2.5951463200613E-15,0.,1.));
#331=DIRECTION('',(-2.34291072916505E-15,0.,1.));
#332=DIRECTION('',(1.,0.,2.34291072916505E-15));
#333=DIRECTION('',(0.,0.,1.));
#334=DIRECTION('',(1.,0.,0.));
#335=DIRECTION('',(0.,0.,1.));
#336=DIRECTION('',(1.,0.,0.));
#337=DIRECTION('',(2.21488370126544E-15,0.,-1.));
#338=DIRECTION('',(-1.,0.,-2.31296463463574E-15));
#339=DIRECTION('',(2.21488370126544E-15,0.,-1.));
#340=DIRECTION('',(-1.,0.,-2.22044604925031E-15));
#341=DIRECTION('',(2.21488370126544E-15,0.,-1.));
#342=DIRECTION('',(1.,0.,2.08166817117217E-15));
#343=DIRECTION('',(-2.21488370126544E-15,0.,1.));
#344=DIRECTION('',(1.,0.,2.22208193779348E-15));
#345=DIRECTION('',(-2.34291072916505E-15,0.,1.));
#346=DIRECTION('',(1.,0.,2.34291072916505E-15));
#347=DIRECTION('',(-1.,0.,-2.5951463200613E-15));
#348=DIRECTION('',(0.,0.,1.));
#349=DIRECTION('',(1.,0.,0.));
#350=DIRECTION('',(-2.5951463200613E-15,0.,1.));
#351=DIRECTION('',(1.,0.,2.5951463200613E-15));
#352=DIRECTION('',(1.,0.,2.5951463200613E-15));
#353=DIRECTION('',(-2.5951463200613E-15,0.,1.));
#354=DIRECTION('',(1.,0.,2.5951463200613E-15));
#355=DIRECTION('',(-1.,0.,-2.5951463200613E-15));
#356=DIRECTION('',(-2.5951463200613E-15,0.,1.));
#357=DIRECTION('',(1.,0.,2.5951463200613E-15));
#358=DIRECTION('',(2.5951463200613E-15,0.,-1.));
#359=DIRECTION('',(-2.5951463200613E-15,0.,1.));
#360=DIRECTION('',(-2.5951463200613E-15,0.,1.));
#361=DIRECTION('',(1.,0.,2.58149997707902E-15));
#362=DIRECTION('',(-2.5951463200613E-15,0.,1.));
#363=DIRECTION('',(1.,0.,2.5951463200613E-15));
#364=DIRECTION('',(-2.5951463200613E-15,0.,1.));
#365=DIRECTION('',(1.,0.,2.58149997707902E-15));
#366=DIRECTION('',(-1.,0.,-2.5951463200613E-15));
#367=DIRECTION('',(1.,0.,2.5951463200613E-15));
#368=DIRECTION('',(-2.5951463200613E-15,0.,1.));
#369=DIRECTION('',(1.,0.,2.5951463200613E-15));
#370=DIRECTION('',(-2.5951463200613E-15,0.,1.));
#371=DIRECTION('',(2.5951463200613E-15,0.,-1.));
#372=DIRECTION('',(-2.5951463200613E-15,0.,1.));
#373=DIRECTION('',(1.,0.,2.5951463200613E-15));
#374=DIRECTION('',(1.,0.,2.5951463200613E-15));
#375=DIRECTION('',(-1.,0.,-2.5951463200613E-15));
#376=DIRECTION('',(-2.5951463200613E-15,0.,1.));
#377=DIRECTION('',(1.,0.,2.5951463200613E-15));
#378=DIRECTION('',(0.,-1.,0.));
#379=DIRECTION('',(-2.5951463200613E-15,0.,1.));
#380=DIRECTION('',(0.,1.,0.));
#381=DIRECTION('',(2.5951463200613E-15,0.,-1.));
#382=CARTESIAN_POINT('',(0.,0.,0.));
#383=CARTESIAN_POINT('',(0.,0.,0.));
#384=CARTESIAN_POINT('',(0.,0.,0.));
#385=CARTESIAN_POINT('',(1.72590342327174E-13,0.,-75.));
#386=CARTESIAN_POINT('',(0.,0.,0.));
#387=CARTESIAN_POINT('',(0.,0.,0.));
#388=CARTESIAN_POINT('',(1.72590342327174E-13,0.,-75.));
#389=CARTESIAN_POINT('',(2.83492198228971E-14,0.,-12.1));
#390=CARTESIAN_POINT('',(15.3293541938335,-16.47,-12.1));
#391=CARTESIAN_POINT('',(-15.3293541938334,-16.47,-12.1));
#392=CARTESIAN_POINT('',(-40.,-16.47,-12.1000000000001));
#393=CARTESIAN_POINT('',(3.10862446895044E-14,19.28125,-12.1));
#394=CARTESIAN_POINT('',(7.26302326041165E-14,0.,-31.));
#395=CARTESIAN_POINT('',(22.5000000000001,0.,-31.));
#396=CARTESIAN_POINT('',(-15.3293541938334,-16.47,-11.0422178913629));
#397=CARTESIAN_POINT('',(-15.3293541938334,-16.47,-9.98450000000004));
#398=CARTESIAN_POINT('',(2.59112384326521E-14,0.,-9.9845));
#399=CARTESIAN_POINT('',(-15.3293541938335,16.47,-9.98450000000004));
#400=CARTESIAN_POINT('',(-15.3293541938335,16.47,-11.0422178913629));
#401=CARTESIAN_POINT('',(-15.3293541938335,16.47,-12.1));
#402=CARTESIAN_POINT('',(2.83492198228971E-14,0.,-12.1));
#403=CARTESIAN_POINT('',(15.3293541938335,16.47,-12.1));
#404=CARTESIAN_POINT('',(15.3293541938335,16.47,-11.0422178913628));
#405=CARTESIAN_POINT('',(15.3293541938335,16.47,-9.98449999999996));
#406=CARTESIAN_POINT('',(2.59112384326521E-14,0.,-9.9845));
#407=CARTESIAN_POINT('',(15.3293541938335,-16.47,-9.98449999999996));
#408=CARTESIAN_POINT('',(15.3293541938335,-16.47,-11.0422178913628));
#409=CARTESIAN_POINT('',(0.,0.,0.));
#410=CARTESIAN_POINT('',(7.26302326041165E-14,0.,-31.));
#411=CARTESIAN_POINT('',(20.0000000000001,0.,-31.));
#412=CARTESIAN_POINT('',(7.26302326041165E-14,0.,-31.));
#413=CARTESIAN_POINT('',(1.72590342327174E-13,0.,-75.));
#414=CARTESIAN_POINT('',(-17.9999999999998,0.,-75.));
#415=CARTESIAN_POINT('',(1.72165591008578E-13,0.,-75.));
#416=CARTESIAN_POINT('',(1.68160574924643E-13,0.,-73.));
#417=CARTESIAN_POINT('',(20.0000000000002,0.,-73.));
#418=CARTESIAN_POINT('',(1.72590342327174E-13,0.,-75.));
#419=CARTESIAN_POINT('',(0.,0.,0.));
#420=CARTESIAN_POINT('',(-40.,16.47,-12.1000000000001));
#421=CARTESIAN_POINT('',(3.10862446895044E-14,19.28125,-12.1));
#422=CARTESIAN_POINT('',(0.,0.,0.));
#423=CARTESIAN_POINT('',(-35.3240672205226,16.47,-9.19486788130937E-14));
#424=CARTESIAN_POINT('',(-35.3240672205226,-16.47,-9.16711230569373E-14));
#425=CARTESIAN_POINT('',(-40.,-16.47,-1.04083408558608E-13));
#426=CARTESIAN_POINT('',(35.3240672205226,-16.47,9.16711230569373E-14));
#427=CARTESIAN_POINT('',(0.,0.,0.));
#428=CARTESIAN_POINT('',(35.3240672205226,16.47,9.16711230569374E-14));
#429=CARTESIAN_POINT('',(-40.,16.47,-1.04083408558608E-13));
#430=CARTESIAN_POINT('',(-7.5,0.,-1.94635974004598E-14));
#431=CARTESIAN_POINT('',(-35.3240672205226,-16.47,-9.16711230569373E-14));
#432=CARTESIAN_POINT('',(-35.3240672205226,-16.47,-9.98450000000009));
#433=CARTESIAN_POINT('',(-35.3240672205226,16.47,-9.16711230569374E-14));
#434=CARTESIAN_POINT('',(-35.3240672205226,16.47,-9.98450000000009));
#435=CARTESIAN_POINT('',(2.59112384326521E-14,0.,-9.9845));
#436=CARTESIAN_POINT('',(0.,0.,0.));
#437=CARTESIAN_POINT('',(2.59112384326521E-14,0.,-9.9845));
#438=CARTESIAN_POINT('',(35.3240672205226,-16.47,-9.98449999999991));
#439=CARTESIAN_POINT('',(35.3240672205227,16.47,-9.98449999999991));
#440=CARTESIAN_POINT('',(-26.8925,-16.47,-9.98450000000007));
#441=CARTESIAN_POINT('',(-26.8925,16.47,-9.98450000000007));
#442=CARTESIAN_POINT('',(-26.8925,0.,-9.98450000000007));
#443=CARTESIAN_POINT('',(35.3240672205226,-16.47,9.16711230569373E-14));
#444=CARTESIAN_POINT('',(35.3240672205226,16.47,9.16711230569374E-14));
#445=CARTESIAN_POINT('',(0.,0.,0.));
#446=CARTESIAN_POINT('',(-26.8925,16.47,-9.98450000000007));
#447=CARTESIAN_POINT('',(-26.8925,-16.47,-9.98450000000007));
#448=CARTESIAN_POINT('',(-26.8925,0.,-9.98450000000007));
#449=CARTESIAN_POINT('',(-40.,16.47,-9.80577251982137));
#450=CARTESIAN_POINT('',(-40.,-16.47,-12.1000000000001));
#451=MECHANICAL_DESIGN_GEOMETRIC_PRESENTATION_REPRESENTATION('',(#254,#255,
#256,#257,#258,#259,#260),#452);
#452=(
GEOMETRIC_REPRESENTATION_CONTEXT(3)
GLOBAL_UNCERTAINTY_ASSIGNED_CONTEXT((#453))
GLOBAL_UNIT_ASSIGNED_CONTEXT((#459,#455,#454))
REPRESENTATION_CONTEXT('1566219900275','TOP_LEVEL_ASSEMBLY_PART')
);
#453=UNCERTAINTY_MEASURE_WITH_UNIT(LENGTH_MEASURE(2.E-5),#459,
'DISTANCE_ACCURACY_VALUE','Maximum Tolerance applied to model');
#454=(
NAMED_UNIT(*)
SI_UNIT($,.STERADIAN.)
SOLID_ANGLE_UNIT()
);
#455=(
CONVERSION_BASED_UNIT('DEGREE',#457)
NAMED_UNIT(#456)
PLANE_ANGLE_UNIT()
);
#456=DIMENSIONAL_EXPONENTS(0.,0.,0.,0.,0.,0.,0.);
#457=PLANE_ANGLE_MEASURE_WITH_UNIT(PLANE_ANGLE_MEASURE(0.0174532925),#458);
#458=(
NAMED_UNIT(*)
PLANE_ANGLE_UNIT()
SI_UNIT($,.RADIAN.)
);
#459=(
LENGTH_UNIT()
NAMED_UNIT(*)
SI_UNIT(.MILLI.,.METRE.)
);
ENDSEC;
END-ISO-10303-21;
