ISO-10303-21;
HEADER;
/* Generated by software containing ST-Developer
 * from STEP Tools, Inc. (www.steptools.com) 
 */
/* OPTION: using custom schema-name function */

FILE_DESCRIPTION(
/* description */ (''),
/* implementation_level */ '2;1');

FILE_NAME(
/* name */ '6490_1_3d.stp',
/* time_stamp */ '2019-07-11T23:23:23+02:00',
/* author */ (''),
/* organization */ ('SMS'),
/* preprocessor_version */ 'ST-DEVELOPER v16.7',
/* originating_system */ 'SIEMENS PLM Software NX 12.0',
/* authorisation */ '');

FILE_SCHEMA (('AUTOMOTIVE_DESIGN { 1 0 10303 214 3 1 1 1 }'));
ENDSEC;

DATA;
#10=CONSTRUCTIVE_GEOMETRY_REPRESENTATION_RELATIONSHIP(
'supplemental geometry','',#26,#11);
#11=CONSTRUCTIVE_GEOMETRY_REPRESENTATION('supplemental geometry',(#203,
#204,#205),#353);
#12=GEOMETRICALLY_BOUNDED_WIREFRAME_SHAPE_REPRESENTATION(
'6490_1_3D-None',(#27),#353);
#13=SHAPE_REPRESENTATION_RELATIONSHIP('None',
'relationship between 6490_1_3D-None and 6490_1_3D-None',#26,#15);
#14=SHAPE_REPRESENTATION_RELATIONSHIP('None',
'relationship between 6490_1_3D-None and 6490_1_3D-None',#26,#12);
#15=ADVANCED_BREP_SHAPE_REPRESENTATION('6490_1_3D-None',(#40,#41),#353);
#16=SHAPE_DEFINITION_REPRESENTATION(#17,#26);
#17=PRODUCT_DEFINITION_SHAPE('','',#18);
#18=PRODUCT_DEFINITION(' ','',#20,#19);
#19=PRODUCT_DEFINITION_CONTEXT('part definition',#25,'design');
#20=PRODUCT_DEFINITION_FORMATION_WITH_SPECIFIED_SOURCE(' ',' ',#22,
 .NOT_KNOWN.);
#21=PRODUCT_RELATED_PRODUCT_CATEGORY('part','',(#22));
#22=PRODUCT('6490_1_3D','6490_1_3D',' ',(#23));
#23=PRODUCT_CONTEXT(' ',#25,'mechanical');
#24=APPLICATION_PROTOCOL_DEFINITION('international standard',
'automotive_design',2010,#25);
#25=APPLICATION_CONTEXT(
'core data for automotive mechanical design processes');
#26=SHAPE_REPRESENTATION('6490_1_3D-None',(#202),#353);
#27=GEOMETRIC_CURVE_SET('None',(#287,#288,#177));
#28=SURFACE_STYLE_USAGE(.BOTH.,#30);
#29=SURFACE_STYLE_USAGE(.BOTH.,#31);
#30=SURFACE_SIDE_STYLE('',(#32));
#31=SURFACE_SIDE_STYLE('',(#33));
#32=SURFACE_STYLE_FILL_AREA(#34);
#33=SURFACE_STYLE_FILL_AREA(#35);
#34=FILL_AREA_STYLE('',(#36));
#35=FILL_AREA_STYLE('',(#37));
#36=FILL_AREA_STYLE_COLOUR('',#38);
#37=FILL_AREA_STYLE_COLOUR('',#39);
#38=COLOUR_RGB('TLS_NOCUT',0.499992370489052,0.499992370489052,0.499992370489052);
#39=COLOUR_RGB('TLS_CUT',0.8,0.8,0.8);
#40=MANIFOLD_SOLID_BREP('NOCUT',#42);
#41=MANIFOLD_SOLID_BREP('CUT',#43);
#42=CLOSED_SHELL('',(#71,#72,#73,#74,#75,#76));
#43=CLOSED_SHELL('',(#77,#78,#79,#80,#81,#82,#83));
#44=CYLINDRICAL_SURFACE('',#216,3.05);
#45=CONICAL_SURFACE('',#209,3.0505000925,0.0358098575329418);
#46=CONICAL_SURFACE('',#211,3.01868153746357,17.3897539410535);
#47=CONICAL_SURFACE('',#215,3.05,45.);
#48=CONICAL_SURFACE('',#219,3.0505000925,0.0358098575329418);
#49=CONICAL_SURFACE('',#222,2.52625,2.99999999999998);
#50=CONICAL_SURFACE('',#223,2.55,45.0000000000126);
#51=CONICAL_SURFACE('',#227,5.55,44.9999999999998);
#52=CONICAL_SURFACE('',#228,2.56250000000001,0.0358098575329535);
#53=FACE_BOUND('',#93,.T.);
#54=FACE_BOUND('',#94,.T.);
#55=FACE_BOUND('',#95,.T.);
#56=FACE_BOUND('',#96,.T.);
#57=FACE_BOUND('',#98,.T.);
#58=FACE_BOUND('',#99,.T.);
#59=FACE_BOUND('',#100,.T.);
#60=FACE_BOUND('',#101,.T.);
#61=FACE_BOUND('',#102,.T.);
#62=FACE_BOUND('',#103,.T.);
#63=FACE_BOUND('',#104,.T.);
#64=FACE_BOUND('',#105,.T.);
#65=FACE_BOUND('',#106,.T.);
#66=FACE_BOUND('',#107,.T.);
#67=FACE_BOUND('',#109,.T.);
#68=FACE_BOUND('',#110,.T.);
#69=FACE_BOUND('',#111,.T.);
#70=FACE_BOUND('',#112,.T.);
#71=ADVANCED_FACE('',(#88),#84,.T.);
#72=ADVANCED_FACE('',(#53,#54),#45,.T.);
#73=ADVANCED_FACE('',(#55,#56),#46,.T.);
#74=ADVANCED_FACE('',(#89),#85,.T.);
#75=ADVANCED_FACE('',(#57,#58),#47,.T.);
#76=ADVANCED_FACE('SHANK',(#59,#60),#44,.T.);
#77=ADVANCED_FACE('',(#61,#62),#48,.T.);
#78=ADVANCED_FACE('',(#63,#64),#49,.T.);
#79=ADVANCED_FACE('',(#65,#66),#50,.T.);
#80=ADVANCED_FACE('',(#90),#86,.T.);
#81=ADVANCED_FACE('',(#67,#68),#51,.T.);
#82=ADVANCED_FACE('',(#69,#70),#52,.T.);
#83=ADVANCED_FACE('',(#91),#87,.F.);
#84=PLANE('',#207);
#85=PLANE('',#213);
#86=PLANE('',#225);
#87=PLANE('',#229);
#88=FACE_OUTER_BOUND('',#92,.T.);
#89=FACE_OUTER_BOUND('',#97,.T.);
#90=FACE_OUTER_BOUND('',#108,.T.);
#91=FACE_OUTER_BOUND('',#113,.T.);
#92=EDGE_LOOP('',(#114));
#93=EDGE_LOOP('',(#115));
#94=EDGE_LOOP('',(#116));
#95=EDGE_LOOP('',(#117));
#96=EDGE_LOOP('',(#118));
#97=EDGE_LOOP('',(#119));
#98=EDGE_LOOP('',(#120));
#99=EDGE_LOOP('',(#121));
#100=EDGE_LOOP('',(#122));
#101=EDGE_LOOP('',(#123));
#102=EDGE_LOOP('',(#124));
#103=EDGE_LOOP('',(#125));
#104=EDGE_LOOP('',(#126));
#105=EDGE_LOOP('',(#127));
#106=EDGE_LOOP('',(#128));
#107=EDGE_LOOP('',(#129));
#108=EDGE_LOOP('',(#130));
#109=EDGE_LOOP('',(#131));
#110=EDGE_LOOP('',(#132));
#111=EDGE_LOOP('',(#133));
#112=EDGE_LOOP('',(#134));
#113=EDGE_LOOP('',(#135));
#114=ORIENTED_EDGE('',*,*,#147,.T.);
#115=ORIENTED_EDGE('',*,*,#148,.F.);
#116=ORIENTED_EDGE('',*,*,#147,.F.);
#117=ORIENTED_EDGE('',*,*,#149,.T.);
#118=ORIENTED_EDGE('',*,*,#148,.T.);
#119=ORIENTED_EDGE('',*,*,#150,.F.);
#120=ORIENTED_EDGE('',*,*,#150,.T.);
#121=ORIENTED_EDGE('',*,*,#151,.F.);
#122=ORIENTED_EDGE('',*,*,#151,.T.);
#123=ORIENTED_EDGE('',*,*,#149,.F.);
#124=ORIENTED_EDGE('',*,*,#152,.T.);
#125=ORIENTED_EDGE('',*,*,#153,.F.);
#126=ORIENTED_EDGE('',*,*,#154,.T.);
#127=ORIENTED_EDGE('',*,*,#155,.T.);
#128=ORIENTED_EDGE('',*,*,#154,.F.);
#129=ORIENTED_EDGE('',*,*,#153,.T.);
#130=ORIENTED_EDGE('',*,*,#156,.T.);
#131=ORIENTED_EDGE('',*,*,#156,.F.);
#132=ORIENTED_EDGE('',*,*,#157,.T.);
#133=ORIENTED_EDGE('',*,*,#157,.F.);
#134=ORIENTED_EDGE('',*,*,#155,.F.);
#135=ORIENTED_EDGE('',*,*,#152,.F.);
#136=VERTEX_POINT('',#318);
#137=VERTEX_POINT('',#321);
#138=VERTEX_POINT('',#324);
#139=VERTEX_POINT('',#327);
#140=VERTEX_POINT('',#330);
#141=VERTEX_POINT('',#334);
#142=VERTEX_POINT('',#336);
#143=VERTEX_POINT('',#339);
#144=VERTEX_POINT('',#341);
#145=VERTEX_POINT('',#345);
#146=VERTEX_POINT('',#348);
#147=EDGE_CURVE('',#136,#136,#158,.T.);
#148=EDGE_CURVE('',#137,#137,#159,.T.);
#149=EDGE_CURVE('',#138,#138,#160,.T.);
#150=EDGE_CURVE('',#139,#139,#161,.T.);
#151=EDGE_CURVE('',#140,#140,#162,.T.);
#152=EDGE_CURVE('',#141,#141,#163,.T.);
#153=EDGE_CURVE('',#142,#142,#164,.T.);
#154=EDGE_CURVE('',#143,#143,#165,.T.);
#155=EDGE_CURVE('',#144,#144,#166,.T.);
#156=EDGE_CURVE('',#145,#145,#167,.T.);
#157=EDGE_CURVE('',#146,#146,#168,.T.);
#158=CIRCLE('',#206,3.0262065375);
#159=CIRCLE('',#208,3.0186815375);
#160=CIRCLE('',#210,3.05);
#161=CIRCLE('',#212,2.290225);
#162=CIRCLE('',#214,3.05);
#163=CIRCLE('',#217,3.0262065375);
#164=CIRCLE('',#218,3.05000009244223);
#165=CIRCLE('',#220,2.52625);
#166=CIRCLE('',#221,2.54650641590037);
#167=CIRCLE('',#224,2.119688);
#168=CIRCLE('',#226,2.55);
#169=CURVE_STYLE('',#173,POSITIVE_LENGTH_MEASURE(0.18),#199);
#170=CURVE_STYLE('',#174,POSITIVE_LENGTH_MEASURE(0.13),#201);
#171=CURVE_STYLE('',#175,POSITIVE_LENGTH_MEASURE(0.13),#201);
#172=CURVE_STYLE('',#176,POSITIVE_LENGTH_MEASURE(0.13),#201);
#173=DRAUGHTING_PRE_DEFINED_CURVE_FONT('continuous');
#174=DRAUGHTING_PRE_DEFINED_CURVE_FONT('continuous');
#175=DRAUGHTING_PRE_DEFINED_CURVE_FONT('continuous');
#176=DRAUGHTING_PRE_DEFINED_CURVE_FONT('continuous');
#177=B_SPLINE_CURVE_WITH_KNOTS('CUTTING PART LINE',3,(#289,#290,#291,#292,
#293,#294,#295,#296,#297,#298,#299,#300,#301,#302,#303,#304,#305,#306,#307,
#308,#309,#310,#311,#312,#313),.UNSPECIFIED.,.T.,.F.,(4,3,3,3,3,3,3,3,4),
(0.,0.470998926874742,0.493184944059392,0.49955445164264,0.558060218158259,
0.562111289071093,0.569863873673714,0.968325777074142,1.),.UNSPECIFIED.);
#178=PRESENTATION_LAYER_ASSIGNMENT('1','Layer 1',(#287,#288,#177,#203,#204,
#205,#40,#41));
#179=STYLED_ITEM('',(#187),#287);
#180=STYLED_ITEM('',(#188),#288);
#181=STYLED_ITEM('',(#189),#177);
#182=STYLED_ITEM('',(#190),#203);
#183=STYLED_ITEM('',(#191),#204);
#184=STYLED_ITEM('',(#192),#205);
#185=STYLED_ITEM('',(#193),#40);
#186=STYLED_ITEM('',(#194),#41);
#187=PRESENTATION_STYLE_ASSIGNMENT((#195));
#188=PRESENTATION_STYLE_ASSIGNMENT((#196));
#189=PRESENTATION_STYLE_ASSIGNMENT((#169));
#190=PRESENTATION_STYLE_ASSIGNMENT((#170));
#191=PRESENTATION_STYLE_ASSIGNMENT((#171));
#192=PRESENTATION_STYLE_ASSIGNMENT((#172));
#193=PRESENTATION_STYLE_ASSIGNMENT((#28));
#194=PRESENTATION_STYLE_ASSIGNMENT((#29));
#195=POINT_STYLE('',#197,POSITIVE_LENGTH_MEASURE(3.),#199);
#196=POINT_STYLE('',#198,POSITIVE_LENGTH_MEASURE(3.),#200);
#197=PRE_DEFINED_POINT_MARKER_SYMBOL('plus');
#198=PRE_DEFINED_POINT_MARKER_SYMBOL('plus');
#199=DRAUGHTING_PRE_DEFINED_COLOUR('blue');
#200=DRAUGHTING_PRE_DEFINED_COLOUR('white');
#201=DRAUGHTING_PRE_DEFINED_COLOUR('green');
#202=AXIS2_PLACEMENT_3D('',#286,#230,#231);
#203=AXIS2_PLACEMENT_3D('PCS',#314,#232,#233);
#204=AXIS2_PLACEMENT_3D('MCS',#315,#234,#235);
#205=AXIS2_PLACEMENT_3D('CIP',#316,#236,#237);
#206=AXIS2_PLACEMENT_3D('',#317,#238,#239);
#207=AXIS2_PLACEMENT_3D('',#319,#240,#241);
#208=AXIS2_PLACEMENT_3D('',#320,#242,#243);
#209=AXIS2_PLACEMENT_3D('',#322,#244,#245);
#210=AXIS2_PLACEMENT_3D('',#323,#246,#247);
#211=AXIS2_PLACEMENT_3D('',#325,#248,#249);
#212=AXIS2_PLACEMENT_3D('',#326,#250,#251);
#213=AXIS2_PLACEMENT_3D('',#328,#252,#253);
#214=AXIS2_PLACEMENT_3D('',#329,#254,#255);
#215=AXIS2_PLACEMENT_3D('',#331,#256,#257);
#216=AXIS2_PLACEMENT_3D('',#332,#258,#259);
#217=AXIS2_PLACEMENT_3D('',#333,#260,#261);
#218=AXIS2_PLACEMENT_3D('',#335,#262,#263);
#219=AXIS2_PLACEMENT_3D('',#337,#264,#265);
#220=AXIS2_PLACEMENT_3D('',#338,#266,#267);
#221=AXIS2_PLACEMENT_3D('',#340,#268,#269);
#222=AXIS2_PLACEMENT_3D('',#342,#270,#271);
#223=AXIS2_PLACEMENT_3D('',#343,#272,#273);
#224=AXIS2_PLACEMENT_3D('',#344,#274,#275);
#225=AXIS2_PLACEMENT_3D('',#346,#276,#277);
#226=AXIS2_PLACEMENT_3D('',#347,#278,#279);
#227=AXIS2_PLACEMENT_3D('',#349,#280,#281);
#228=AXIS2_PLACEMENT_3D('',#350,#282,#283);
#229=AXIS2_PLACEMENT_3D('',#351,#284,#285);
#230=DIRECTION('',(0.,0.,1.));
#231=DIRECTION('',(1.,0.,0.));
#232=DIRECTION('',(0.,0.,1.));
#233=DIRECTION('',(1.,0.,0.));
#234=DIRECTION('',(0.,0.,1.));
#235=DIRECTION('',(1.,0.,0.));
#236=DIRECTION('',(0.,0.,1.));
#237=DIRECTION('',(1.,0.,0.));
#238=DIRECTION('',(0.,0.,-1.));
#239=DIRECTION('',(1.,0.,0.));
#240=DIRECTION('',(0.,0.,-1.));
#241=DIRECTION('',(1.,0.,0.));
#242=DIRECTION('',(0.,0.,1.));
#243=DIRECTION('',(1.,0.,0.));
#244=DIRECTION('',(0.,0.,-1.));
#245=DIRECTION('',(1.,0.,-1.88787749402213E-14));
#246=DIRECTION('',(0.,0.,-1.));
#247=DIRECTION('',(1.,0.,0.));
#248=DIRECTION('',(0.,0.,1.));
#249=DIRECTION('',(-1.,0.,6.58332195058039E-17));
#250=DIRECTION('',(0.,0.,-1.));
#251=DIRECTION('',(1.,0.,0.));
#252=DIRECTION('',(0.,0.,1.));
#253=DIRECTION('',(-1.,0.,0.));
#254=DIRECTION('',(0.,0.,-1.));
#255=DIRECTION('',(1.,0.,0.));
#256=DIRECTION('',(0.,0.,-1.));
#257=DIRECTION('',(1.,0.,9.16607788512743E-17));
#258=DIRECTION('',(0.,0.,-1.));
#259=DIRECTION('',(1.,0.,0.));
#260=DIRECTION('',(0.,0.,-1.));
#261=DIRECTION('',(1.,0.,0.));
#262=DIRECTION('',(0.,0.,-1.));
#263=DIRECTION('',(-1.,0.,0.));
#264=DIRECTION('',(0.,0.,-1.));
#265=DIRECTION('',(1.,0.,-1.88787749402213E-14));
#266=DIRECTION('',(0.,0.,-1.));
#267=DIRECTION('',(-1.,0.,0.));
#268=DIRECTION('',(0.,0.,1.));
#269=DIRECTION('',(1.,0.,0.));
#270=DIRECTION('',(0.,0.,-1.));
#271=DIRECTION('',(1.,0.,-1.76838502331908E-15));
#272=DIRECTION('',(0.,0.,1.));
#273=DIRECTION('',(-1.,0.,1.38424894596862E-17));
#274=DIRECTION('',(0.,0.,-1.));
#275=DIRECTION('',(-1.,0.,0.));
#276=DIRECTION('',(0.,0.,-1.));
#277=DIRECTION('',(1.,0.,0.));
#278=DIRECTION('',(0.,0.,-1.));
#279=DIRECTION('',(-1.,0.,0.));
#280=DIRECTION('',(0.,0.,1.));
#281=DIRECTION('',(-1.,0.,0.));
#282=DIRECTION('',(0.,0.,-1.));
#283=DIRECTION('',(1.,0.,3.48305262627464E-14));
#284=DIRECTION('',(0.,0.,-1.));
#285=DIRECTION('',(1.,0.,0.));
#286=CARTESIAN_POINT('',(0.,0.,0.));
#287=CARTESIAN_POINT('CRP',(2.55,0.,-99.5696875));
#288=CARTESIAN_POINT('',(0.,0.,-100.));
#289=CARTESIAN_POINT('',(0.,0.,-55.));
#290=CARTESIAN_POINT('',(0.,0.,-70.));
#291=CARTESIAN_POINT('',(0.,0.,-85.));
#292=CARTESIAN_POINT('',(0.,0.,-100.));
#293=CARTESIAN_POINT('',(0.706562666666667,0.,-100.));
#294=CARTESIAN_POINT('',(1.41312533333333,0.,-100.));
#295=CARTESIAN_POINT('',(2.119688,0.,-100.));
#296=CARTESIAN_POINT('',(2.26312533333381,0.,-99.8565626666662));
#297=CARTESIAN_POINT('',(2.40656266666763,0.,-99.7131253333324));
#298=CARTESIAN_POINT('',(2.55000000000145,0.,-99.5696879999985));
#299=CARTESIAN_POINT('',(2.54883547196679,0.,-97.7064431468651));
#300=CARTESIAN_POINT('',(2.54767094393358,0.,-95.8431982937316));
#301=CARTESIAN_POINT('',(2.54650641590037,0.,-93.9799534405981));
#302=CARTESIAN_POINT('',(2.53975427726691,0.,-93.851114960399));
#303=CARTESIAN_POINT('',(2.53300213863346,0.,-93.7222764801995));
#304=CARTESIAN_POINT('',(2.52625,0.,-93.593438));
#305=CARTESIAN_POINT('',(2.7008333641473,0.,-93.4188546358528));
#306=CARTESIAN_POINT('',(2.8754167282946,0.,-93.2442712717055));
#307=CARTESIAN_POINT('',(3.0500000924419,0.,-93.0696879075583));
#308=CARTESIAN_POINT('',(3.04206890746148,0.,-80.3797919383721));
#309=CARTESIAN_POINT('',(3.03413772248074,0.,-67.6898959691859));
#310=CARTESIAN_POINT('',(3.0262065375,0.,-54.9999999999997));
#311=CARTESIAN_POINT('',(2.017471025,0.,-55.));
#312=CARTESIAN_POINT('',(1.0087355125,0.,-55.));
#313=CARTESIAN_POINT('',(0.,0.,-55.));
#314=CARTESIAN_POINT('',(0.,0.,0.));
#315=CARTESIAN_POINT('',(0.,0.,-43.4));
#316=CARTESIAN_POINT('',(0.,0.,-100.));
#317=CARTESIAN_POINT('',(0.,0.,-55.));
#318=CARTESIAN_POINT('',(3.0262065375,0.,-55.));
#319=CARTESIAN_POINT('',(0.,0.,-55.));
#320=CARTESIAN_POINT('',(0.,0.,-42.96));
#321=CARTESIAN_POINT('',(3.0186815375,0.,-42.96));
#322=CARTESIAN_POINT('',(0.,0.,-93.869688));
#323=CARTESIAN_POINT('',(0.,0.,-42.86));
#324=CARTESIAN_POINT('',(3.05,0.,-42.86));
#325=CARTESIAN_POINT('',(0.,0.,-42.96));
#326=CARTESIAN_POINT('',(0.,0.,0.));
#327=CARTESIAN_POINT('',(2.290225,0.,0.));
#328=CARTESIAN_POINT('',(2.290225,0.,5.55111512312578E-17));
#329=CARTESIAN_POINT('',(0.,0.,-0.759774999999999));
#330=CARTESIAN_POINT('',(3.05,0.,-0.759774999999999));
#331=CARTESIAN_POINT('',(0.,0.,-0.759774999999999));
#332=CARTESIAN_POINT('',(0.,0.,15.2045468976791));
#333=CARTESIAN_POINT('',(0.,0.,-55.));
#334=CARTESIAN_POINT('',(3.0262065375,0.,-55.));
#335=CARTESIAN_POINT('',(0.,0.,-93.0696879075583));
#336=CARTESIAN_POINT('',(-3.05000009244223,0.,-93.0696879075583));
#337=CARTESIAN_POINT('',(0.,0.,-93.869688));
#338=CARTESIAN_POINT('',(0.,0.,-93.593438));
#339=CARTESIAN_POINT('',(-2.52625,0.,-93.593438));
#340=CARTESIAN_POINT('',(0.,0.,-93.9799534405985));
#341=CARTESIAN_POINT('',(2.54650641590037,0.,-93.9799534405985));
#342=CARTESIAN_POINT('',(0.,0.,-93.593438));
#343=CARTESIAN_POINT('',(0.,0.,-93.569688));
#344=CARTESIAN_POINT('',(0.,0.,-100.));
#345=CARTESIAN_POINT('',(-2.119688,0.,-100.));
#346=CARTESIAN_POINT('',(2.119688,0.,-100.));
#347=CARTESIAN_POINT('',(0.,0.,-99.5696879999985));
#348=CARTESIAN_POINT('',(-2.55,0.,-99.5696879999985));
#349=CARTESIAN_POINT('',(0.,0.,-96.569688));
#350=CARTESIAN_POINT('',(0.,0.,-119.569688));
#351=CARTESIAN_POINT('',(0.,0.,-55.));
#352=MECHANICAL_DESIGN_GEOMETRIC_PRESENTATION_REPRESENTATION('',(#179,#180,
#181,#182,#183,#184,#185,#186),#353);
#353=(
GEOMETRIC_REPRESENTATION_CONTEXT(3)
GLOBAL_UNCERTAINTY_ASSIGNED_CONTEXT((#354))
GLOBAL_UNIT_ASSIGNED_CONTEXT((#360,#356,#355))
REPRESENTATION_CONTEXT('6490_1_3d','TOP_LEVEL_ASSEMBLY_PART')
);
#354=UNCERTAINTY_MEASURE_WITH_UNIT(LENGTH_MEASURE(2.E-5),#360,
'DISTANCE_ACCURACY_VALUE','Maximum Tolerance applied to model');
#355=(
NAMED_UNIT(*)
SI_UNIT($,.STERADIAN.)
SOLID_ANGLE_UNIT()
);
#356=(
CONVERSION_BASED_UNIT('DEGREE',#358)
NAMED_UNIT(#357)
PLANE_ANGLE_UNIT()
);
#357=DIMENSIONAL_EXPONENTS(0.,0.,0.,0.,0.,0.,0.);
#358=PLANE_ANGLE_MEASURE_WITH_UNIT(PLANE_ANGLE_MEASURE(0.0174532925),#359);
#359=(
NAMED_UNIT(*)
PLANE_ANGLE_UNIT()
SI_UNIT($,.RADIAN.)
);
#360=(
LENGTH_UNIT()
NAMED_UNIT(*)
SI_UNIT(.MILLI.,.METRE.)
);
ENDSEC;
END-ISO-10303-21;
