ISO-10303-21;
HEADER;
/* Generated by software containing ST-Developer
 * from STEP Tools, Inc. (www.steptools.com) 
 */
/* OPTION: using custom schema-name function */

FILE_DESCRIPTION(
/* description */ (''),
/* implementation_level */ '2;1');

FILE_NAME(
/* name */ '6484_1_3d.stp',
/* time_stamp */ '2019-07-11T23:23:18+02:00',
/* author */ (''),
/* organization */ ('SMS'),
/* preprocessor_version */ 'ST-DEVELOPER v16.7',
/* originating_system */ 'SIEMENS PLM Software NX 12.0',
/* authorisation */ '');

FILE_SCHEMA (('AUTOMOTIVE_DESIGN { 1 0 10303 214 3 1 1 1 }'));
ENDSEC;

DATA;
#10=CONSTRUCTIVE_GEOMETRY_REPRESENTATION_RELATIONSHIP(
'supplemental geometry','',#26,#11);
#11=CONSTRUCTIVE_GEOMETRY_REPRESENTATION('supplemental geometry',(#236,
#237,#238),#422);
#12=GEOMETRICALLY_BOUNDED_WIREFRAME_SHAPE_REPRESENTATION(
'6484_1_3D-None',(#27),#422);
#13=SHAPE_REPRESENTATION_RELATIONSHIP('None',
'relationship between 6484_1_3D-None and 6484_1_3D-None',#26,#15);
#14=SHAPE_REPRESENTATION_RELATIONSHIP('None',
'relationship between 6484_1_3D-None and 6484_1_3D-None',#26,#12);
#15=ADVANCED_BREP_SHAPE_REPRESENTATION('6484_1_3D-None',(#40,#41),#422);
#16=SHAPE_DEFINITION_REPRESENTATION(#17,#26);
#17=PRODUCT_DEFINITION_SHAPE('','',#18);
#18=PRODUCT_DEFINITION(' ','',#20,#19);
#19=PRODUCT_DEFINITION_CONTEXT('part definition',#25,'design');
#20=PRODUCT_DEFINITION_FORMATION_WITH_SPECIFIED_SOURCE(' ',' ',#22,
 .NOT_KNOWN.);
#21=PRODUCT_RELATED_PRODUCT_CATEGORY('part','',(#22));
#22=PRODUCT('6484_1_3D','6484_1_3D',' ',(#23));
#23=PRODUCT_CONTEXT(' ',#25,'mechanical');
#24=APPLICATION_PROTOCOL_DEFINITION('international standard',
'automotive_design',2010,#25);
#25=APPLICATION_CONTEXT(
'core data for automotive mechanical design processes');
#26=SHAPE_REPRESENTATION('6484_1_3D-None',(#235),#422);
#27=GEOMETRIC_CURVE_SET('None',(#338,#339,#210));
#28=SURFACE_STYLE_USAGE(.BOTH.,#30);
#29=SURFACE_STYLE_USAGE(.BOTH.,#31);
#30=SURFACE_SIDE_STYLE('',(#32));
#31=SURFACE_SIDE_STYLE('',(#33));
#32=SURFACE_STYLE_FILL_AREA(#34);
#33=SURFACE_STYLE_FILL_AREA(#35);
#34=FILL_AREA_STYLE('',(#36));
#35=FILL_AREA_STYLE('',(#37));
#36=FILL_AREA_STYLE_COLOUR('',#38);
#37=FILL_AREA_STYLE_COLOUR('',#39);
#38=COLOUR_RGB('TLS_NOCUT',0.499992370489052,0.499992370489052,0.499992370489052);
#39=COLOUR_RGB('TLS_CUT',0.8,0.8,0.8);
#40=MANIFOLD_SOLID_BREP('NOCUT',#42);
#41=MANIFOLD_SOLID_BREP('CUT',#43);
#42=CLOSED_SHELL('',(#80,#81,#82,#83,#84,#85));
#43=CLOSED_SHELL('',(#86,#87,#88,#89,#90,#91,#92,#93,#94,#95));
#44=CYLINDRICAL_SURFACE('',#248,3.97);
#45=CONICAL_SURFACE('',#242,3.97044163750048,0.0358098575338932);
#46=CONICAL_SURFACE('',#246,3.97,45.);
#47=CONICAL_SURFACE('',#249,3.94014698374967,16.6219510995472);
#48=CONICAL_SURFACE('',#252,3.56393351062748,0.035809857539312);
#49=CONICAL_SURFACE('',#255,3.145306,2.99999999999999);
#50=CONICAL_SURFACE('',#256,3.17,45.0000000000101);
#51=CONICAL_SURFACE('',#260,6.17,44.9999999999999);
#52=CONICAL_SURFACE('',#261,3.18249999999656,0.0358098575230713);
#53=CONICAL_SURFACE('',#263,3.538794,2.99999999999999);
#54=CONICAL_SURFACE('',#265,3.5635,45.000000000001);
#55=CONICAL_SURFACE('',#267,3.97044163750048,0.0358098575338932);
#56=FACE_BOUND('',#105,.T.);
#57=FACE_BOUND('',#106,.T.);
#58=FACE_BOUND('',#108,.T.);
#59=FACE_BOUND('',#109,.T.);
#60=FACE_BOUND('',#110,.T.);
#61=FACE_BOUND('',#111,.T.);
#62=FACE_BOUND('',#112,.T.);
#63=FACE_BOUND('',#113,.T.);
#64=FACE_BOUND('',#114,.T.);
#65=FACE_BOUND('',#115,.T.);
#66=FACE_BOUND('',#116,.T.);
#67=FACE_BOUND('',#117,.T.);
#68=FACE_BOUND('',#118,.T.);
#69=FACE_BOUND('',#119,.T.);
#70=FACE_BOUND('',#121,.T.);
#71=FACE_BOUND('',#122,.T.);
#72=FACE_BOUND('',#123,.T.);
#73=FACE_BOUND('',#124,.T.);
#74=FACE_BOUND('',#125,.T.);
#75=FACE_BOUND('',#126,.T.);
#76=FACE_BOUND('',#127,.T.);
#77=FACE_BOUND('',#128,.T.);
#78=FACE_BOUND('',#129,.T.);
#79=FACE_BOUND('',#130,.T.);
#80=ADVANCED_FACE('',(#100),#96,.T.);
#81=ADVANCED_FACE('',(#56,#57),#45,.T.);
#82=ADVANCED_FACE('',(#101),#97,.T.);
#83=ADVANCED_FACE('',(#58,#59),#46,.T.);
#84=ADVANCED_FACE('SHANK',(#60,#61),#44,.T.);
#85=ADVANCED_FACE('',(#62,#63),#47,.T.);
#86=ADVANCED_FACE('',(#64,#65),#48,.T.);
#87=ADVANCED_FACE('',(#66,#67),#49,.T.);
#88=ADVANCED_FACE('',(#68,#69),#50,.T.);
#89=ADVANCED_FACE('',(#102),#98,.T.);
#90=ADVANCED_FACE('',(#70,#71),#51,.T.);
#91=ADVANCED_FACE('',(#72,#73),#52,.T.);
#92=ADVANCED_FACE('',(#74,#75),#53,.T.);
#93=ADVANCED_FACE('',(#76,#77),#54,.T.);
#94=ADVANCED_FACE('',(#78,#79),#55,.T.);
#95=ADVANCED_FACE('',(#103),#99,.F.);
#96=PLANE('',#240);
#97=PLANE('',#244);
#98=PLANE('',#258);
#99=PLANE('',#268);
#100=FACE_OUTER_BOUND('',#104,.T.);
#101=FACE_OUTER_BOUND('',#107,.T.);
#102=FACE_OUTER_BOUND('',#120,.T.);
#103=FACE_OUTER_BOUND('',#131,.T.);
#104=EDGE_LOOP('',(#132));
#105=EDGE_LOOP('',(#133));
#106=EDGE_LOOP('',(#134));
#107=EDGE_LOOP('',(#135));
#108=EDGE_LOOP('',(#136));
#109=EDGE_LOOP('',(#137));
#110=EDGE_LOOP('',(#138));
#111=EDGE_LOOP('',(#139));
#112=EDGE_LOOP('',(#140));
#113=EDGE_LOOP('',(#141));
#114=EDGE_LOOP('',(#142));
#115=EDGE_LOOP('',(#143));
#116=EDGE_LOOP('',(#144));
#117=EDGE_LOOP('',(#145));
#118=EDGE_LOOP('',(#146));
#119=EDGE_LOOP('',(#147));
#120=EDGE_LOOP('',(#148));
#121=EDGE_LOOP('',(#149));
#122=EDGE_LOOP('',(#150));
#123=EDGE_LOOP('',(#151));
#124=EDGE_LOOP('',(#152));
#125=EDGE_LOOP('',(#153));
#126=EDGE_LOOP('',(#154));
#127=EDGE_LOOP('',(#155));
#128=EDGE_LOOP('',(#156));
#129=EDGE_LOOP('',(#157));
#130=EDGE_LOOP('',(#158));
#131=EDGE_LOOP('',(#159));
#132=ORIENTED_EDGE('',*,*,#174,.T.);
#133=ORIENTED_EDGE('',*,*,#175,.F.);
#134=ORIENTED_EDGE('',*,*,#174,.F.);
#135=ORIENTED_EDGE('',*,*,#176,.F.);
#136=ORIENTED_EDGE('',*,*,#176,.T.);
#137=ORIENTED_EDGE('',*,*,#177,.F.);
#138=ORIENTED_EDGE('',*,*,#177,.T.);
#139=ORIENTED_EDGE('',*,*,#178,.F.);
#140=ORIENTED_EDGE('',*,*,#178,.T.);
#141=ORIENTED_EDGE('',*,*,#175,.T.);
#142=ORIENTED_EDGE('',*,*,#179,.F.);
#143=ORIENTED_EDGE('',*,*,#180,.F.);
#144=ORIENTED_EDGE('',*,*,#181,.T.);
#145=ORIENTED_EDGE('',*,*,#182,.T.);
#146=ORIENTED_EDGE('',*,*,#181,.F.);
#147=ORIENTED_EDGE('',*,*,#179,.T.);
#148=ORIENTED_EDGE('',*,*,#183,.T.);
#149=ORIENTED_EDGE('',*,*,#183,.F.);
#150=ORIENTED_EDGE('',*,*,#184,.T.);
#151=ORIENTED_EDGE('',*,*,#184,.F.);
#152=ORIENTED_EDGE('',*,*,#182,.F.);
#153=ORIENTED_EDGE('',*,*,#185,.T.);
#154=ORIENTED_EDGE('',*,*,#180,.T.);
#155=ORIENTED_EDGE('',*,*,#185,.F.);
#156=ORIENTED_EDGE('',*,*,#186,.T.);
#157=ORIENTED_EDGE('',*,*,#187,.T.);
#158=ORIENTED_EDGE('',*,*,#186,.F.);
#159=ORIENTED_EDGE('',*,*,#187,.F.);
#160=VERTEX_POINT('',#378);
#161=VERTEX_POINT('',#381);
#162=VERTEX_POINT('',#384);
#163=VERTEX_POINT('',#387);
#164=VERTEX_POINT('',#390);
#165=VERTEX_POINT('',#394);
#166=VERTEX_POINT('',#396);
#167=VERTEX_POINT('',#399);
#168=VERTEX_POINT('',#401);
#169=VERTEX_POINT('',#405);
#170=VERTEX_POINT('',#408);
#171=VERTEX_POINT('',#412);
#172=VERTEX_POINT('',#415);
#173=VERTEX_POINT('',#418);
#174=EDGE_CURVE('',#160,#160,#188,.T.);
#175=EDGE_CURVE('',#161,#161,#189,.T.);
#176=EDGE_CURVE('',#162,#162,#190,.T.);
#177=EDGE_CURVE('',#163,#163,#191,.T.);
#178=EDGE_CURVE('',#164,#164,#192,.T.);
#179=EDGE_CURVE('',#165,#165,#193,.T.);
#180=EDGE_CURVE('',#166,#166,#194,.T.);
#181=EDGE_CURVE('',#167,#167,#195,.T.);
#182=EDGE_CURVE('',#168,#168,#196,.T.);
#183=EDGE_CURVE('',#169,#169,#197,.T.);
#184=EDGE_CURVE('',#170,#170,#198,.T.);
#185=EDGE_CURVE('',#171,#171,#199,.T.);
#186=EDGE_CURVE('',#172,#172,#200,.T.);
#187=EDGE_CURVE('',#173,#173,#201,.T.);
#188=CIRCLE('',#239,3.94848448374989);
#189=CIRCLE('',#241,3.94014698374967);
#190=CIRCLE('',#243,3.210225);
#191=CIRCLE('',#245,3.97);
#192=CIRCLE('',#247,3.97);
#193=CIRCLE('',#250,3.56350007308173);
#194=CIRCLE('',#251,3.55905076759621);
#195=CIRCLE('',#253,3.145306);
#196=CIRCLE('',#254,3.16556326604012);
#197=CIRCLE('',#257,2.635063);
#198=CIRCLE('',#259,3.17);
#199=CIRCLE('',#262,3.538794);
#200=CIRCLE('',#264,3.97000007495362);
#201=CIRCLE('',#266,3.94848448374989);
#202=CURVE_STYLE('',#206,POSITIVE_LENGTH_MEASURE(0.18),#232);
#203=CURVE_STYLE('',#207,POSITIVE_LENGTH_MEASURE(0.13),#234);
#204=CURVE_STYLE('',#208,POSITIVE_LENGTH_MEASURE(0.13),#234);
#205=CURVE_STYLE('',#209,POSITIVE_LENGTH_MEASURE(0.13),#234);
#206=DRAUGHTING_PRE_DEFINED_CURVE_FONT('continuous');
#207=DRAUGHTING_PRE_DEFINED_CURVE_FONT('continuous');
#208=DRAUGHTING_PRE_DEFINED_CURVE_FONT('continuous');
#209=DRAUGHTING_PRE_DEFINED_CURVE_FONT('continuous');
#210=B_SPLINE_CURVE_WITH_KNOTS('CUTTING PART LINE',3,(#340,#341,#342,#343,
#344,#345,#346,#347,#348,#349,#350,#351,#352,#353,#354,#355,#356,#357,#358,
#359,#360,#361,#362,#363,#364,#365,#366,#367,#368,#369,#370,#371,#372,#373),
 .UNSPECIFIED.,.T.,.F.,(4,3,3,3,3,3,3,3,3,3,3,4),(0.,0.467091950993378,
0.491320626537876,0.498276574219642,0.56354785380043,0.567106782925963,
0.572544687002864,0.63800091331255,0.641559754868194,0.647166857942847,
0.963694777146026,1.),.UNSPECIFIED.);
#211=PRESENTATION_LAYER_ASSIGNMENT('1','Layer 1',(#338,#339,#210,#236,#237,
#238,#40,#41));
#212=STYLED_ITEM('',(#220),#338);
#213=STYLED_ITEM('',(#221),#339);
#214=STYLED_ITEM('',(#222),#210);
#215=STYLED_ITEM('',(#223),#236);
#216=STYLED_ITEM('',(#224),#237);
#217=STYLED_ITEM('',(#225),#238);
#218=STYLED_ITEM('',(#226),#40);
#219=STYLED_ITEM('',(#227),#41);
#220=PRESENTATION_STYLE_ASSIGNMENT((#228));
#221=PRESENTATION_STYLE_ASSIGNMENT((#229));
#222=PRESENTATION_STYLE_ASSIGNMENT((#202));
#223=PRESENTATION_STYLE_ASSIGNMENT((#203));
#224=PRESENTATION_STYLE_ASSIGNMENT((#204));
#225=PRESENTATION_STYLE_ASSIGNMENT((#205));
#226=PRESENTATION_STYLE_ASSIGNMENT((#28));
#227=PRESENTATION_STYLE_ASSIGNMENT((#29));
#228=POINT_STYLE('',#230,POSITIVE_LENGTH_MEASURE(3.),#232);
#229=POINT_STYLE('',#231,POSITIVE_LENGTH_MEASURE(3.),#233);
#230=PRE_DEFINED_POINT_MARKER_SYMBOL('plus');
#231=PRE_DEFINED_POINT_MARKER_SYMBOL('plus');
#232=DRAUGHTING_PRE_DEFINED_COLOUR('blue');
#233=DRAUGHTING_PRE_DEFINED_COLOUR('white');
#234=DRAUGHTING_PRE_DEFINED_COLOUR('green');
#235=AXIS2_PLACEMENT_3D('',#337,#269,#270);
#236=AXIS2_PLACEMENT_3D('PCS',#374,#271,#272);
#237=AXIS2_PLACEMENT_3D('MCS',#375,#273,#274);
#238=AXIS2_PLACEMENT_3D('CIP',#376,#275,#276);
#239=AXIS2_PLACEMENT_3D('',#377,#277,#278);
#240=AXIS2_PLACEMENT_3D('',#379,#279,#280);
#241=AXIS2_PLACEMENT_3D('',#380,#281,#282);
#242=AXIS2_PLACEMENT_3D('',#382,#283,#284);
#243=AXIS2_PLACEMENT_3D('',#383,#285,#286);
#244=AXIS2_PLACEMENT_3D('',#385,#287,#288);
#245=AXIS2_PLACEMENT_3D('',#386,#289,#290);
#246=AXIS2_PLACEMENT_3D('',#388,#291,#292);
#247=AXIS2_PLACEMENT_3D('',#389,#293,#294);
#248=AXIS2_PLACEMENT_3D('',#391,#295,#296);
#249=AXIS2_PLACEMENT_3D('',#392,#297,#298);
#250=AXIS2_PLACEMENT_3D('',#393,#299,#300);
#251=AXIS2_PLACEMENT_3D('',#395,#301,#302);
#252=AXIS2_PLACEMENT_3D('',#397,#303,#304);
#253=AXIS2_PLACEMENT_3D('',#398,#305,#306);
#254=AXIS2_PLACEMENT_3D('',#400,#307,#308);
#255=AXIS2_PLACEMENT_3D('',#402,#309,#310);
#256=AXIS2_PLACEMENT_3D('',#403,#311,#312);
#257=AXIS2_PLACEMENT_3D('',#404,#313,#314);
#258=AXIS2_PLACEMENT_3D('',#406,#315,#316);
#259=AXIS2_PLACEMENT_3D('',#407,#317,#318);
#260=AXIS2_PLACEMENT_3D('',#409,#319,#320);
#261=AXIS2_PLACEMENT_3D('',#410,#321,#322);
#262=AXIS2_PLACEMENT_3D('',#411,#323,#324);
#263=AXIS2_PLACEMENT_3D('',#413,#325,#326);
#264=AXIS2_PLACEMENT_3D('',#414,#327,#328);
#265=AXIS2_PLACEMENT_3D('',#416,#329,#330);
#266=AXIS2_PLACEMENT_3D('',#417,#331,#332);
#267=AXIS2_PLACEMENT_3D('',#419,#333,#334);
#268=AXIS2_PLACEMENT_3D('',#420,#335,#336);
#269=DIRECTION('',(0.,0.,1.));
#270=DIRECTION('',(1.,0.,0.));
#271=DIRECTION('',(0.,0.,1.));
#272=DIRECTION('',(1.,0.,0.));
#273=DIRECTION('',(0.,0.,1.));
#274=DIRECTION('',(1.,0.,0.));
#275=DIRECTION('',(0.,0.,1.));
#276=DIRECTION('',(1.,0.,0.));
#277=DIRECTION('',(0.,0.,-1.));
#278=DIRECTION('',(1.,0.,0.));
#279=DIRECTION('',(0.,0.,-1.));
#280=DIRECTION('',(1.,0.,0.));
#281=DIRECTION('',(0.,0.,1.));
#282=DIRECTION('',(-1.,0.,0.));
#283=DIRECTION('',(0.,0.,-1.));
#284=DIRECTION('',(1.,0.,-6.03980592181441E-15));
#285=DIRECTION('',(0.,0.,-1.));
#286=DIRECTION('',(1.,0.,0.));
#287=DIRECTION('',(0.,0.,1.));
#288=DIRECTION('',(-1.,0.,0.));
#289=DIRECTION('',(0.,0.,-1.));
#290=DIRECTION('',(1.,0.,0.));
#291=DIRECTION('',(0.,0.,-1.));
#292=DIRECTION('',(1.,0.,9.15767843927315E-17));
#293=DIRECTION('',(0.,0.,-1.));
#294=DIRECTION('',(1.,0.,0.));
#295=DIRECTION('',(0.,0.,-1.));
#296=DIRECTION('',(1.,0.,0.));
#297=DIRECTION('',(0.,0.,1.));
#298=DIRECTION('',(-1.,0.,-1.60585207221553E-16));
#299=DIRECTION('',(0.,0.,-1.));
#300=DIRECTION('',(-1.,0.,0.));
#301=DIRECTION('',(0.,0.,1.));
#302=DIRECTION('',(1.,0.,0.));
#303=DIRECTION('',(0.,0.,-1.));
#304=DIRECTION('',(1.,0.,1.987778670476E-14));
#305=DIRECTION('',(0.,0.,-1.));
#306=DIRECTION('',(-1.,0.,0.));
#307=DIRECTION('',(0.,0.,1.));
#308=DIRECTION('',(1.,0.,0.));
#309=DIRECTION('',(0.,0.,-1.));
#310=DIRECTION('',(1.,0.,-1.99849030700745E-15));
#311=DIRECTION('',(0.,0.,1.));
#312=DIRECTION('',(-1.,0.,5.53357369451224E-17));
#313=DIRECTION('',(0.,0.,-1.));
#314=DIRECTION('',(-1.,0.,0.));
#315=DIRECTION('',(0.,0.,-1.));
#316=DIRECTION('',(1.,0.,0.));
#317=DIRECTION('',(0.,0.,-1.));
#318=DIRECTION('',(-1.,0.,0.));
#319=DIRECTION('',(0.,0.,1.));
#320=DIRECTION('',(-1.,0.,2.75853738589195E-17));
#321=DIRECTION('',(0.,0.,-1.));
#322=DIRECTION('',(1.,0.,-2.18691337756341E-14));
#323=DIRECTION('',(0.,0.,-1.));
#324=DIRECTION('',(-1.,0.,0.));
#325=DIRECTION('',(0.,0.,-1.));
#326=DIRECTION('',(1.,0.,1.98443436206253E-15));
#327=DIRECTION('',(0.,0.,-1.));
#328=DIRECTION('',(-1.,0.,0.));
#329=DIRECTION('',(0.,0.,1.));
#330=DIRECTION('',(-1.,0.,4.14855297382198E-17));
#331=DIRECTION('',(0.,0.,-1.));
#332=DIRECTION('',(1.,0.,0.));
#333=DIRECTION('',(0.,0.,-1.));
#334=DIRECTION('',(1.,0.,-6.03980592181441E-15));
#335=DIRECTION('',(0.,0.,-1.));
#336=DIRECTION('',(1.,0.,0.));
#337=CARTESIAN_POINT('',(0.,0.,0.));
#338=CARTESIAN_POINT('CRP',(3.17,0.,-101.0650625));
#339=CARTESIAN_POINT('',(0.,0.,-101.6));
#340=CARTESIAN_POINT('',(0.,0.,-50.8));
#341=CARTESIAN_POINT('',(0.,0.,-67.7333333333333));
#342=CARTESIAN_POINT('',(0.,0.,-84.6666666666667));
#343=CARTESIAN_POINT('',(0.,0.,-101.6));
#344=CARTESIAN_POINT('',(0.878354333333334,0.,-101.6));
#345=CARTESIAN_POINT('',(1.75670866666667,0.,-101.6));
#346=CARTESIAN_POINT('',(2.635063,0.,-101.6));
#347=CARTESIAN_POINT('',(2.81337533333301,0.,-101.421687666667));
#348=CARTESIAN_POINT('',(2.99168766666602,0.,-101.243375333334));
#349=CARTESIAN_POINT('',(3.16999999999903,0.,-101.065063000001));
#350=CARTESIAN_POINT('',(3.16852108868004,0.,-98.698804887411));
#351=CARTESIAN_POINT('',(3.16704217736008,0.,-96.332546774821));
#352=CARTESIAN_POINT('',(3.16556326604012,0.,-93.966288662231));
#353=CARTESIAN_POINT('',(3.15881084402674,0.,-93.8374447748208));
#354=CARTESIAN_POINT('',(3.15205842201337,0.,-93.7086008874104));
#355=CARTESIAN_POINT('',(3.145306,0.,-93.579757));
#356=CARTESIAN_POINT('',(3.28470402436048,0.,-93.4403589756395));
#357=CARTESIAN_POINT('',(3.42410204872096,0.,-93.3009609512791));
#358=CARTESIAN_POINT('',(3.56350007308144,0.,-93.1615629269187));
#359=CARTESIAN_POINT('',(3.56201697125322,0.,-90.7886000017306));
#360=CARTESIAN_POINT('',(3.56053386942471,0.,-88.4156370765424));
#361=CARTESIAN_POINT('',(3.55905076759621,0.,-86.0426741513542));
#362=CARTESIAN_POINT('',(3.55229851173081,0.,-85.9138334342365));
#363=CARTESIAN_POINT('',(3.5455462558654,0.,-85.7849927171182));
#364=CARTESIAN_POINT('',(3.538794,0.,-85.656152));
#365=CARTESIAN_POINT('',(3.68252935831798,0.,-85.512416641682));
#366=CARTESIAN_POINT('',(3.82626471663597,0.,-85.368681283364));
#367=CARTESIAN_POINT('',(3.97000007495396,0.,-85.224945925046));
#368=CARTESIAN_POINT('',(3.96282821121904,0.,-73.7499639500306));
#369=CARTESIAN_POINT('',(3.95565634748447,0.,-62.2749819750152));
#370=CARTESIAN_POINT('',(3.94848448374989,0.,-50.7999999999997));
#371=CARTESIAN_POINT('',(2.63232298916659,0.,-50.8));
#372=CARTESIAN_POINT('',(1.3161614945833,0.,-50.8));
#373=CARTESIAN_POINT('',(0.,0.,-50.8));
#374=CARTESIAN_POINT('',(0.,0.,0.));
#375=CARTESIAN_POINT('',(0.,0.,-37.9));
#376=CARTESIAN_POINT('',(0.,0.,-101.6));
#377=CARTESIAN_POINT('',(0.,0.,-50.8));
#378=CARTESIAN_POINT('',(3.94848448374989,0.,-50.8));
#379=CARTESIAN_POINT('',(0.,0.,-50.8));
#380=CARTESIAN_POINT('',(0.,0.,-37.46));
#381=CARTESIAN_POINT('',(-3.94014698374967,0.,-37.46));
#382=CARTESIAN_POINT('',(0.,0.,-85.931446));
#383=CARTESIAN_POINT('',(0.,0.,0.));
#384=CARTESIAN_POINT('',(3.210225,0.,0.));
#385=CARTESIAN_POINT('',(3.210225,0.,1.11022302462516E-16));
#386=CARTESIAN_POINT('',(0.,0.,-0.759774999999999));
#387=CARTESIAN_POINT('',(3.97,0.,-0.759774999999999));
#388=CARTESIAN_POINT('',(0.,0.,-0.759774999999999));
#389=CARTESIAN_POINT('',(0.,0.,-37.36));
#390=CARTESIAN_POINT('',(3.97,0.,-37.36));
#391=CARTESIAN_POINT('',(0.,0.,15.2045468976791));
#392=CARTESIAN_POINT('',(0.,0.,-37.46));
#393=CARTESIAN_POINT('',(0.,0.,-93.1615629269187));
#394=CARTESIAN_POINT('',(-3.56350007308173,0.,-93.1615629269187));
#395=CARTESIAN_POINT('',(0.,0.,-86.0426741513548));
#396=CARTESIAN_POINT('',(3.55905076759621,0.,-86.0426741513548));
#397=CARTESIAN_POINT('',(0.,0.,-93.855063));
#398=CARTESIAN_POINT('',(0.,0.,-93.579757));
#399=CARTESIAN_POINT('',(-3.145306,0.,-93.579757));
#400=CARTESIAN_POINT('',(0.,0.,-93.9662886622311));
#401=CARTESIAN_POINT('',(3.16556326604012,0.,-93.9662886622311));
#402=CARTESIAN_POINT('',(0.,0.,-93.579757));
#403=CARTESIAN_POINT('',(0.,0.,-93.555063));
#404=CARTESIAN_POINT('',(0.,0.,-101.6));
#405=CARTESIAN_POINT('',(-2.635063,0.,-101.6));
#406=CARTESIAN_POINT('',(2.635063,0.,-101.6));
#407=CARTESIAN_POINT('',(0.,0.,-101.065063000001));
#408=CARTESIAN_POINT('',(-3.17,0.,-101.065063000001));
#409=CARTESIAN_POINT('',(0.,0.,-98.065063));
#410=CARTESIAN_POINT('',(0.,0.,-121.065063));
#411=CARTESIAN_POINT('',(0.,0.,-85.656152));
#412=CARTESIAN_POINT('',(-3.538794,0.,-85.656152));
#413=CARTESIAN_POINT('',(0.,0.,-85.656152));
#414=CARTESIAN_POINT('',(0.,0.,-85.224945925046));
#415=CARTESIAN_POINT('',(-3.97000007495362,0.,-85.224945925046));
#416=CARTESIAN_POINT('',(0.,0.,-85.631446));
#417=CARTESIAN_POINT('',(0.,0.,-50.8));
#418=CARTESIAN_POINT('',(3.94848448374989,0.,-50.8));
#419=CARTESIAN_POINT('',(0.,0.,-85.931446));
#420=CARTESIAN_POINT('',(0.,0.,-50.8));
#421=MECHANICAL_DESIGN_GEOMETRIC_PRESENTATION_REPRESENTATION('',(#212,#213,
#214,#215,#216,#217,#218,#219),#422);
#422=(
GEOMETRIC_REPRESENTATION_CONTEXT(3)
GLOBAL_UNCERTAINTY_ASSIGNED_CONTEXT((#423))
GLOBAL_UNIT_ASSIGNED_CONTEXT((#429,#425,#424))
REPRESENTATION_CONTEXT('6484_1_3d','TOP_LEVEL_ASSEMBLY_PART')
);
#423=UNCERTAINTY_MEASURE_WITH_UNIT(LENGTH_MEASURE(2.E-5),#429,
'DISTANCE_ACCURACY_VALUE','Maximum Tolerance applied to model');
#424=(
NAMED_UNIT(*)
SI_UNIT($,.STERADIAN.)
SOLID_ANGLE_UNIT()
);
#425=(
CONVERSION_BASED_UNIT('DEGREE',#427)
NAMED_UNIT(#426)
PLANE_ANGLE_UNIT()
);
#426=DIMENSIONAL_EXPONENTS(0.,0.,0.,0.,0.,0.,0.);
#427=PLANE_ANGLE_MEASURE_WITH_UNIT(PLANE_ANGLE_MEASURE(0.0174532925),#428);
#428=(
NAMED_UNIT(*)
PLANE_ANGLE_UNIT()
SI_UNIT($,.RADIAN.)
);
#429=(
LENGTH_UNIT()
NAMED_UNIT(*)
SI_UNIT(.MILLI.,.METRE.)
);
ENDSEC;
END-ISO-10303-21;
