ISO-10303-21;
HEADER;
/* Generated by software containing ST-Developer
 * from STEP Tools, Inc. (www.steptools.com) 
 */
/* OPTION: using custom schema-name function */

FILE_DESCRIPTION(
/* description */ (''),
/* implementation_level */ '2;1');

FILE_NAME(
/* name */ '1566986929678.stp',
/* time_stamp */ '2019-08-28T12:08:56+02:00',
/* author */ (''),
/* organization */ ('SMS'),
/* preprocessor_version */ 'ST-DEVELOPER v16.7',
/* originating_system */ 'SIEMENS PLM Software NX 12.0',
/* authorisation */ '');

FILE_SCHEMA (('AUTOMOTIVE_DESIGN { 1 0 10303 214 3 1 1 1 }'));
ENDSEC;

DATA;
#10=CONSTRUCTIVE_GEOMETRY_REPRESENTATION_RELATIONSHIP(
'supplemental geometry','',#26,#11);
#11=CONSTRUCTIVE_GEOMETRY_REPRESENTATION('supplemental geometry',(#178,
#179,#180),#270);
#12=GEOMETRICALLY_BOUNDED_WIREFRAME_SHAPE_REPRESENTATION(
'202396706mod000_00-None',(#27),#270);
#13=SHAPE_REPRESENTATION_RELATIONSHIP('None',
'relationship between 202396706mod000_00-None and 202396706mod000_00-N
one',#26,#15);
#14=SHAPE_REPRESENTATION_RELATIONSHIP('None',
'relationship between 202396706mod000_00-None and 202396706mod000_00-N
one',#26,#12);
#15=ADVANCED_BREP_SHAPE_REPRESENTATION('202396706mod000_00-None',(#33),
#270);
#16=SHAPE_DEFINITION_REPRESENTATION(#17,#26);
#17=PRODUCT_DEFINITION_SHAPE('','',#18);
#18=PRODUCT_DEFINITION(' ','',#20,#19);
#19=PRODUCT_DEFINITION_CONTEXT('part definition',#25,'design');
#20=PRODUCT_DEFINITION_FORMATION_WITH_SPECIFIED_SOURCE(' ',' ',#22,
 .NOT_KNOWN.);
#21=PRODUCT_RELATED_PRODUCT_CATEGORY('part','',(#22));
#22=PRODUCT('202396706mod000_00','202396706mod000_00',' ',(#23));
#23=PRODUCT_CONTEXT(' ',#25,'mechanical');
#24=APPLICATION_PROTOCOL_DEFINITION('international standard',
'automotive_design',2010,#25);
#25=APPLICATION_CONTEXT(
'core data for automotive mechanical design processes');
#26=SHAPE_REPRESENTATION('202396706mod000_00-None',(#177),#270);
#27=GEOMETRIC_CURVE_SET('None',(#231,#232,#233));
#28=SURFACE_STYLE_USAGE(.BOTH.,#29);
#29=SURFACE_SIDE_STYLE('',(#30));
#30=SURFACE_STYLE_FILL_AREA(#31);
#31=FILL_AREA_STYLE('',(#32));
#32=FILL_AREA_STYLE_COLOUR('',#176);
#33=MANIFOLD_SOLID_BREP('NOCUT',#34);
#34=CLOSED_SHELL('',(#39,#40,#41,#42,#43,#44,#45));
#35=SURFACE_OF_LINEAR_EXTRUSION('',#38,#147);
#36=CIRCLE('',#183,31.);
#37=CIRCLE('',#185,31.);
#38=CIRCLE('',#188,31.);
#39=ADVANCED_FACE('',(#52),#46,.T.);
#40=ADVANCED_FACE('',(#53),#47,.T.);
#41=ADVANCED_FACE('',(#54),#48,.F.);
#42=ADVANCED_FACE('',(#55),#49,.T.);
#43=ADVANCED_FACE('',(#56),#50,.T.);
#44=ADVANCED_FACE('',(#57),#35,.T.);
#45=ADVANCED_FACE('',(#58),#51,.T.);
#46=PLANE('',#181);
#47=PLANE('',#182);
#48=PLANE('',#184);
#49=PLANE('',#186);
#50=PLANE('',#187);
#51=PLANE('',#189);
#52=FACE_OUTER_BOUND('',#59,.T.);
#53=FACE_OUTER_BOUND('',#60,.T.);
#54=FACE_OUTER_BOUND('',#61,.T.);
#55=FACE_OUTER_BOUND('',#62,.T.);
#56=FACE_OUTER_BOUND('',#63,.T.);
#57=FACE_OUTER_BOUND('',#64,.T.);
#58=FACE_OUTER_BOUND('',#65,.T.);
#59=EDGE_LOOP('',(#66,#67,#68,#69));
#60=EDGE_LOOP('',(#70,#71,#72,#73));
#61=EDGE_LOOP('',(#74,#75,#76,#77,#78));
#62=EDGE_LOOP('',(#79,#80,#81,#82,#83));
#63=EDGE_LOOP('',(#84,#85,#86,#87));
#64=EDGE_LOOP('',(#88,#89,#90,#91));
#65=EDGE_LOOP('',(#92,#93,#94,#95));
#66=ORIENTED_EDGE('',*,*,#106,.F.);
#67=ORIENTED_EDGE('',*,*,#107,.T.);
#68=ORIENTED_EDGE('',*,*,#108,.T.);
#69=ORIENTED_EDGE('',*,*,#109,.F.);
#70=ORIENTED_EDGE('',*,*,#110,.T.);
#71=ORIENTED_EDGE('',*,*,#111,.T.);
#72=ORIENTED_EDGE('',*,*,#112,.F.);
#73=ORIENTED_EDGE('',*,*,#113,.F.);
#74=ORIENTED_EDGE('',*,*,#114,.F.);
#75=ORIENTED_EDGE('',*,*,#110,.F.);
#76=ORIENTED_EDGE('',*,*,#115,.F.);
#77=ORIENTED_EDGE('',*,*,#116,.F.);
#78=ORIENTED_EDGE('',*,*,#108,.F.);
#79=ORIENTED_EDGE('',*,*,#112,.T.);
#80=ORIENTED_EDGE('',*,*,#117,.T.);
#81=ORIENTED_EDGE('',*,*,#106,.T.);
#82=ORIENTED_EDGE('',*,*,#118,.T.);
#83=ORIENTED_EDGE('',*,*,#119,.T.);
#84=ORIENTED_EDGE('',*,*,#118,.F.);
#85=ORIENTED_EDGE('',*,*,#109,.T.);
#86=ORIENTED_EDGE('',*,*,#116,.T.);
#87=ORIENTED_EDGE('',*,*,#120,.T.);
#88=ORIENTED_EDGE('',*,*,#119,.F.);
#89=ORIENTED_EDGE('',*,*,#120,.F.);
#90=ORIENTED_EDGE('',*,*,#115,.T.);
#91=ORIENTED_EDGE('',*,*,#113,.T.);
#92=ORIENTED_EDGE('',*,*,#111,.F.);
#93=ORIENTED_EDGE('',*,*,#114,.T.);
#94=ORIENTED_EDGE('',*,*,#107,.F.);
#95=ORIENTED_EDGE('',*,*,#117,.F.);
#96=VERTEX_POINT('',#238);
#97=VERTEX_POINT('',#239);
#98=VERTEX_POINT('',#241);
#99=VERTEX_POINT('',#243);
#100=VERTEX_POINT('',#247);
#101=VERTEX_POINT('',#248);
#102=VERTEX_POINT('',#250);
#103=VERTEX_POINT('',#252);
#104=VERTEX_POINT('',#257);
#105=VERTEX_POINT('',#262);
#106=EDGE_CURVE('',#96,#97,#121,.T.);
#107=EDGE_CURVE('',#96,#98,#122,.T.);
#108=EDGE_CURVE('',#98,#99,#123,.T.);
#109=EDGE_CURVE('',#97,#99,#124,.T.);
#110=EDGE_CURVE('',#100,#101,#125,.T.);
#111=EDGE_CURVE('',#101,#102,#126,.T.);
#112=EDGE_CURVE('',#103,#102,#127,.T.);
#113=EDGE_CURVE('',#100,#103,#128,.T.);
#114=EDGE_CURVE('',#101,#98,#129,.T.);
#115=EDGE_CURVE('',#104,#100,#36,.T.);
#116=EDGE_CURVE('',#99,#104,#130,.T.);
#117=EDGE_CURVE('',#102,#96,#131,.T.);
#118=EDGE_CURVE('',#97,#105,#132,.T.);
#119=EDGE_CURVE('',#105,#103,#37,.T.);
#120=EDGE_CURVE('',#104,#105,#133,.T.);
#121=LINE('',#237,#134);
#122=LINE('',#240,#135);
#123=LINE('',#242,#136);
#124=LINE('',#244,#137);
#125=LINE('',#246,#138);
#126=LINE('',#249,#139);
#127=LINE('',#251,#140);
#128=LINE('',#253,#141);
#129=LINE('',#255,#142);
#130=LINE('',#258,#143);
#131=LINE('',#260,#144);
#132=LINE('',#261,#145);
#133=LINE('',#265,#146);
#134=VECTOR('',#198,1.);
#135=VECTOR('',#199,1.);
#136=VECTOR('',#200,1.);
#137=VECTOR('',#201,1.);
#138=VECTOR('',#204,1.);
#139=VECTOR('',#205,1.);
#140=VECTOR('',#206,1.);
#141=VECTOR('',#207,1.);
#142=VECTOR('',#210,1.);
#143=VECTOR('',#213,1.);
#144=VECTOR('',#216,1.);
#145=VECTOR('',#217,1.);
#146=VECTOR('',#222,1.);
#147=VECTOR('',#227,1.);
#148=CURVE_STYLE('',#151,POSITIVE_LENGTH_MEASURE(0.18),#175);
#149=CURVE_STYLE('',#152,POSITIVE_LENGTH_MEASURE(0.18),#175);
#150=CURVE_STYLE('',#153,POSITIVE_LENGTH_MEASURE(0.18),#175);
#151=DRAUGHTING_PRE_DEFINED_CURVE_FONT('continuous');
#152=DRAUGHTING_PRE_DEFINED_CURVE_FONT('continuous');
#153=DRAUGHTING_PRE_DEFINED_CURVE_FONT('continuous');
#154=PRESENTATION_LAYER_ASSIGNMENT('1','Layer 1',(#231,#232,#233,#178,#179,
#180,#33));
#155=STYLED_ITEM('',(#162),#231);
#156=STYLED_ITEM('',(#163),#232);
#157=STYLED_ITEM('',(#164),#233);
#158=STYLED_ITEM('',(#165),#178);
#159=STYLED_ITEM('',(#166),#179);
#160=STYLED_ITEM('',(#167),#180);
#161=STYLED_ITEM('',(#168),#33);
#162=PRESENTATION_STYLE_ASSIGNMENT((#169));
#163=PRESENTATION_STYLE_ASSIGNMENT((#170));
#164=PRESENTATION_STYLE_ASSIGNMENT((#171));
#165=PRESENTATION_STYLE_ASSIGNMENT((#148));
#166=PRESENTATION_STYLE_ASSIGNMENT((#149));
#167=PRESENTATION_STYLE_ASSIGNMENT((#150));
#168=PRESENTATION_STYLE_ASSIGNMENT((#28));
#169=POINT_STYLE('',#172,POSITIVE_LENGTH_MEASURE(3.),#175);
#170=POINT_STYLE('',#173,POSITIVE_LENGTH_MEASURE(3.),#175);
#171=POINT_STYLE('',#174,POSITIVE_LENGTH_MEASURE(3.),#175);
#172=PRE_DEFINED_POINT_MARKER_SYMBOL('plus');
#173=PRE_DEFINED_POINT_MARKER_SYMBOL('plus');
#174=PRE_DEFINED_POINT_MARKER_SYMBOL('plus');
#175=COLOUR_RGB('Medium Maroon',0.6,0.4,0.4);
#176=COLOUR_RGB('TLS_NOCUT',0.501960784313725,0.501960784313725,0.501960784313725);
#177=AXIS2_PLACEMENT_3D('',#230,#190,#191);
#178=AXIS2_PLACEMENT_3D('PCS',#234,#192,#193);
#179=AXIS2_PLACEMENT_3D('MCS',#235,#194,#195);
#180=AXIS2_PLACEMENT_3D('CSW',#236,#196,#197);
#181=AXIS2_PLACEMENT_3D('',#245,#202,#203);
#182=AXIS2_PLACEMENT_3D('',#254,#208,#209);
#183=AXIS2_PLACEMENT_3D('',#256,#211,#212);
#184=AXIS2_PLACEMENT_3D('',#259,#214,#215);
#185=AXIS2_PLACEMENT_3D('',#263,#218,#219);
#186=AXIS2_PLACEMENT_3D('',#264,#220,#221);
#187=AXIS2_PLACEMENT_3D('',#266,#223,#224);
#188=AXIS2_PLACEMENT_3D('',#267,#225,#226);
#189=AXIS2_PLACEMENT_3D('',#268,#228,#229);
#190=DIRECTION('',(0.,0.,1.));
#191=DIRECTION('',(1.,0.,0.));
#192=DIRECTION('',(0.,0.,1.));
#193=DIRECTION('',(1.,0.,0.));
#194=DIRECTION('',(0.,0.,1.));
#195=DIRECTION('',(-0.559192903470745,0.829037572555043,0.));
#196=DIRECTION('',(0.,0.,1.));
#197=DIRECTION('',(-0.559192903470745,0.829037572555043,0.));
#198=DIRECTION('',(-0.435159812029847,-0.892209834305715,-0.120820319327165));
#199=DIRECTION('',(0.115379729784891,0.0778246104108861,-0.99026806874157));
#200=DIRECTION('',(-0.435159812029847,-0.892209834305715,-0.120820319327165));
#201=DIRECTION('',(0.114650805227565,0.0763303161924592,-0.990469018036723));
#202=DIRECTION('',(-0.892929703811512,0.444865082449233,-0.0690767867559181));
#203=DIRECTION('',(0.445930255568415,0.895067710940735,0.));
#204=DIRECTION('',(-0.559192903470745,0.829037572555043,-2.09278992430963E-16));
#205=DIRECTION('',(-0.113721184366316,-0.0777085357968624,0.990469018036723));
#206=DIRECTION('',(-0.559192903470745,0.829037572555043,-2.09278992430963E-16));
#207=DIRECTION('',(-0.114186034243715,-0.0770194526018459,0.99046936020485));
#208=DIRECTION('',(0.821136314074375,0.553863437331762,0.13773324397325));
#209=DIRECTION('',(-0.114186034243715,-0.0770194526018462,0.99046936020485));
#210=DIRECTION('',(-0.990256288029977,-0.0692454652289488,-0.120820319327164));
#211=DIRECTION('',(-0.115379729784891,-0.0778246104108861,0.99026806874157));
#212=DIRECTION('',(0.559192903470745,-0.829037572555043,-2.79794109028517E-17));
#213=DIRECTION('',(0.559192903470745,-0.829037572555043,0.));
#214=DIRECTION('',(-0.115379729784891,-0.0778246104108861,0.99026806874157));
#215=DIRECTION('',(-0.820969435888282,-0.553750876573966,-0.139173100960065));
#216=DIRECTION('',(-0.990256288029977,-0.0692454652289488,-0.120820319327164));
#217=DIRECTION('',(0.559192903470745,-0.829037572555043,0.));
#218=DIRECTION('',(-0.115379729784891,-0.0778246104108861,0.99026806874157));
#219=DIRECTION('',(0.559192903470745,-0.829037572555043,-2.79794109028517E-17));
#220=DIRECTION('',(-0.115379729784891,-0.0778246104108861,0.99026806874157));
#221=DIRECTION('',(-0.820969435888282,-0.553750876573966,-0.139173100960065));
#222=DIRECTION('',(-0.114186034243715,-0.0770194526018459,0.99046936020485));
#223=DIRECTION('',(-0.821136314074375,-0.553863437331762,-0.13773324397325));
#224=DIRECTION('',(0.114186034243715,0.0770194526018462,-0.99046936020485));
#225=DIRECTION('',(-0.115379729784891,-0.0778246104108861,0.99026806874157));
#226=DIRECTION('',(0.559192903470745,-0.829037572555043,-2.77555756156289E-17));
#227=DIRECTION('',(-0.114186034243715,-0.0770194526018459,0.99046936020485));
#228=DIRECTION('',(-0.0779743674027381,0.994559397703134,0.069076786755918));
#229=DIRECTION('',(0.996940744267874,0.0781610671537847,0.));
#230=CARTESIAN_POINT('',(0.,0.,0.));
#231=CARTESIAN_POINT('',(0.,0.,0.));
#232=CARTESIAN_POINT('',(7.80074100341689,-11.5650741371428,6.3948846218409E-14));
#233=CARTESIAN_POINT('',(7.80074100341691,-11.5650741371428,-1.009826504131));
#234=CARTESIAN_POINT('',(0.,0.,0.));
#235=CARTESIAN_POINT('',(7.80074100341689,-11.5650741371428,6.3948846218409E-14));
#236=CARTESIAN_POINT('',(7.80074100341691,-11.5650741371428,-1.009826504131));
#237=CARTESIAN_POINT('',(4.37884380414283,-1.93410207013641,-0.316401002627115));
#238=CARTESIAN_POINT('',(10.8002651294957,11.2317627416337,1.46648003007767));
#239=CARTESIAN_POINT('',(5.81918534661156,1.01903572757347,0.0835038605759703));
#240=CARTESIAN_POINT('',(10.9156447373411,11.3095872697954,0.476213007904111));
#241=CARTESIAN_POINT('',(10.9156447373411,11.3095872697954,0.476213007904076));
#242=CARTESIAN_POINT('',(4.49367418019183,-1.85740363403689,-1.30682051673402));
#243=CARTESIAN_POINT('',(5.93383619144648,1.09536607013506,-0.906965499628938));
#244=CARTESIAN_POINT('',(5.9336293458173,1.09522835987435,-0.905178558954493));
#245=CARTESIAN_POINT('',(15.8904048822064,21.5093571057482,1.85743455608662));
#246=CARTESIAN_POINT('',(30.3160175812116,-7.13074519453927,1.28740556467188));
#247=CARTESIAN_POINT('',(30.3160175812116,-7.13074519453927,1.28740556467173));
#248=CARTESIAN_POINT('',(17.5642658849735,11.7745041504695,1.28740556467173));
#249=CARTESIAN_POINT('',(17.562110306766,11.7730311898489,1.30617984531606));
#250=CARTESIAN_POINT('',(17.450544661321,11.6967955878274,2.27787492487658));
#251=CARTESIAN_POINT('',(30.2018315469678,-7.20776464714111,2.27787492487673));
#252=CARTESIAN_POINT('',(30.2018315469679,-7.20776464714111,2.27787492487658));
#253=CARTESIAN_POINT('',(30.3160175812116,-7.13074519453927,1.28740556467173));
#254=CARTESIAN_POINT('',(30.3160175812116,-7.13074519453927,1.28740556467188));
#255=CARTESIAN_POINT('',(-0.467967058741039,10.5135675884928,-0.912691691742212));
#256=CARTESIAN_POINT('',(0.339673152565616,0.212154587356118,-1.62817284933574));
#257=CARTESIAN_POINT('',(21.6850704200699,-22.256799003124,-0.906965499628938));
#258=CARTESIAN_POINT('',(4.72012131165889,2.89477237781125,-0.906965499628841));
#259=CARTESIAN_POINT('',(0.339673152565616,0.212154587356118,-1.62817284933574));
#260=CARTESIAN_POINT('',(-0.582096826355427,10.4358304576739,0.077727822364683));
#261=CARTESIAN_POINT('',(4.60593527741518,2.8177529252094,0.0835038605760119));
#262=CARTESIAN_POINT('',(21.5708843858262,-22.3338184557259,0.0835038605759147));
#263=CARTESIAN_POINT('',(0.225487118321901,0.135135134754272,-0.637703489130892));
#264=CARTESIAN_POINT('',(0.225487118321901,0.135135134754272,-0.637703489130892));
#265=CARTESIAN_POINT('',(21.6850704200699,-22.256799003124,-0.906965499628938));
#266=CARTESIAN_POINT('',(4.72012131165889,2.89477237781125,-0.906965499628841));
#267=CARTESIAN_POINT('',(0.339673152565616,0.212154587356118,-1.62817284933574));
#268=CARTESIAN_POINT('',(25.1973625329505,12.3082622643192,2.21871313182529));
#269=MECHANICAL_DESIGN_GEOMETRIC_PRESENTATION_REPRESENTATION('',(#155,#156,
#157,#158,#159,#160,#161),#270);
#270=(
GEOMETRIC_REPRESENTATION_CONTEXT(3)
GLOBAL_UNCERTAINTY_ASSIGNED_CONTEXT((#271))
GLOBAL_UNIT_ASSIGNED_CONTEXT((#277,#273,#272))
REPRESENTATION_CONTEXT('1566986929678','TOP_LEVEL_ASSEMBLY_PART')
);
#271=UNCERTAINTY_MEASURE_WITH_UNIT(LENGTH_MEASURE(2.E-5),#277,
'DISTANCE_ACCURACY_VALUE','Maximum Tolerance applied to model');
#272=(
NAMED_UNIT(*)
SI_UNIT($,.STERADIAN.)
SOLID_ANGLE_UNIT()
);
#273=(
CONVERSION_BASED_UNIT('DEGREE',#275)
NAMED_UNIT(#274)
PLANE_ANGLE_UNIT()
);
#274=DIMENSIONAL_EXPONENTS(0.,0.,0.,0.,0.,0.,0.);
#275=PLANE_ANGLE_MEASURE_WITH_UNIT(PLANE_ANGLE_MEASURE(0.0174532925),#276);
#276=(
NAMED_UNIT(*)
PLANE_ANGLE_UNIT()
SI_UNIT($,.RADIAN.)
);
#277=(
LENGTH_UNIT()
NAMED_UNIT(*)
SI_UNIT(.MILLI.,.METRE.)
);
ENDSEC;
END-ISO-10303-21;
