ISO-10303-21;
HEADER;
/* Generated by software containing ST-Developer
 * from STEP Tools, Inc. (www.steptools.com) 
 */
/* OPTION: using custom schema-name function */

FILE_DESCRIPTION(
/* description */ (''),
/* implementation_level */ '2;1');

FILE_NAME(
/* name */ '1566986906772.stp',
/* time_stamp */ '2019-08-28T12:08:33+02:00',
/* author */ (''),
/* organization */ ('SMS'),
/* preprocessor_version */ 'ST-DEVELOPER v16.7',
/* originating_system */ 'SIEMENS PLM Software NX 12.0',
/* authorisation */ '');

FILE_SCHEMA (('AUTOMOTIVE_DESIGN { 1 0 10303 214 3 1 1 1 }'));
ENDSEC;

DATA;
#10=CONSTRUCTIVE_GEOMETRY_REPRESENTATION_RELATIONSHIP(
'supplemental geometry','',#26,#11);
#11=CONSTRUCTIVE_GEOMETRY_REPRESENTATION('supplemental geometry',(#176,
#177,#178),#267);
#12=GEOMETRICALLY_BOUNDED_WIREFRAME_SHAPE_REPRESENTATION(
'202396705mod000_00-None',(#27),#267);
#13=SHAPE_REPRESENTATION_RELATIONSHIP('None',
'relationship between 202396705mod000_00-None and 202396705mod000_00-N
one',#26,#15);
#14=SHAPE_REPRESENTATION_RELATIONSHIP('None',
'relationship between 202396705mod000_00-None and 202396705mod000_00-N
one',#26,#12);
#15=ADVANCED_BREP_SHAPE_REPRESENTATION('202396705mod000_00-None',(#33),
#267);
#16=SHAPE_DEFINITION_REPRESENTATION(#17,#26);
#17=PRODUCT_DEFINITION_SHAPE('','',#18);
#18=PRODUCT_DEFINITION(' ','',#20,#19);
#19=PRODUCT_DEFINITION_CONTEXT('part definition',#25,'design');
#20=PRODUCT_DEFINITION_FORMATION_WITH_SPECIFIED_SOURCE(' ',' ',#22,
 .NOT_KNOWN.);
#21=PRODUCT_RELATED_PRODUCT_CATEGORY('part','',(#22));
#22=PRODUCT('202396705mod000_00','202396705mod000_00',' ',(#23));
#23=PRODUCT_CONTEXT(' ',#25,'mechanical');
#24=APPLICATION_PROTOCOL_DEFINITION('international standard',
'automotive_design',2010,#25);
#25=APPLICATION_CONTEXT(
'core data for automotive mechanical design processes');
#26=SHAPE_REPRESENTATION('202396705mod000_00-None',(#175),#267);
#27=GEOMETRIC_CURVE_SET('None',(#228,#229,#230));
#28=SURFACE_STYLE_USAGE(.BOTH.,#29);
#29=SURFACE_SIDE_STYLE('',(#30));
#30=SURFACE_STYLE_FILL_AREA(#31);
#31=FILL_AREA_STYLE('',(#32));
#32=FILL_AREA_STYLE_COLOUR('',#174);
#33=MANIFOLD_SOLID_BREP('NOCUT',#34);
#34=CLOSED_SHELL('',(#38,#39,#40,#41,#42,#43,#44));
#35=CYLINDRICAL_SURFACE('',#186,31.);
#36=CIRCLE('',#181,31.);
#37=CIRCLE('',#183,31.);
#38=ADVANCED_FACE('',(#51),#45,.T.);
#39=ADVANCED_FACE('',(#52),#46,.T.);
#40=ADVANCED_FACE('',(#53),#47,.F.);
#41=ADVANCED_FACE('',(#54),#48,.T.);
#42=ADVANCED_FACE('',(#55),#49,.T.);
#43=ADVANCED_FACE('',(#56),#35,.T.);
#44=ADVANCED_FACE('',(#57),#50,.T.);
#45=PLANE('',#179);
#46=PLANE('',#180);
#47=PLANE('',#182);
#48=PLANE('',#184);
#49=PLANE('',#185);
#50=PLANE('',#187);
#51=FACE_OUTER_BOUND('',#58,.T.);
#52=FACE_OUTER_BOUND('',#59,.T.);
#53=FACE_OUTER_BOUND('',#60,.T.);
#54=FACE_OUTER_BOUND('',#61,.T.);
#55=FACE_OUTER_BOUND('',#62,.T.);
#56=FACE_OUTER_BOUND('',#63,.T.);
#57=FACE_OUTER_BOUND('',#64,.T.);
#58=EDGE_LOOP('',(#65,#66,#67,#68));
#59=EDGE_LOOP('',(#69,#70,#71,#72));
#60=EDGE_LOOP('',(#73,#74,#75,#76,#77));
#61=EDGE_LOOP('',(#78,#79,#80,#81,#82));
#62=EDGE_LOOP('',(#83,#84,#85,#86));
#63=EDGE_LOOP('',(#87,#88,#89,#90));
#64=EDGE_LOOP('',(#91,#92,#93,#94));
#65=ORIENTED_EDGE('',*,*,#105,.F.);
#66=ORIENTED_EDGE('',*,*,#106,.T.);
#67=ORIENTED_EDGE('',*,*,#107,.T.);
#68=ORIENTED_EDGE('',*,*,#108,.F.);
#69=ORIENTED_EDGE('',*,*,#109,.T.);
#70=ORIENTED_EDGE('',*,*,#110,.T.);
#71=ORIENTED_EDGE('',*,*,#111,.F.);
#72=ORIENTED_EDGE('',*,*,#112,.F.);
#73=ORIENTED_EDGE('',*,*,#113,.F.);
#74=ORIENTED_EDGE('',*,*,#109,.F.);
#75=ORIENTED_EDGE('',*,*,#114,.F.);
#76=ORIENTED_EDGE('',*,*,#115,.F.);
#77=ORIENTED_EDGE('',*,*,#107,.F.);
#78=ORIENTED_EDGE('',*,*,#111,.T.);
#79=ORIENTED_EDGE('',*,*,#116,.T.);
#80=ORIENTED_EDGE('',*,*,#105,.T.);
#81=ORIENTED_EDGE('',*,*,#117,.T.);
#82=ORIENTED_EDGE('',*,*,#118,.T.);
#83=ORIENTED_EDGE('',*,*,#117,.F.);
#84=ORIENTED_EDGE('',*,*,#108,.T.);
#85=ORIENTED_EDGE('',*,*,#115,.T.);
#86=ORIENTED_EDGE('',*,*,#119,.T.);
#87=ORIENTED_EDGE('',*,*,#118,.F.);
#88=ORIENTED_EDGE('',*,*,#119,.F.);
#89=ORIENTED_EDGE('',*,*,#114,.T.);
#90=ORIENTED_EDGE('',*,*,#112,.T.);
#91=ORIENTED_EDGE('',*,*,#110,.F.);
#92=ORIENTED_EDGE('',*,*,#113,.T.);
#93=ORIENTED_EDGE('',*,*,#106,.F.);
#94=ORIENTED_EDGE('',*,*,#116,.F.);
#95=VERTEX_POINT('',#235);
#96=VERTEX_POINT('',#236);
#97=VERTEX_POINT('',#238);
#98=VERTEX_POINT('',#240);
#99=VERTEX_POINT('',#244);
#100=VERTEX_POINT('',#245);
#101=VERTEX_POINT('',#247);
#102=VERTEX_POINT('',#249);
#103=VERTEX_POINT('',#254);
#104=VERTEX_POINT('',#259);
#105=EDGE_CURVE('',#95,#96,#120,.T.);
#106=EDGE_CURVE('',#95,#97,#121,.T.);
#107=EDGE_CURVE('',#97,#98,#122,.T.);
#108=EDGE_CURVE('',#96,#98,#123,.T.);
#109=EDGE_CURVE('',#99,#100,#124,.T.);
#110=EDGE_CURVE('',#100,#101,#125,.T.);
#111=EDGE_CURVE('',#102,#101,#126,.T.);
#112=EDGE_CURVE('',#99,#102,#127,.T.);
#113=EDGE_CURVE('',#100,#97,#128,.T.);
#114=EDGE_CURVE('',#103,#99,#36,.T.);
#115=EDGE_CURVE('',#98,#103,#129,.T.);
#116=EDGE_CURVE('',#101,#95,#130,.T.);
#117=EDGE_CURVE('',#96,#104,#131,.T.);
#118=EDGE_CURVE('',#104,#102,#37,.T.);
#119=EDGE_CURVE('',#103,#104,#132,.T.);
#120=LINE('',#234,#133);
#121=LINE('',#237,#134);
#122=LINE('',#239,#135);
#123=LINE('',#241,#136);
#124=LINE('',#243,#137);
#125=LINE('',#246,#138);
#126=LINE('',#248,#139);
#127=LINE('',#250,#140);
#128=LINE('',#252,#141);
#129=LINE('',#255,#142);
#130=LINE('',#257,#143);
#131=LINE('',#258,#144);
#132=LINE('',#262,#145);
#133=VECTOR('',#196,1.);
#134=VECTOR('',#197,1.);
#135=VECTOR('',#198,1.);
#136=VECTOR('',#199,1.);
#137=VECTOR('',#202,1.);
#138=VECTOR('',#203,1.);
#139=VECTOR('',#204,1.);
#140=VECTOR('',#205,1.);
#141=VECTOR('',#208,1.);
#142=VECTOR('',#211,1.);
#143=VECTOR('',#214,1.);
#144=VECTOR('',#215,1.);
#145=VECTOR('',#220,1.);
#146=CURVE_STYLE('',#149,POSITIVE_LENGTH_MEASURE(0.18),#173);
#147=CURVE_STYLE('',#150,POSITIVE_LENGTH_MEASURE(0.18),#173);
#148=CURVE_STYLE('',#151,POSITIVE_LENGTH_MEASURE(0.18),#173);
#149=DRAUGHTING_PRE_DEFINED_CURVE_FONT('continuous');
#150=DRAUGHTING_PRE_DEFINED_CURVE_FONT('continuous');
#151=DRAUGHTING_PRE_DEFINED_CURVE_FONT('continuous');
#152=PRESENTATION_LAYER_ASSIGNMENT('1','Layer 1',(#228,#229,#230,#176,#177,
#178,#33));
#153=STYLED_ITEM('',(#160),#228);
#154=STYLED_ITEM('',(#161),#229);
#155=STYLED_ITEM('',(#162),#230);
#156=STYLED_ITEM('',(#163),#176);
#157=STYLED_ITEM('',(#164),#177);
#158=STYLED_ITEM('',(#165),#178);
#159=STYLED_ITEM('',(#166),#33);
#160=PRESENTATION_STYLE_ASSIGNMENT((#167));
#161=PRESENTATION_STYLE_ASSIGNMENT((#168));
#162=PRESENTATION_STYLE_ASSIGNMENT((#169));
#163=PRESENTATION_STYLE_ASSIGNMENT((#146));
#164=PRESENTATION_STYLE_ASSIGNMENT((#147));
#165=PRESENTATION_STYLE_ASSIGNMENT((#148));
#166=PRESENTATION_STYLE_ASSIGNMENT((#28));
#167=POINT_STYLE('',#170,POSITIVE_LENGTH_MEASURE(3.),#173);
#168=POINT_STYLE('',#171,POSITIVE_LENGTH_MEASURE(3.),#173);
#169=POINT_STYLE('',#172,POSITIVE_LENGTH_MEASURE(3.),#173);
#170=PRE_DEFINED_POINT_MARKER_SYMBOL('plus');
#171=PRE_DEFINED_POINT_MARKER_SYMBOL('plus');
#172=PRE_DEFINED_POINT_MARKER_SYMBOL('plus');
#173=COLOUR_RGB('Medium Maroon',0.6,0.4,0.4);
#174=COLOUR_RGB('TLS_NOCUT',0.501960784313725,0.501960784313725,0.501960784313725);
#175=AXIS2_PLACEMENT_3D('',#227,#188,#189);
#176=AXIS2_PLACEMENT_3D('PCS',#231,#190,#191);
#177=AXIS2_PLACEMENT_3D('MCS',#232,#192,#193);
#178=AXIS2_PLACEMENT_3D('CSW',#233,#194,#195);
#179=AXIS2_PLACEMENT_3D('',#242,#200,#201);
#180=AXIS2_PLACEMENT_3D('',#251,#206,#207);
#181=AXIS2_PLACEMENT_3D('',#253,#209,#210);
#182=AXIS2_PLACEMENT_3D('',#256,#212,#213);
#183=AXIS2_PLACEMENT_3D('',#260,#216,#217);
#184=AXIS2_PLACEMENT_3D('',#261,#218,#219);
#185=AXIS2_PLACEMENT_3D('',#263,#221,#222);
#186=AXIS2_PLACEMENT_3D('',#264,#223,#224);
#187=AXIS2_PLACEMENT_3D('',#265,#225,#226);
#188=DIRECTION('',(0.,0.,1.));
#189=DIRECTION('',(1.,0.,0.));
#190=DIRECTION('',(0.,0.,1.));
#191=DIRECTION('',(1.,0.,0.));
#192=DIRECTION('',(0.,0.,1.));
#193=DIRECTION('',(-0.438371146789076,-0.898794046299168,0.));
#194=DIRECTION('',(0.,0.,1.));
#195=DIRECTION('',(-0.438371146789076,-0.898794046299168,0.));
#196=DIRECTION('',(0.990256288029977,0.0692454652289524,-0.120820319327165));
#197=DIRECTION('',(-0.1250879545479,0.0610094718700558,-0.99026806874157));
#198=DIRECTION('',(0.990256288029977,0.0692454652289524,-0.120820319327165));
#199=DIRECTION('',(-0.1250879545479,0.0610094718700558,-0.99026806874157));
#200=DIRECTION('',(0.0612003892480644,-0.9957323485191,-0.0690767867559181));
#201=DIRECTION('',(-0.998116503566071,-0.0613469258320363,0.));
#202=DIRECTION('',(-0.438371146789076,-0.898794046299168,-2.09278992430963E-16));
#203=DIRECTION('',(0.1250879545479,-0.0610094718700557,0.99026806874157));
#204=DIRECTION('',(-0.438371146789076,-0.898794046299168,-2.09278992430963E-16));
#205=DIRECTION('',(0.1250879545479,-0.0610094718700557,0.99026806874157));
#206=DIRECTION('',(-0.890047044425098,0.434104948922845,0.139173100960065));
#207=DIRECTION('',(0.1250879545479,-0.0610094718700557,0.99026806874157));
#208=DIRECTION('',(0.555096476000133,-0.822964369076764,-0.120820319327164));
#209=DIRECTION('',(0.1250879545479,-0.0610094718700557,0.99026806874157));
#210=DIRECTION('',(0.438371146789076,0.898794046299168,-2.79794109028517E-17));
#211=DIRECTION('',(0.438371146789076,0.898794046299168,0.));
#212=DIRECTION('',(0.1250879545479,-0.0610094718700557,0.99026806874157));
#213=DIRECTION('',(0.890047044425098,-0.434104948922846,-0.139173100960065));
#214=DIRECTION('',(0.555096476000133,-0.822964369076764,-0.120820319327164));
#215=DIRECTION('',(0.438371146789076,0.898794046299168,0.));
#216=DIRECTION('',(0.1250879545479,-0.0610094718700557,0.99026806874157));
#217=DIRECTION('',(0.438371146789076,0.898794046299168,-2.79794109028517E-17));
#218=DIRECTION('',(0.1250879545479,-0.0610094718700557,0.99026806874157));
#219=DIRECTION('',(0.890047044425098,-0.434104948922846,-0.139173100960065));
#220=DIRECTION('',(0.1250879545479,-0.0610094718700557,0.99026806874157));
#221=DIRECTION('',(0.890047044425098,-0.434104948922846,-0.139173100960065));
#222=DIRECTION('',(-0.1250879545479,0.0610094718700557,-0.99026806874157));
#223=DIRECTION('',(0.1250879545479,-0.0610094718700557,0.99026806874157));
#224=DIRECTION('',(0.890047044425099,-0.434104948922846,-0.139173100960065));
#225=DIRECTION('',(-0.822326520282093,-0.564807481866362,0.069076786755918));
#226=DIRECTION('',(-0.566159841876019,0.82429547702685,0.));
#227=CARTESIAN_POINT('',(0.,0.,0.));
#228=CARTESIAN_POINT('',(0.,0.,0.));
#229=CARTESIAN_POINT('',(6.1152774977076,12.5381769458734,6.3948846218409E-14));
#230=CARTESIAN_POINT('',(6.11527749770763,12.5381769458734,-0.504913785111175));
#231=CARTESIAN_POINT('',(0.,0.,0.));
#232=CARTESIAN_POINT('',(6.1152774977076,12.5381769458734,6.3948846218409E-14));
#233=CARTESIAN_POINT('',(6.11527749770763,12.5381769458734,-0.504913785111175));
#234=CARTESIAN_POINT('',(-0.514440375821223,4.75924100865998,-0.316401002627115));
#235=CARTESIAN_POINT('',(-15.1271244282822,3.73742259893359,1.46648003007767));
#236=CARTESIAN_POINT('',(-3.79210350074838,4.53004447570902,0.0835038605759703));
#237=CARTESIAN_POINT('',(-15.2522122506305,3.79843200632559,0.476213007904111));
#238=CARTESIAN_POINT('',(-15.1896684055561,3.76792733486862,0.97134599570689));
#239=CARTESIAN_POINT('',(-0.576984353095174,4.78974574459501,-0.8115350369979));
#240=CARTESIAN_POINT('',(-3.85464747802234,4.56054921164405,-0.41163017379487));
#241=CARTESIAN_POINT('',(-3.85464747802232,4.56054921164404,-0.411630173794773));
#242=CARTESIAN_POINT('',(-26.5728521137525,3.00681575153683,1.85743455608662));
#243=CARTESIAN_POINT('',(-8.9213524618344,29.789940419998,1.78274089050594));
#244=CARTESIAN_POINT('',(-8.9213524618344,29.789940419998,1.7827408905058));
#245=CARTESIAN_POINT('',(-18.9175384298667,9.29472192860015,1.7827408905058));
#246=CARTESIAN_POINT('',(-18.9175384298667,9.29472192860014,1.78274089050594));
#247=CARTESIAN_POINT('',(-18.8549944525928,9.26421719266512,2.27787492487658));
#248=CARTESIAN_POINT('',(-8.85880848456044,29.759435684063,2.27787492487673));
#249=CARTESIAN_POINT('',(-8.85880848456045,29.759435684063,2.27787492487658));
#250=CARTESIAN_POINT('',(-8.9213524618344,29.789940419998,1.7827408905058));
#251=CARTESIAN_POINT('',(-8.9213524618344,29.789940419998,1.78274089050594));
#252=CARTESIAN_POINT('',(-8.80918985002924,-5.69152113198808,-0.417406212006102));
#253=CARTESIAN_POINT('',(-0.292317996075934,0.158214741250805,-1.13283752350168));
#254=CARTESIAN_POINT('',(8.49366797598119,29.8783478240205,-0.41163017379487));
#255=CARTESIAN_POINT('',(-4.8057572308008,2.61048523175878,-0.411630173794773));
#256=CARTESIAN_POINT('',(-0.292317996075934,0.158214741250805,-1.13283752350168));
#257=CARTESIAN_POINT('',(-8.74664587275529,-5.7220258679231,0.077727822364683));
#258=CARTESIAN_POINT('',(-4.74321325352685,2.57998049582375,0.0835038605760119));
#259=CARTESIAN_POINT('',(8.55621195325514,29.8478430880855,0.0835038605759147));
#260=CARTESIAN_POINT('',(-0.229774018801984,0.127710005315777,-0.637703489130892));
#261=CARTESIAN_POINT('',(-0.229774018801984,0.127710005315777,-0.637703489130892));
#262=CARTESIAN_POINT('',(8.49366797598119,29.8783478240205,-0.41163017379487));
#263=CARTESIAN_POINT('',(-4.8057572308008,2.61048523175878,-0.411630173794773));
#264=CARTESIAN_POINT('',(-0.292317996075934,0.158214741250805,-1.13283752350168));
#265=CARTESIAN_POINT('',(-23.2579490638171,15.6674249297416,2.21871313182529));
#266=MECHANICAL_DESIGN_GEOMETRIC_PRESENTATION_REPRESENTATION('',(#153,#154,
#155,#156,#157,#158,#159),#267);
#267=(
GEOMETRIC_REPRESENTATION_CONTEXT(3)
GLOBAL_UNCERTAINTY_ASSIGNED_CONTEXT((#268))
GLOBAL_UNIT_ASSIGNED_CONTEXT((#274,#270,#269))
REPRESENTATION_CONTEXT('1566986906772','TOP_LEVEL_ASSEMBLY_PART')
);
#268=UNCERTAINTY_MEASURE_WITH_UNIT(LENGTH_MEASURE(2.E-5),#274,
'DISTANCE_ACCURACY_VALUE','Maximum Tolerance applied to model');
#269=(
NAMED_UNIT(*)
SI_UNIT($,.STERADIAN.)
SOLID_ANGLE_UNIT()
);
#270=(
CONVERSION_BASED_UNIT('DEGREE',#272)
NAMED_UNIT(#271)
PLANE_ANGLE_UNIT()
);
#271=DIMENSIONAL_EXPONENTS(0.,0.,0.,0.,0.,0.,0.);
#272=PLANE_ANGLE_MEASURE_WITH_UNIT(PLANE_ANGLE_MEASURE(0.0174532925),#273);
#273=(
NAMED_UNIT(*)
PLANE_ANGLE_UNIT()
SI_UNIT($,.RADIAN.)
);
#274=(
LENGTH_UNIT()
NAMED_UNIT(*)
SI_UNIT(.MILLI.,.METRE.)
);
ENDSEC;
END-ISO-10303-21;
