ISO-10303-21;
HEADER;
/* Generated by software containing ST-Developer
 * from STEP Tools, Inc. (www.steptools.com) 
 */
/* OPTION: using custom schema-name function */

FILE_DESCRIPTION(
/* description */ (''),
/* implementation_level */ '2;1');

FILE_NAME(
/* name */ '1562141720951.stp',
/* time_stamp */ '2019-07-03T10:15:23+02:00',
/* author */ (''),
/* organization */ ('SMS'),
/* preprocessor_version */ 'ST-DEVELOPER v15',
/* originating_system */ 'SIEMENS PLM Software NX 8.5',
/* authorisation */ '');

FILE_SCHEMA (('AUTOMOTIVE_DESIGN { 1 0 10303 214 3 1 1 1 }'));
ENDSEC;

DATA;
#10=CONSTRUCTIVE_GEOMETRY_REPRESENTATION_RELATIONSHIP(
'supplemental geometry','',#26,#11);
#11=CONSTRUCTIVE_GEOMETRY_REPRESENTATION('supplemental geometry',(#134,
#135,#136),#201);
#12=GEOMETRICALLY_BOUNDED_WIREFRAME_SHAPE_REPRESENTATION(
'202369648mod000_00-None',(#27),#201);
#13=SHAPE_REPRESENTATION_RELATIONSHIP('None',
'relationship between 202369648mod000_00-None and 202369648mod000_00-N
one',#26,#15);
#14=SHAPE_REPRESENTATION_RELATIONSHIP('None',
'relationship between 202369648mod000_00-None and 202369648mod000_00-N
one',#26,#12);
#15=ADVANCED_BREP_SHAPE_REPRESENTATION('202369648mod000_00-None',(#33),
#201);
#16=SHAPE_DEFINITION_REPRESENTATION(#17,#26);
#17=PRODUCT_DEFINITION_SHAPE('','',#18);
#18=PRODUCT_DEFINITION(' ','',#20,#19);
#19=PRODUCT_DEFINITION_CONTEXT('part definition',#25,'design');
#20=PRODUCT_DEFINITION_FORMATION_WITH_SPECIFIED_SOURCE(' ',' ',#22,
 .NOT_KNOWN.);
#21=PRODUCT_RELATED_PRODUCT_CATEGORY('part','',(#22));
#22=PRODUCT('202369648mod000_00','202369648mod000_00',' ',(#23));
#23=PRODUCT_CONTEXT(' ',#25,'mechanical');
#24=APPLICATION_PROTOCOL_DEFINITION('international standard',
'automotive_design',2010,#25);
#25=APPLICATION_CONTEXT(
'core data for automotive mechanical design processes');
#26=SHAPE_REPRESENTATION('202369648mod000_00-None',(#133),#201);
#27=GEOMETRIC_CURVE_SET('None',(#174,#175,#176));
#28=SURFACE_STYLE_USAGE(.BOTH.,#29);
#29=SURFACE_SIDE_STYLE('',(#30));
#30=SURFACE_STYLE_FILL_AREA(#31);
#31=FILL_AREA_STYLE('',(#32));
#32=FILL_AREA_STYLE_COLOUR('',#132);
#33=MANIFOLD_SOLID_BREP('NOCUT',#34);
#34=CLOSED_SHELL('',(#38,#39,#40,#41,#42));
#35=CYLINDRICAL_SURFACE('',#140,31.5);
#36=CIRCLE('',#138,31.5);
#37=CIRCLE('',#139,31.5);
#38=ADVANCED_FACE('',(#47),#43,.F.);
#39=ADVANCED_FACE('',(#48),#35,.T.);
#40=ADVANCED_FACE('',(#49),#44,.F.);
#41=ADVANCED_FACE('',(#50),#45,.T.);
#42=ADVANCED_FACE('',(#51),#46,.F.);
#43=PLANE('',#137);
#44=PLANE('',#141);
#45=PLANE('',#142);
#46=PLANE('',#143);
#47=FACE_OUTER_BOUND('',#52,.T.);
#48=FACE_OUTER_BOUND('',#53,.T.);
#49=FACE_OUTER_BOUND('',#54,.T.);
#50=FACE_OUTER_BOUND('',#55,.T.);
#51=FACE_OUTER_BOUND('',#56,.T.);
#52=EDGE_LOOP('',(#57,#58,#59,#60));
#53=EDGE_LOOP('',(#61,#62,#63,#64));
#54=EDGE_LOOP('',(#65,#66,#67,#68));
#55=EDGE_LOOP('',(#69,#70,#71));
#56=EDGE_LOOP('',(#72,#73,#74));
#57=ORIENTED_EDGE('',*,*,#81,.F.);
#58=ORIENTED_EDGE('',*,*,#82,.T.);
#59=ORIENTED_EDGE('',*,*,#83,.F.);
#60=ORIENTED_EDGE('',*,*,#84,.F.);
#61=ORIENTED_EDGE('',*,*,#85,.F.);
#62=ORIENTED_EDGE('',*,*,#81,.T.);
#63=ORIENTED_EDGE('',*,*,#86,.T.);
#64=ORIENTED_EDGE('',*,*,#87,.F.);
#65=ORIENTED_EDGE('',*,*,#88,.T.);
#66=ORIENTED_EDGE('',*,*,#83,.T.);
#67=ORIENTED_EDGE('',*,*,#89,.F.);
#68=ORIENTED_EDGE('',*,*,#87,.T.);
#69=ORIENTED_EDGE('',*,*,#82,.F.);
#70=ORIENTED_EDGE('',*,*,#85,.T.);
#71=ORIENTED_EDGE('',*,*,#89,.T.);
#72=ORIENTED_EDGE('',*,*,#86,.F.);
#73=ORIENTED_EDGE('',*,*,#84,.T.);
#74=ORIENTED_EDGE('',*,*,#88,.F.);
#75=VERTEX_POINT('',#181);
#76=VERTEX_POINT('',#182);
#77=VERTEX_POINT('',#184);
#78=VERTEX_POINT('',#186);
#79=VERTEX_POINT('',#190);
#80=VERTEX_POINT('',#192);
#81=EDGE_CURVE('',#75,#76,#90,.T.);
#82=EDGE_CURVE('',#75,#77,#91,.T.);
#83=EDGE_CURVE('',#78,#77,#92,.T.);
#84=EDGE_CURVE('',#76,#78,#93,.T.);
#85=EDGE_CURVE('',#75,#79,#36,.T.);
#86=EDGE_CURVE('',#76,#80,#37,.T.);
#87=EDGE_CURVE('',#79,#80,#94,.T.);
#88=EDGE_CURVE('',#80,#78,#95,.T.);
#89=EDGE_CURVE('',#79,#77,#96,.T.);
#90=LINE('',#180,#97);
#91=LINE('',#183,#98);
#92=LINE('',#185,#99);
#93=LINE('',#187,#100);
#94=LINE('',#193,#101);
#95=LINE('',#195,#102);
#96=LINE('',#196,#103);
#97=VECTOR('',#152,1.);
#98=VECTOR('',#153,1.);
#99=VECTOR('',#154,1.);
#100=VECTOR('',#155,1.);
#101=VECTOR('',#162,1.);
#102=VECTOR('',#165,1.);
#103=VECTOR('',#166,1.);
#104=CURVE_STYLE('',#107,POSITIVE_LENGTH_MEASURE(0.18),#131);
#105=CURVE_STYLE('',#108,POSITIVE_LENGTH_MEASURE(0.18),#131);
#106=CURVE_STYLE('',#109,POSITIVE_LENGTH_MEASURE(0.18),#131);
#107=DRAUGHTING_PRE_DEFINED_CURVE_FONT('continuous');
#108=DRAUGHTING_PRE_DEFINED_CURVE_FONT('continuous');
#109=DRAUGHTING_PRE_DEFINED_CURVE_FONT('continuous');
#110=PRESENTATION_LAYER_ASSIGNMENT('1','Layer 1',(#174,#175,#176,#134,#135,
#136,#33));
#111=STYLED_ITEM('',(#118),#174);
#112=STYLED_ITEM('',(#119),#175);
#113=STYLED_ITEM('',(#120),#176);
#114=STYLED_ITEM('',(#121),#134);
#115=STYLED_ITEM('',(#122),#135);
#116=STYLED_ITEM('',(#123),#136);
#117=STYLED_ITEM('',(#124),#33);
#118=PRESENTATION_STYLE_ASSIGNMENT((#125));
#119=PRESENTATION_STYLE_ASSIGNMENT((#126));
#120=PRESENTATION_STYLE_ASSIGNMENT((#127));
#121=PRESENTATION_STYLE_ASSIGNMENT((#104));
#122=PRESENTATION_STYLE_ASSIGNMENT((#105));
#123=PRESENTATION_STYLE_ASSIGNMENT((#106));
#124=PRESENTATION_STYLE_ASSIGNMENT((#28));
#125=POINT_STYLE('',#128,POSITIVE_LENGTH_MEASURE(3.),#131);
#126=POINT_STYLE('',#129,POSITIVE_LENGTH_MEASURE(3.),#131);
#127=POINT_STYLE('',#130,POSITIVE_LENGTH_MEASURE(3.),#131);
#128=PRE_DEFINED_POINT_MARKER_SYMBOL('plus');
#129=PRE_DEFINED_POINT_MARKER_SYMBOL('plus');
#130=PRE_DEFINED_POINT_MARKER_SYMBOL('plus');
#131=COLOUR_RGB('Strong Stone',0.576470588235294,0.54508278019379,0.392156862745098);
#132=COLOUR_RGB('TLS_NOCUT',0.501960784313725,0.501960784313725,0.501960784313725);
#133=AXIS2_PLACEMENT_3D('',#173,#144,#145);
#134=AXIS2_PLACEMENT_3D('PCS',#177,#146,#147);
#135=AXIS2_PLACEMENT_3D('MCS',#178,#148,#149);
#136=AXIS2_PLACEMENT_3D('CSW',#179,#150,#151);
#137=AXIS2_PLACEMENT_3D('',#188,#156,#157);
#138=AXIS2_PLACEMENT_3D('',#189,#158,#159);
#139=AXIS2_PLACEMENT_3D('',#191,#160,#161);
#140=AXIS2_PLACEMENT_3D('',#194,#163,#164);
#141=AXIS2_PLACEMENT_3D('',#197,#167,#168);
#142=AXIS2_PLACEMENT_3D('',#198,#169,#170);
#143=AXIS2_PLACEMENT_3D('',#199,#171,#172);
#144=DIRECTION('',(0.,0.,1.));
#145=DIRECTION('',(1.,0.,0.));
#146=DIRECTION('',(0.,0.,1.));
#147=DIRECTION('',(1.,0.,0.));
#148=DIRECTION('',(0.,-0.258819045102521,0.965925826289068));
#149=DIRECTION('',(1.,0.,0.));
#150=DIRECTION('',(0.,-0.258819045102521,0.965925826289068));
#151=DIRECTION('',(1.,0.,0.));
#152=DIRECTION('',(0.,0.,1.));
#153=DIRECTION('',(0.,1.,0.));
#154=DIRECTION('',(0.,0.,-1.));
#155=DIRECTION('',(0.,1.,0.));
#156=DIRECTION('',(-1.,0.,0.));
#157=DIRECTION('',(0.,0.,1.));
#158=DIRECTION('',(0.,0.,-1.));
#159=DIRECTION('',(-1.,0.,0.));
#160=DIRECTION('',(0.,0.,-1.));
#161=DIRECTION('',(-1.,0.,0.));
#162=DIRECTION('',(0.,0.,1.));
#163=DIRECTION('',(0.,0.,1.));
#164=DIRECTION('',(1.,0.,0.));
#165=DIRECTION('',(1.,0.,0.));
#166=DIRECTION('',(1.,0.,0.));
#167=DIRECTION('',(0.,-1.,0.));
#168=DIRECTION('',(0.,0.,1.));
#169=DIRECTION('',(0.,0.,-1.));
#170=DIRECTION('',(-1.,0.,0.));
#171=DIRECTION('',(0.,0.,-1.));
#172=DIRECTION('',(-1.,0.,0.));
#173=CARTESIAN_POINT('',(0.,0.,0.));
#174=CARTESIAN_POINT('',(0.,0.,0.));
#175=CARTESIAN_POINT('',(4.50590403442918,0.817735496495411,1.55291427061514));
#176=CARTESIAN_POINT('',(4.50590403442918,1.08568468892653,0.552914270615155));
#177=CARTESIAN_POINT('',(0.,0.,0.));
#178=CARTESIAN_POINT('',(4.50590403442918,0.817735496495411,1.55291427061514));
#179=CARTESIAN_POINT('',(4.50590403442918,1.08568468892653,0.552914270615155));
#180=CARTESIAN_POINT('',(30.3,-8.61162005664442,-1.));
#181=CARTESIAN_POINT('',(30.3,-8.61162005664442,-1.));
#182=CARTESIAN_POINT('',(30.3,-8.61162005664442,0.));
#183=CARTESIAN_POINT('',(30.3,0.,-1.));
#184=CARTESIAN_POINT('',(30.3,-5.6,-1.));
#185=CARTESIAN_POINT('',(30.3,-5.6,-1.));
#186=CARTESIAN_POINT('',(30.3,-5.6,0.));
#187=CARTESIAN_POINT('',(30.3,0.,0.));
#188=CARTESIAN_POINT('',(30.3,0.,0.));
#189=CARTESIAN_POINT('',(0.,0.,-1.));
#190=CARTESIAN_POINT('',(-30.9982257556783,-5.6,-1.));
#191=CARTESIAN_POINT('',(0.,0.,0.));
#192=CARTESIAN_POINT('',(-30.9982257556783,-5.6,0.));
#193=CARTESIAN_POINT('',(-30.9982257556783,-5.6,-1.));
#194=CARTESIAN_POINT('',(0.,0.,-1.));
#195=CARTESIAN_POINT('',(-30.9982257556783,-5.6,0.));
#196=CARTESIAN_POINT('',(-30.9982257556783,-5.6,-1.));
#197=CARTESIAN_POINT('',(-30.9982257556783,-5.6,-1.));
#198=CARTESIAN_POINT('',(0.,0.,-1.));
#199=CARTESIAN_POINT('',(0.,0.,0.));
#200=MECHANICAL_DESIGN_GEOMETRIC_PRESENTATION_REPRESENTATION('',(#111,#112,
#113,#114,#115,#116,#117),#201);
#201=(
GEOMETRIC_REPRESENTATION_CONTEXT(3)
GLOBAL_UNCERTAINTY_ASSIGNED_CONTEXT((#202))
GLOBAL_UNIT_ASSIGNED_CONTEXT((#208,#204,#203))
REPRESENTATION_CONTEXT('1562141720951','TOP_LEVEL_ASSEMBLY_PART')
);
#202=UNCERTAINTY_MEASURE_WITH_UNIT(LENGTH_MEASURE(2.E-005),#208,
'DISTANCE_ACCURACY_VALUE','Maximum Tolerance applied to model');
#203=(
NAMED_UNIT(*)
SI_UNIT($,.STERADIAN.)
SOLID_ANGLE_UNIT()
);
#204=(
CONVERSION_BASED_UNIT('DEGREE',#206)
NAMED_UNIT(#205)
PLANE_ANGLE_UNIT()
);
#205=DIMENSIONAL_EXPONENTS(0.,0.,0.,0.,0.,0.,0.);
#206=PLANE_ANGLE_MEASURE_WITH_UNIT(PLANE_ANGLE_MEASURE(0.0174532925),#207);
#207=(
NAMED_UNIT(*)
PLANE_ANGLE_UNIT()
SI_UNIT($,.RADIAN.)
);
#208=(
LENGTH_UNIT()
NAMED_UNIT(*)
SI_UNIT(.MILLI.,.METRE.)
);
ENDSEC;
END-ISO-10303-21;
