ISO-10303-21;
HEADER;
/* Generated by software containing ST-Developer
 * from STEP Tools, Inc. (www.steptools.com) 
 */
/* OPTION: using custom schema-name function */

FILE_DESCRIPTION(
/* description */ (''),
/* implementation_level */ '2;1');

FILE_NAME(
/* name */ '1646639352657.stp',
/* time_stamp */ '2022-03-07T13:19:36+06:00',
/* author */ (''),
/* organization */ ('SMS'),
/* preprocessor_version */ 'ST-DEVELOPER v16.7',
/* originating_system */ 'SIEMENS PLM Software NX 12.0',
/* authorisation */ '');

FILE_SCHEMA (('AUTOMOTIVE_DESIGN { 1 0 10303 214 3 1 1 1 }'));
ENDSEC;

DATA;
#10=CONSTRUCTIVE_GEOMETRY_REPRESENTATION_RELATIONSHIP(
'supplemental geometry','',#26,#11);
#11=CONSTRUCTIVE_GEOMETRY_REPRESENTATION('supplemental geometry',(#387,
#388,#389),#656);
#12=GEOMETRICALLY_BOUNDED_WIREFRAME_SHAPE_REPRESENTATION(
'202195729mod000_00-None',(#27),#656);
#13=SHAPE_REPRESENTATION_RELATIONSHIP('None',
'relationship between 202195729mod000_00-None and 202195729mod000_00-N
one',#26,#15);
#14=SHAPE_REPRESENTATION_RELATIONSHIP('None',
'relationship between 202195729mod000_00-None and 202195729mod000_00-N
one',#26,#12);
#15=ADVANCED_BREP_SHAPE_REPRESENTATION('202195729mod000_00-None',(#33),
#656);
#16=SHAPE_DEFINITION_REPRESENTATION(#17,#26);
#17=PRODUCT_DEFINITION_SHAPE('','',#18);
#18=PRODUCT_DEFINITION(' ','',#20,#19);
#19=PRODUCT_DEFINITION_CONTEXT('part definition',#25,'design');
#20=PRODUCT_DEFINITION_FORMATION_WITH_SPECIFIED_SOURCE(' ',' ',#22,
 .NOT_KNOWN.);
#21=PRODUCT_RELATED_PRODUCT_CATEGORY('part','',(#22));
#22=PRODUCT('202195729mod000_00','202195729mod000_00',' ',(#23));
#23=PRODUCT_CONTEXT(' ',#25,'mechanical');
#24=APPLICATION_PROTOCOL_DEFINITION('international standard',
'automotive_design',2010,#25);
#25=APPLICATION_CONTEXT(
'core data for automotive mechanical design processes');
#26=SHAPE_REPRESENTATION('202195729mod000_00-None',(#386),#656);
#27=GEOMETRIC_CURVE_SET('None',(#541,#542,#543));
#28=SURFACE_STYLE_USAGE(.BOTH.,#29);
#29=SURFACE_SIDE_STYLE('',(#30));
#30=SURFACE_STYLE_FILL_AREA(#31);
#31=FILL_AREA_STYLE('',(#32));
#32=FILL_AREA_STYLE_COLOUR('',#385);
#33=MANIFOLD_SOLID_BREP('NOCUT',#34);
#34=CLOSED_SHELL('',(#100,#101,#102,#103,#104,#105,#106,#107,#108,#109,
#110,#111,#112,#113,#114,#115,#116,#117,#118,#119,#120));
#35=(
BOUNDED_CURVE()
B_SPLINE_CURVE(3,(#613,#614,#615,#616),.UNSPECIFIED.,.F.,.F.)
B_SPLINE_CURVE_WITH_KNOTS((4,4),(0.,1.),.UNSPECIFIED.)
CURVE()
GEOMETRIC_REPRESENTATION_ITEM()
RATIONAL_B_SPLINE_CURVE((1.,0.929960953231428,0.929960953231428,1.))
REPRESENTATION_ITEM('')
);
#36=(
BOUNDED_CURVE()
B_SPLINE_CURVE(3,(#621,#622,#623,#624),.UNSPECIFIED.,.F.,.F.)
B_SPLINE_CURVE_WITH_KNOTS((4,4),(0.,1.),.UNSPECIFIED.)
CURVE()
GEOMETRIC_REPRESENTATION_ITEM()
RATIONAL_B_SPLINE_CURVE((1.,0.929960953231428,0.929960953231428,1.))
REPRESENTATION_ITEM('')
);
#37=(
BOUNDED_CURVE()
B_SPLINE_CURVE(3,(#630,#631,#632,#633),.UNSPECIFIED.,.F.,.F.)
B_SPLINE_CURVE_WITH_KNOTS((4,4),(0.,1.),.UNSPECIFIED.)
CURVE()
GEOMETRIC_REPRESENTATION_ITEM()
RATIONAL_B_SPLINE_CURVE((1.,0.929960953231426,0.929960953231426,1.))
REPRESENTATION_ITEM('')
);
#38=(
BOUNDED_CURVE()
B_SPLINE_CURVE(3,(#637,#638,#639,#640),.UNSPECIFIED.,.F.,.F.)
B_SPLINE_CURVE_WITH_KNOTS((4,4),(0.,1.),.UNSPECIFIED.)
CURVE()
GEOMETRIC_REPRESENTATION_ITEM()
RATIONAL_B_SPLINE_CURVE((1.,0.929960953231427,0.929960953231427,1.))
REPRESENTATION_ITEM('')
);
#39=PLANE('',#411);
#40=PLANE('',#414);
#41=PLANE('',#419);
#42=PLANE('',#423);
#43=PLANE('',#424);
#44=PLANE('',#425);
#45=PLANE('',#426);
#46=PLANE('',#427);
#47=PLANE('',#428);
#48=VERTEX_LOOP('',#276);
#49=TOROIDAL_SURFACE('',#405,5.54999999999999,0.200000000000002);
#50=TOROIDAL_SURFACE('',#430,5.54999999999999,0.200000000000002);
#51=FACE_OUTER_BOUND('',#153,.T.);
#52=FACE_OUTER_BOUND('',#155,.T.);
#53=FACE_OUTER_BOUND('',#162,.T.);
#54=FACE_OUTER_BOUND('',#163,.T.);
#55=FACE_OUTER_BOUND('',#168,.T.);
#56=FACE_OUTER_BOUND('',#169,.T.);
#57=FACE_OUTER_BOUND('',#170,.T.);
#58=FACE_OUTER_BOUND('',#171,.T.);
#59=FACE_OUTER_BOUND('',#172,.T.);
#60=FACE_OUTER_BOUND('',#173,.T.);
#61=FACE_OUTER_BOUND('',#176,.T.);
#62=CONICAL_SURFACE('',#401,8.24999999999999,30.0000000000003);
#63=CONICAL_SURFACE('',#406,3.51025,59.0000000000001);
#64=CONICAL_SURFACE('',#409,8.51849999999999,45.);
#65=CONICAL_SURFACE('',#421,8.51849999999999,45.);
#66=CONICAL_SURFACE('',#429,7.22502043723517,45.0000000000001);
#67=CONICAL_SURFACE('',#431,4.39999999999999,30.0000000000004);
#68=LINE('',#566,#84);
#69=LINE('',#569,#85);
#70=LINE('',#578,#86);
#71=LINE('',#580,#87);
#72=LINE('',#587,#88);
#73=LINE('',#591,#89);
#74=LINE('',#609,#90);
#75=LINE('',#611,#91);
#76=LINE('',#619,#92);
#77=LINE('',#626,#93);
#78=LINE('',#627,#94);
#79=LINE('',#635,#95);
#80=LINE('',#642,#96);
#81=LINE('',#644,#97);
#82=LINE('',#647,#98);
#83=LINE('',#649,#99);
#84=VECTOR('',#460,1.);
#85=VECTOR('',#463,1.);
#86=VECTOR('',#474,1.);
#87=VECTOR('',#475,1.);
#88=VECTOR('',#480,1.);
#89=VECTOR('',#483,1.);
#90=VECTOR('',#510,1.);
#91=VECTOR('',#511,1.);
#92=VECTOR('',#512,1.);
#93=VECTOR('',#513,1.);
#94=VECTOR('',#514,1.);
#95=VECTOR('',#515,1.);
#96=VECTOR('',#518,1.);
#97=VECTOR('',#521,1.);
#98=VECTOR('',#526,1.);
#99=VECTOR('',#529,1.);
#100=ADVANCED_FACE('',(#125,#126),#121,.F.);
#101=ADVANCED_FACE('',(#127,#128),#122,.T.);
#102=ADVANCED_FACE('',(#129,#130),#62,.T.);
#103=ADVANCED_FACE('',(#51),#49,.F.);
#104=ADVANCED_FACE('',(#131,#132),#63,.F.);
#105=ADVANCED_FACE('',(#52),#64,.T.);
#106=ADVANCED_FACE('',(#133,#134),#39,.F.);
#107=ADVANCED_FACE('',(#135,#136),#40,.T.);
#108=ADVANCED_FACE('',(#137,#138),#123,.T.);
#109=ADVANCED_FACE('',(#53),#41,.T.);
#110=ADVANCED_FACE('',(#54),#65,.T.);
#111=ADVANCED_FACE('',(#139,#140,#141,#142),#124,.T.);
#112=ADVANCED_FACE('',(#55),#42,.F.);
#113=ADVANCED_FACE('',(#56),#43,.F.);
#114=ADVANCED_FACE('',(#57),#44,.F.);
#115=ADVANCED_FACE('',(#58),#45,.F.);
#116=ADVANCED_FACE('',(#59),#46,.F.);
#117=ADVANCED_FACE('',(#60),#47,.F.);
#118=ADVANCED_FACE('',(#143,#144),#66,.T.);
#119=ADVANCED_FACE('',(#61),#50,.F.);
#120=ADVANCED_FACE('',(#145,#146),#67,.T.);
#121=CYLINDRICAL_SURFACE('',#393,3.51025);
#122=CYLINDRICAL_SURFACE('',#397,5.34999999999999);
#123=CYLINDRICAL_SURFACE('',#417,5.61499999999999);
#124=CYLINDRICAL_SURFACE('',#422,9.51849999999999);
#125=FACE_BOUND('',#147,.T.);
#126=FACE_BOUND('',#148,.T.);
#127=FACE_BOUND('',#149,.T.);
#128=FACE_BOUND('',#150,.T.);
#129=FACE_BOUND('',#151,.T.);
#130=FACE_BOUND('',#152,.T.);
#131=FACE_BOUND('',#154,.T.);
#132=FACE_BOUND('',#48,.T.);
#133=FACE_BOUND('',#156,.T.);
#134=FACE_BOUND('',#157,.T.);
#135=FACE_BOUND('',#158,.T.);
#136=FACE_BOUND('',#159,.T.);
#137=FACE_BOUND('',#160,.T.);
#138=FACE_BOUND('',#161,.T.);
#139=FACE_BOUND('',#164,.T.);
#140=FACE_BOUND('',#165,.T.);
#141=FACE_BOUND('',#166,.T.);
#142=FACE_BOUND('',#167,.T.);
#143=FACE_BOUND('',#174,.T.);
#144=FACE_BOUND('',#175,.T.);
#145=FACE_BOUND('',#177,.T.);
#146=FACE_BOUND('',#178,.T.);
#147=EDGE_LOOP('',(#179));
#148=EDGE_LOOP('',(#180,#181));
#149=EDGE_LOOP('',(#182,#183));
#150=EDGE_LOOP('',(#184));
#151=EDGE_LOOP('',(#185));
#152=EDGE_LOOP('',(#186,#187,#188,#189,#190,#191));
#153=EDGE_LOOP('',(#192,#193,#194,#195));
#154=EDGE_LOOP('',(#196,#197,#198,#199,#200,#201));
#155=EDGE_LOOP('',(#202,#203,#204,#205));
#156=EDGE_LOOP('',(#206,#207));
#157=EDGE_LOOP('',(#208,#209));
#158=EDGE_LOOP('',(#210,#211));
#159=EDGE_LOOP('',(#212));
#160=EDGE_LOOP('',(#213));
#161=EDGE_LOOP('',(#214));
#162=EDGE_LOOP('',(#215,#216));
#163=EDGE_LOOP('',(#217,#218,#219,#220));
#164=EDGE_LOOP('',(#221));
#165=EDGE_LOOP('',(#222,#223,#224,#225,#226,#227));
#166=EDGE_LOOP('',(#228,#229,#230,#231));
#167=EDGE_LOOP('',(#232,#233,#234,#235));
#168=EDGE_LOOP('',(#236,#237));
#169=EDGE_LOOP('',(#238,#239));
#170=EDGE_LOOP('',(#240,#241,#242,#243));
#171=EDGE_LOOP('',(#244,#245));
#172=EDGE_LOOP('',(#246,#247,#248,#249));
#173=EDGE_LOOP('',(#250,#251));
#174=EDGE_LOOP('',(#252));
#175=EDGE_LOOP('',(#253));
#176=EDGE_LOOP('',(#254,#255,#256,#257));
#177=EDGE_LOOP('',(#258));
#178=EDGE_LOOP('',(#259,#260));
#179=ORIENTED_EDGE('',*,*,#295,.T.);
#180=ORIENTED_EDGE('',*,*,#296,.F.);
#181=ORIENTED_EDGE('',*,*,#297,.F.);
#182=ORIENTED_EDGE('',*,*,#298,.F.);
#183=ORIENTED_EDGE('',*,*,#299,.F.);
#184=ORIENTED_EDGE('',*,*,#300,.T.);
#185=ORIENTED_EDGE('',*,*,#301,.F.);
#186=ORIENTED_EDGE('',*,*,#302,.T.);
#187=ORIENTED_EDGE('',*,*,#303,.F.);
#188=ORIENTED_EDGE('',*,*,#303,.T.);
#189=ORIENTED_EDGE('',*,*,#304,.T.);
#190=ORIENTED_EDGE('',*,*,#305,.F.);
#191=ORIENTED_EDGE('',*,*,#305,.T.);
#192=ORIENTED_EDGE('',*,*,#306,.F.);
#193=ORIENTED_EDGE('',*,*,#307,.F.);
#194=ORIENTED_EDGE('',*,*,#299,.T.);
#195=ORIENTED_EDGE('',*,*,#308,.T.);
#196=ORIENTED_EDGE('',*,*,#309,.F.);
#197=ORIENTED_EDGE('',*,*,#309,.T.);
#198=ORIENTED_EDGE('',*,*,#297,.T.);
#199=ORIENTED_EDGE('',*,*,#310,.F.);
#200=ORIENTED_EDGE('',*,*,#310,.T.);
#201=ORIENTED_EDGE('',*,*,#296,.T.);
#202=ORIENTED_EDGE('',*,*,#311,.F.);
#203=ORIENTED_EDGE('',*,*,#312,.T.);
#204=ORIENTED_EDGE('',*,*,#313,.T.);
#205=ORIENTED_EDGE('',*,*,#314,.F.);
#206=ORIENTED_EDGE('',*,*,#315,.T.);
#207=ORIENTED_EDGE('',*,*,#306,.T.);
#208=ORIENTED_EDGE('',*,*,#302,.F.);
#209=ORIENTED_EDGE('',*,*,#304,.F.);
#210=ORIENTED_EDGE('',*,*,#316,.F.);
#211=ORIENTED_EDGE('',*,*,#317,.F.);
#212=ORIENTED_EDGE('',*,*,#295,.F.);
#213=ORIENTED_EDGE('',*,*,#318,.F.);
#214=ORIENTED_EDGE('',*,*,#319,.T.);
#215=ORIENTED_EDGE('',*,*,#320,.T.);
#216=ORIENTED_EDGE('',*,*,#311,.T.);
#217=ORIENTED_EDGE('',*,*,#312,.F.);
#218=ORIENTED_EDGE('',*,*,#320,.F.);
#219=ORIENTED_EDGE('',*,*,#314,.T.);
#220=ORIENTED_EDGE('',*,*,#321,.T.);
#221=ORIENTED_EDGE('',*,*,#301,.T.);
#222=ORIENTED_EDGE('',*,*,#322,.T.);
#223=ORIENTED_EDGE('',*,*,#322,.F.);
#224=ORIENTED_EDGE('',*,*,#313,.F.);
#225=ORIENTED_EDGE('',*,*,#323,.T.);
#226=ORIENTED_EDGE('',*,*,#323,.F.);
#227=ORIENTED_EDGE('',*,*,#321,.F.);
#228=ORIENTED_EDGE('',*,*,#324,.F.);
#229=ORIENTED_EDGE('',*,*,#325,.F.);
#230=ORIENTED_EDGE('',*,*,#326,.F.);
#231=ORIENTED_EDGE('',*,*,#327,.F.);
#232=ORIENTED_EDGE('',*,*,#328,.F.);
#233=ORIENTED_EDGE('',*,*,#329,.F.);
#234=ORIENTED_EDGE('',*,*,#330,.F.);
#235=ORIENTED_EDGE('',*,*,#331,.F.);
#236=ORIENTED_EDGE('',*,*,#331,.T.);
#237=ORIENTED_EDGE('',*,*,#332,.F.);
#238=ORIENTED_EDGE('',*,*,#329,.T.);
#239=ORIENTED_EDGE('',*,*,#333,.T.);
#240=ORIENTED_EDGE('',*,*,#328,.T.);
#241=ORIENTED_EDGE('',*,*,#332,.T.);
#242=ORIENTED_EDGE('',*,*,#330,.T.);
#243=ORIENTED_EDGE('',*,*,#333,.F.);
#244=ORIENTED_EDGE('',*,*,#324,.T.);
#245=ORIENTED_EDGE('',*,*,#334,.T.);
#246=ORIENTED_EDGE('',*,*,#325,.T.);
#247=ORIENTED_EDGE('',*,*,#334,.F.);
#248=ORIENTED_EDGE('',*,*,#327,.T.);
#249=ORIENTED_EDGE('',*,*,#335,.T.);
#250=ORIENTED_EDGE('',*,*,#326,.T.);
#251=ORIENTED_EDGE('',*,*,#335,.F.);
#252=ORIENTED_EDGE('',*,*,#318,.T.);
#253=ORIENTED_EDGE('',*,*,#300,.F.);
#254=ORIENTED_EDGE('',*,*,#307,.T.);
#255=ORIENTED_EDGE('',*,*,#315,.F.);
#256=ORIENTED_EDGE('',*,*,#308,.F.);
#257=ORIENTED_EDGE('',*,*,#298,.T.);
#258=ORIENTED_EDGE('',*,*,#319,.F.);
#259=ORIENTED_EDGE('',*,*,#317,.T.);
#260=ORIENTED_EDGE('',*,*,#316,.T.);
#261=VERTEX_POINT('',#548);
#262=VERTEX_POINT('',#550);
#263=VERTEX_POINT('',#551);
#264=VERTEX_POINT('',#555);
#265=VERTEX_POINT('',#556);
#266=VERTEX_POINT('',#559);
#267=VERTEX_POINT('',#562);
#268=VERTEX_POINT('',#564);
#269=VERTEX_POINT('',#565);
#270=VERTEX_POINT('',#567);
#271=VERTEX_POINT('',#570);
#272=VERTEX_POINT('',#573);
#273=VERTEX_POINT('',#574);
#274=VERTEX_POINT('',#579);
#275=VERTEX_POINT('',#581);
#276=VERTEX_POINT('',#582);
#277=VERTEX_POINT('',#585);
#278=VERTEX_POINT('',#586);
#279=VERTEX_POINT('',#588);
#280=VERTEX_POINT('',#590);
#281=VERTEX_POINT('',#596);
#282=VERTEX_POINT('',#597);
#283=VERTEX_POINT('',#601);
#284=VERTEX_POINT('',#603);
#285=VERTEX_POINT('',#610);
#286=VERTEX_POINT('',#612);
#287=VERTEX_POINT('',#617);
#288=VERTEX_POINT('',#618);
#289=VERTEX_POINT('',#620);
#290=VERTEX_POINT('',#625);
#291=VERTEX_POINT('',#628);
#292=VERTEX_POINT('',#629);
#293=VERTEX_POINT('',#634);
#294=VERTEX_POINT('',#636);
#295=EDGE_CURVE('',#261,#261,#336,.T.);
#296=EDGE_CURVE('',#262,#263,#337,.T.);
#297=EDGE_CURVE('',#263,#262,#338,.T.);
#298=EDGE_CURVE('',#264,#265,#339,.T.);
#299=EDGE_CURVE('',#265,#264,#340,.T.);
#300=EDGE_CURVE('',#266,#266,#341,.T.);
#301=EDGE_CURVE('',#267,#267,#342,.T.);
#302=EDGE_CURVE('',#268,#269,#343,.T.);
#303=EDGE_CURVE('',#270,#269,#68,.T.);
#304=EDGE_CURVE('',#269,#268,#344,.T.);
#305=EDGE_CURVE('',#271,#268,#69,.T.);
#306=EDGE_CURVE('',#272,#273,#345,.T.);
#307=EDGE_CURVE('',#265,#272,#346,.T.);
#308=EDGE_CURVE('',#264,#273,#347,.T.);
#309=EDGE_CURVE('',#274,#263,#70,.T.);
#310=EDGE_CURVE('',#275,#262,#71,.T.);
#311=EDGE_CURVE('',#277,#278,#348,.T.);
#312=EDGE_CURVE('',#277,#279,#72,.T.);
#313=EDGE_CURVE('',#279,#280,#349,.T.);
#314=EDGE_CURVE('',#278,#280,#73,.T.);
#315=EDGE_CURVE('',#273,#272,#350,.T.);
#316=EDGE_CURVE('',#281,#282,#351,.T.);
#317=EDGE_CURVE('',#282,#281,#352,.T.);
#318=EDGE_CURVE('',#283,#283,#353,.T.);
#319=EDGE_CURVE('',#284,#284,#354,.T.);
#320=EDGE_CURVE('',#278,#277,#355,.T.);
#321=EDGE_CURVE('',#280,#279,#356,.T.);
#322=EDGE_CURVE('',#280,#285,#74,.T.);
#323=EDGE_CURVE('',#279,#286,#75,.T.);
#324=EDGE_CURVE('',#287,#288,#35,.T.);
#325=EDGE_CURVE('',#289,#287,#76,.T.);
#326=EDGE_CURVE('',#290,#289,#36,.T.);
#327=EDGE_CURVE('',#288,#290,#77,.T.);
#328=EDGE_CURVE('',#291,#292,#78,.T.);
#329=EDGE_CURVE('',#293,#291,#37,.T.);
#330=EDGE_CURVE('',#294,#293,#79,.T.);
#331=EDGE_CURVE('',#292,#294,#38,.T.);
#332=EDGE_CURVE('',#292,#294,#80,.T.);
#333=EDGE_CURVE('',#291,#293,#81,.T.);
#334=EDGE_CURVE('',#288,#287,#82,.T.);
#335=EDGE_CURVE('',#290,#289,#83,.T.);
#336=CIRCLE('',#390,3.51025);
#337=CIRCLE('',#391,3.51025);
#338=CIRCLE('',#392,3.51025);
#339=CIRCLE('',#394,5.34999999999999);
#340=CIRCLE('',#395,5.34999999999999);
#341=CIRCLE('',#396,5.34999999999999);
#342=CIRCLE('',#398,9.51849999999999);
#343=CIRCLE('',#399,8.24999999999999);
#344=CIRCLE('',#400,8.24999999999999);
#345=CIRCLE('',#402,5.54999999999999);
#346=CIRCLE('',#403,0.200000000000002);
#347=CIRCLE('',#404,0.200000000000002);
#348=CIRCLE('',#407,8.51849999999999);
#349=CIRCLE('',#408,9.51849999999999);
#350=CIRCLE('',#410,5.54999999999999);
#351=CIRCLE('',#412,4.39999999999999);
#352=CIRCLE('',#413,4.39999999999999);
#353=CIRCLE('',#415,5.61499999999999);
#354=CIRCLE('',#416,5.61499999999999);
#355=CIRCLE('',#418,8.51849999999999);
#356=CIRCLE('',#420,9.51849999999999);
#357=CURVE_STYLE('',#360,POSITIVE_LENGTH_MEASURE(0.18),#384);
#358=CURVE_STYLE('',#361,POSITIVE_LENGTH_MEASURE(0.18),#384);
#359=CURVE_STYLE('',#362,POSITIVE_LENGTH_MEASURE(0.18),#384);
#360=DRAUGHTING_PRE_DEFINED_CURVE_FONT('continuous');
#361=DRAUGHTING_PRE_DEFINED_CURVE_FONT('continuous');
#362=DRAUGHTING_PRE_DEFINED_CURVE_FONT('continuous');
#363=PRESENTATION_LAYER_ASSIGNMENT('1','Layer 1',(#541,#542,#543,#387,#388,
#389,#33));
#364=STYLED_ITEM('',(#371),#541);
#365=STYLED_ITEM('',(#372),#542);
#366=STYLED_ITEM('',(#373),#543);
#367=STYLED_ITEM('',(#374),#387);
#368=STYLED_ITEM('',(#375),#388);
#369=STYLED_ITEM('',(#376),#389);
#370=STYLED_ITEM('',(#377),#33);
#371=PRESENTATION_STYLE_ASSIGNMENT((#378));
#372=PRESENTATION_STYLE_ASSIGNMENT((#379));
#373=PRESENTATION_STYLE_ASSIGNMENT((#380));
#374=PRESENTATION_STYLE_ASSIGNMENT((#357));
#375=PRESENTATION_STYLE_ASSIGNMENT((#358));
#376=PRESENTATION_STYLE_ASSIGNMENT((#359));
#377=PRESENTATION_STYLE_ASSIGNMENT((#28));
#378=POINT_STYLE('',#381,POSITIVE_LENGTH_MEASURE(3.),#384);
#379=POINT_STYLE('',#382,POSITIVE_LENGTH_MEASURE(3.),#384);
#380=POINT_STYLE('',#383,POSITIVE_LENGTH_MEASURE(3.),#384);
#381=PRE_DEFINED_POINT_MARKER_SYMBOL('plus');
#382=PRE_DEFINED_POINT_MARKER_SYMBOL('plus');
#383=PRE_DEFINED_POINT_MARKER_SYMBOL('plus');
#384=COLOUR_RGB('Medium Maroon',0.6,0.4,0.4);
#385=COLOUR_RGB('Medium Gray',0.501960784313725,0.501960784313725,0.501960784313725);
#386=AXIS2_PLACEMENT_3D('',#540,#432,#433);
#387=AXIS2_PLACEMENT_3D('PCS',#544,#434,#435);
#388=AXIS2_PLACEMENT_3D('CSW',#545,#436,#437);
#389=AXIS2_PLACEMENT_3D('MCS',#546,#438,#439);
#390=AXIS2_PLACEMENT_3D('',#547,#440,#441);
#391=AXIS2_PLACEMENT_3D('',#549,#442,#443);
#392=AXIS2_PLACEMENT_3D('',#552,#444,#445);
#393=AXIS2_PLACEMENT_3D('',#553,#446,#447);
#394=AXIS2_PLACEMENT_3D('',#554,#448,#449);
#395=AXIS2_PLACEMENT_3D('',#557,#450,#451);
#396=AXIS2_PLACEMENT_3D('',#558,#452,#453);
#397=AXIS2_PLACEMENT_3D('',#560,#454,#455);
#398=AXIS2_PLACEMENT_3D('',#561,#456,#457);
#399=AXIS2_PLACEMENT_3D('',#563,#458,#459);
#400=AXIS2_PLACEMENT_3D('',#568,#461,#462);
#401=AXIS2_PLACEMENT_3D('',#571,#464,#465);
#402=AXIS2_PLACEMENT_3D('',#572,#466,#467);
#403=AXIS2_PLACEMENT_3D('',#575,#468,#469);
#404=AXIS2_PLACEMENT_3D('',#576,#470,#471);
#405=AXIS2_PLACEMENT_3D('',#577,#472,#473);
#406=AXIS2_PLACEMENT_3D('',#583,#476,#477);
#407=AXIS2_PLACEMENT_3D('',#584,#478,#479);
#408=AXIS2_PLACEMENT_3D('',#589,#481,#482);
#409=AXIS2_PLACEMENT_3D('',#592,#484,#485);
#410=AXIS2_PLACEMENT_3D('',#593,#486,#487);
#411=AXIS2_PLACEMENT_3D('',#594,#488,#489);
#412=AXIS2_PLACEMENT_3D('',#595,#490,#491);
#413=AXIS2_PLACEMENT_3D('',#598,#492,#493);
#414=AXIS2_PLACEMENT_3D('',#599,#494,#495);
#415=AXIS2_PLACEMENT_3D('',#600,#496,#497);
#416=AXIS2_PLACEMENT_3D('',#602,#498,#499);
#417=AXIS2_PLACEMENT_3D('',#604,#500,#501);
#418=AXIS2_PLACEMENT_3D('',#605,#502,#503);
#419=AXIS2_PLACEMENT_3D('',#606,#504,#505);
#420=AXIS2_PLACEMENT_3D('',#607,#506,#507);
#421=AXIS2_PLACEMENT_3D('',#608,#508,#509);
#422=AXIS2_PLACEMENT_3D('',#641,#516,#517);
#423=AXIS2_PLACEMENT_3D('',#643,#519,#520);
#424=AXIS2_PLACEMENT_3D('',#645,#522,#523);
#425=AXIS2_PLACEMENT_3D('',#646,#524,#525);
#426=AXIS2_PLACEMENT_3D('',#648,#527,#528);
#427=AXIS2_PLACEMENT_3D('',#650,#530,#531);
#428=AXIS2_PLACEMENT_3D('',#651,#532,#533);
#429=AXIS2_PLACEMENT_3D('',#652,#534,#535);
#430=AXIS2_PLACEMENT_3D('',#653,#536,#537);
#431=AXIS2_PLACEMENT_3D('',#654,#538,#539);
#432=DIRECTION('',(0.,0.,1.));
#433=DIRECTION('',(1.,0.,0.));
#434=DIRECTION('',(0.,0.,1.));
#435=DIRECTION('',(1.,0.,0.));
#436=DIRECTION('',(0.,0.,1.));
#437=DIRECTION('',(1.,0.,0.));
#438=DIRECTION('',(0.,0.,1.));
#439=DIRECTION('',(1.,0.,0.));
#440=DIRECTION('',(0.,0.,-1.));
#441=DIRECTION('',(-1.,0.,0.));
#442=DIRECTION('',(0.,0.,-1.));
#443=DIRECTION('',(-1.,0.,0.));
#444=DIRECTION('',(0.,0.,-1.));
#445=DIRECTION('',(-1.,0.,0.));
#446=DIRECTION('',(0.,0.,-1.));
#447=DIRECTION('',(1.,0.,0.));
#448=DIRECTION('',(0.,0.,1.));
#449=DIRECTION('',(1.,0.,0.));
#450=DIRECTION('',(0.,0.,1.));
#451=DIRECTION('',(1.,0.,0.));
#452=DIRECTION('',(0.,0.,1.));
#453=DIRECTION('',(-1.,0.,0.));
#454=DIRECTION('',(0.,0.,1.));
#455=DIRECTION('',(-1.,0.,0.));
#456=DIRECTION('',(0.,0.,1.));
#457=DIRECTION('',(1.,0.,0.));
#458=DIRECTION('',(0.,0.,1.));
#459=DIRECTION('',(1.,0.,0.));
#460=DIRECTION('',(0.500000000000005,-6.12323399573683E-17,-0.866025403784436));
#461=DIRECTION('',(0.,0.,1.));
#462=DIRECTION('',(1.,0.,0.));
#463=DIRECTION('',(-0.500000000000005,0.,-0.866025403784436));
#464=DIRECTION('',(0.,0.,1.));
#465=DIRECTION('',(-1.,0.,-4.73967944960778E-17));
#466=DIRECTION('',(0.,0.,1.));
#467=DIRECTION('',(1.,0.,0.));
#468=DIRECTION('',(-1.22464679914735E-16,-1.,0.));
#469=DIRECTION('',(-1.,1.22464679914735E-16,0.));
#470=DIRECTION('',(0.,1.,0.));
#471=DIRECTION('',(1.,0.,0.));
#472=DIRECTION('',(0.,0.,1.));
#473=DIRECTION('',(-1.,0.,0.));
#474=DIRECTION('',(-0.857167300702113,0.,-0.515038074910052));
#475=DIRECTION('',(0.857167300702113,1.04972719113862E-16,-0.515038074910052));
#476=DIRECTION('',(0.,0.,-1.));
#477=DIRECTION('',(1.,0.,-4.16053281136812E-17));
#478=DIRECTION('',(0.,0.,1.));
#479=DIRECTION('',(1.,0.,0.));
#480=DIRECTION('',(0.707106781186548,8.65956056235494E-17,-0.707106781186547));
#481=DIRECTION('',(0.,0.,1.));
#482=DIRECTION('',(1.,0.,0.));
#483=DIRECTION('',(-0.707106781186548,0.,-0.707106781186547));
#484=DIRECTION('',(0.,0.,-1.));
#485=DIRECTION('',(1.,0.,0.));
#486=DIRECTION('',(0.,0.,1.));
#487=DIRECTION('',(1.,0.,0.));
#488=DIRECTION('',(0.,0.,1.));
#489=DIRECTION('',(-1.,0.,0.));
#490=DIRECTION('',(0.,0.,1.));
#491=DIRECTION('',(1.,0.,0.));
#492=DIRECTION('',(0.,0.,1.));
#493=DIRECTION('',(1.,0.,0.));
#494=DIRECTION('',(0.,0.,-1.));
#495=DIRECTION('',(1.,0.,0.));
#496=DIRECTION('',(0.,0.,1.));
#497=DIRECTION('',(-1.,0.,0.));
#498=DIRECTION('',(0.,0.,1.));
#499=DIRECTION('',(1.,0.,0.));
#500=DIRECTION('',(0.,0.,1.));
#501=DIRECTION('',(-1.,0.,0.));
#502=DIRECTION('',(0.,0.,1.));
#503=DIRECTION('',(1.,0.,0.));
#504=DIRECTION('',(0.,0.,1.));
#505=DIRECTION('',(-1.,0.,0.));
#506=DIRECTION('',(0.,0.,1.));
#507=DIRECTION('',(1.,0.,0.));
#508=DIRECTION('',(0.,0.,-1.));
#509=DIRECTION('',(1.,0.,0.));
#510=DIRECTION('',(0.,0.,-1.));
#511=DIRECTION('',(0.,0.,-1.));
#512=DIRECTION('',(0.,0.,-1.));
#513=DIRECTION('',(0.,0.,1.));
#514=DIRECTION('',(0.,0.,-1.));
#515=DIRECTION('',(0.,0.,1.));
#516=DIRECTION('',(0.,0.,1.));
#517=DIRECTION('',(-1.,0.,0.));
#518=DIRECTION('',(-1.,0.,0.));
#519=DIRECTION('',(0.,-0.70710678118655,-0.707106781186545));
#520=DIRECTION('',(0.,0.707106781186545,-0.70710678118655));
#521=DIRECTION('',(-1.,0.,0.));
#522=DIRECTION('',(0.,-0.707106781186546,0.707106781186549));
#523=DIRECTION('',(0.,-0.707106781186549,-0.707106781186546));
#524=DIRECTION('',(0.,-1.,0.));
#525=DIRECTION('',(-1.,0.,0.));
#526=DIRECTION('',(-1.,0.,0.));
#527=DIRECTION('',(0.,0.707106781186545,-0.70710678118655));
#528=DIRECTION('',(0.,0.70710678118655,0.707106781186545));
#529=DIRECTION('',(-1.,0.,0.));
#530=DIRECTION('',(0.,1.,0.));
#531=DIRECTION('',(1.,0.,0.));
#532=DIRECTION('',(0.,0.707106781186546,0.707106781186549));
#533=DIRECTION('',(0.,-0.707106781186549,0.707106781186546));
#534=DIRECTION('',(0.,0.,-1.));
#535=DIRECTION('',(1.,0.,9.64476782085205E-17));
#536=DIRECTION('',(0.,0.,1.));
#537=DIRECTION('',(-1.,0.,0.));
#538=DIRECTION('',(0.,0.,1.));
#539=DIRECTION('',(-1.,0.,0.));
#540=CARTESIAN_POINT('',(0.,0.,0.));
#541=CARTESIAN_POINT('',(0.,0.,0.));
#542=CARTESIAN_POINT('',(0.,0.,-110.));
#543=CARTESIAN_POINT('',(0.,0.,-83.5));
#544=CARTESIAN_POINT('',(0.,0.,0.));
#545=CARTESIAN_POINT('',(0.,0.,-110.));
#546=CARTESIAN_POINT('',(0.,0.,-83.5));
#547=CARTESIAN_POINT('',(0.,2.1965691336633E-17,-110.));
#548=CARTESIAN_POINT('',(-3.51025,2.1965691336633E-17,-110.));
#549=CARTESIAN_POINT('',(0.,2.1965691336633E-17,-80.));
#550=CARTESIAN_POINT('',(3.51025,4.51847334007333E-16,-80.));
#551=CARTESIAN_POINT('',(-3.51025,2.1965691336633E-17,-80.));
#552=CARTESIAN_POINT('',(0.,2.1965691336633E-17,-80.));
#553=CARTESIAN_POINT('',(0.,2.1965691336633E-17,-80.));
#554=CARTESIAN_POINT('',(0.,0.,-92.7));
#555=CARTESIAN_POINT('',(5.34999999999999,0.,-92.7));
#556=CARTESIAN_POINT('',(-5.34999999999999,6.55186037543833E-16,-92.7));
#557=CARTESIAN_POINT('',(0.,0.,-92.7));
#558=CARTESIAN_POINT('',(0.,0.,-96.8828427124746));
#559=CARTESIAN_POINT('',(-5.34999999999999,0.,-96.8828427124746));
#560=CARTESIAN_POINT('',(0.,0.,0.));
#561=CARTESIAN_POINT('',(0.,0.,-90.3028935505989));
#562=CARTESIAN_POINT('',(9.51849999999999,0.,-90.3028935505989));
#563=CARTESIAN_POINT('',(0.,0.,-92.5));
#564=CARTESIAN_POINT('',(8.24999999999999,0.,-92.5));
#565=CARTESIAN_POINT('',(-8.24999999999999,1.08800683253249E-15,-92.5));
#566=CARTESIAN_POINT('',(-8.24999999999999,1.01033360929657E-15,-92.5));
#567=CARTESIAN_POINT('',(-9.25844033295212,-2.79214513345949E-16,-90.7533301069252));
#568=CARTESIAN_POINT('',(0.,0.,-92.5));
#569=CARTESIAN_POINT('',(8.24999999999999,0.,-92.5));
#570=CARTESIAN_POINT('',(9.25844033295212,-8.77426820864047E-16,-90.7533301069252));
#571=CARTESIAN_POINT('',(0.,0.,-92.5));
#572=CARTESIAN_POINT('',(0.,0.,-92.5));
#573=CARTESIAN_POINT('',(-5.54999999999999,6.7967897352678E-16,-92.5));
#574=CARTESIAN_POINT('',(5.54999999999999,0.,-92.5));
#575=CARTESIAN_POINT('',(-5.54999999999999,6.7967897352678E-16,-92.7));
#576=CARTESIAN_POINT('',(5.54999999999999,0.,-92.7));
#577=CARTESIAN_POINT('',(0.,0.,-92.7));
#578=CARTESIAN_POINT('',(-3.51025,2.1965691336633E-17,-80.));
#579=CARTESIAN_POINT('',(-2.,2.4492935982947E-16,-79.0925502501136));
#580=CARTESIAN_POINT('',(3.51025,4.51847334007333E-16,-80.));
#581=CARTESIAN_POINT('',(2.,0.,-79.0925502501136));
#582=CARTESIAN_POINT('',(0.,2.1965691336633E-17,-77.8908290120585));
#583=CARTESIAN_POINT('',(0.,2.1965691336633E-17,-80.));
#584=CARTESIAN_POINT('',(0.,0.,0.));
#585=CARTESIAN_POINT('',(8.51849999999999,1.10444771581104E-15,0.));
#586=CARTESIAN_POINT('',(-8.51849999999999,0.,0.));
#587=CARTESIAN_POINT('',(8.51849999999999,1.04321537585367E-15,0.));
#588=CARTESIAN_POINT('',(9.51849999999999,1.16568005576841E-15,-1.));
#589=CARTESIAN_POINT('',(0.,0.,-1.));
#590=CARTESIAN_POINT('',(-9.51849999999999,0.,-1.));
#591=CARTESIAN_POINT('',(-8.51849999999999,0.,0.));
#592=CARTESIAN_POINT('',(0.,0.,0.));
#593=CARTESIAN_POINT('',(0.,0.,-92.5));
#594=CARTESIAN_POINT('',(0.,9.01849999999998,-92.5));
#595=CARTESIAN_POINT('',(0.,0.,-110.));
#596=CARTESIAN_POINT('',(-2.21014130844797,3.80463866834839,-110.));
#597=CARTESIAN_POINT('',(3.50133618244522,2.66470353651205,-110.));
#598=CARTESIAN_POINT('',(0.,0.,-110.));
#599=CARTESIAN_POINT('',(0.,-1.34711147906209E-14,-110.));
#600=CARTESIAN_POINT('',(0.,0.,-97.1478427124746));
#601=CARTESIAN_POINT('',(5.60943178940611,0.249999999999998,-97.1478427124746));
#602=CARTESIAN_POINT('',(0.,0.,-107.895558268804));
#603=CARTESIAN_POINT('',(-2.22415743162323,5.15571030211697,-107.895558268804));
#604=CARTESIAN_POINT('',(0.,0.,0.));
#605=CARTESIAN_POINT('',(0.,0.,0.));
#606=CARTESIAN_POINT('',(0.,3.,0.));
#607=CARTESIAN_POINT('',(0.,0.,-1.));
#608=CARTESIAN_POINT('',(0.,0.,0.));
#609=CARTESIAN_POINT('',(-9.51849999999999,1.16568005576841E-15,0.));
#610=CARTESIAN_POINT('',(-9.51849999999999,-2.85577859279006E-16,-89.2466698930747));
#611=CARTESIAN_POINT('',(9.51849999999999,0.,0.));
#612=CARTESIAN_POINT('',(9.51849999999999,-9.22269598785254E-16,-89.2466698930747));
#613=CARTESIAN_POINT('',(-4.24699894042837,-8.5185,-82.5));
#614=CARTESIAN_POINT('',(-1.52228575679115,-9.87693798836398,-83.858437988364));
#615=CARTESIAN_POINT('',(1.52228575679115,-9.87693798836398,-83.858437988364));
#616=CARTESIAN_POINT('',(4.24699894042837,-8.5185,-82.5));
#617=CARTESIAN_POINT('',(-4.24699894042837,-8.5185,-82.5));
#618=CARTESIAN_POINT('',(4.24699894042837,-8.5185,-82.5));
#619=CARTESIAN_POINT('',(-4.24699894042837,-8.5185,0.));
#620=CARTESIAN_POINT('',(-4.24699894042837,-8.5185,-5.));
#621=CARTESIAN_POINT('',(4.24699894042837,-8.5185,-5.));
#622=CARTESIAN_POINT('',(1.52228575679115,-9.87693798836398,-3.64156201163604));
#623=CARTESIAN_POINT('',(-1.52228575679115,-9.87693798836398,-3.64156201163604));
#624=CARTESIAN_POINT('',(-4.24699894042837,-8.5185,-5.));
#625=CARTESIAN_POINT('',(4.24699894042837,-8.5185,-5.));
#626=CARTESIAN_POINT('',(4.24699894042837,-8.5185,0.));
#627=CARTESIAN_POINT('',(4.2469989404284,8.51849999999999,0.));
#628=CARTESIAN_POINT('',(4.2469989404284,8.51849999999999,-5.));
#629=CARTESIAN_POINT('',(4.2469989404284,8.51849999999999,-82.5));
#630=CARTESIAN_POINT('',(-4.2469989404284,8.51849999999999,-5.));
#631=CARTESIAN_POINT('',(-1.52228575679117,9.87693798836398,-3.64156201163601));
#632=CARTESIAN_POINT('',(1.52228575679117,9.87693798836398,-3.64156201163601));
#633=CARTESIAN_POINT('',(4.2469989404284,8.51849999999999,-5.));
#634=CARTESIAN_POINT('',(-4.2469989404284,8.51849999999999,-5.));
#635=CARTESIAN_POINT('',(-4.2469989404284,8.51849999999999,0.));
#636=CARTESIAN_POINT('',(-4.2469989404284,8.51849999999999,-82.5));
#637=CARTESIAN_POINT('',(4.2469989404284,8.51849999999999,-82.5));
#638=CARTESIAN_POINT('',(1.52228575679116,9.87693798836398,-83.858437988364));
#639=CARTESIAN_POINT('',(-1.52228575679116,9.87693798836398,-83.858437988364));
#640=CARTESIAN_POINT('',(-4.2469989404284,8.51849999999999,-82.5));
#641=CARTESIAN_POINT('',(0.,0.,0.));
#642=CARTESIAN_POINT('',(11.,8.51849999999999,-82.5));
#643=CARTESIAN_POINT('',(11.,8.51849999999999,-82.5));
#644=CARTESIAN_POINT('',(11.,8.51849999999999,-5.));
#645=CARTESIAN_POINT('',(11.,8.51849999999999,-5.));
#646=CARTESIAN_POINT('',(11.,8.51849999999999,-82.5));
#647=CARTESIAN_POINT('',(11.,-8.5185,-82.5));
#648=CARTESIAN_POINT('',(11.,-10.0185,-84.));
#649=CARTESIAN_POINT('',(11.,-8.5185,-5.));
#650=CARTESIAN_POINT('',(11.,-8.5185,-82.5));
#651=CARTESIAN_POINT('',(11.,-8.5185,-5.));
#652=CARTESIAN_POINT('',(0.,0.,-98.7578631497098));
#653=CARTESIAN_POINT('',(0.,0.,-92.7));
#654=CARTESIAN_POINT('',(0.,0.,-110.));
#655=MECHANICAL_DESIGN_GEOMETRIC_PRESENTATION_REPRESENTATION('',(#364,#365,
#366,#367,#368,#369,#370),#656);
#656=(
GEOMETRIC_REPRESENTATION_CONTEXT(3)
GLOBAL_UNCERTAINTY_ASSIGNED_CONTEXT((#657))
GLOBAL_UNIT_ASSIGNED_CONTEXT((#663,#659,#658))
REPRESENTATION_CONTEXT('1646639352657','TOP_LEVEL_ASSEMBLY_PART')
);
#657=UNCERTAINTY_MEASURE_WITH_UNIT(LENGTH_MEASURE(2.E-5),#663,
'DISTANCE_ACCURACY_VALUE','Maximum Tolerance applied to model');
#658=(
NAMED_UNIT(*)
SI_UNIT($,.STERADIAN.)
SOLID_ANGLE_UNIT()
);
#659=(
CONVERSION_BASED_UNIT('DEGREE',#661)
NAMED_UNIT(#660)
PLANE_ANGLE_UNIT()
);
#660=DIMENSIONAL_EXPONENTS(0.,0.,0.,0.,0.,0.,0.);
#661=PLANE_ANGLE_MEASURE_WITH_UNIT(PLANE_ANGLE_MEASURE(0.0174532925),#662);
#662=(
NAMED_UNIT(*)
PLANE_ANGLE_UNIT()
SI_UNIT($,.RADIAN.)
);
#663=(
LENGTH_UNIT()
NAMED_UNIT(*)
SI_UNIT(.MILLI.,.METRE.)
);
ENDSEC;
END-ISO-10303-21;
