ISO-10303-21;
HEADER;
/* Generated by software containing ST-Developer
 * from STEP Tools, Inc. (www.steptools.com) 
 */
/* OPTION: using custom schema-name function */

FILE_DESCRIPTION(
/* description */ (''),
/* implementation_level */ '2;1');

FILE_NAME(
/* name */ 'tool.stp',
/* time_stamp */ '2022-04-19T11:52:09+02:00',
/* author */ (''),
/* organization */ ('SMS'),
/* preprocessor_version */ 'ST-DEVELOPER v16.7',
/* originating_system */ 'SIEMENS PLM Software NX 12.0',
/* authorisation */ '');

FILE_SCHEMA (('AUTOMOTIVE_DESIGN { 1 0 10303 214 3 1 1 1 }'));
ENDSEC;

DATA;
#10=CONSTRUCTIVE_GEOMETRY_REPRESENTATION_RELATIONSHIP(
'supplemental geometry','',#26,#11);
#11=CONSTRUCTIVE_GEOMETRY_REPRESENTATION('supplemental geometry',(#302,
#303,#304),#527);
#12=GEOMETRICALLY_BOUNDED_WIREFRAME_SHAPE_REPRESENTATION('Tool-None',(#27),
#527);
#13=SHAPE_REPRESENTATION_RELATIONSHIP('None',
'relationship between Tool-None and Tool-None',#26,#15);
#14=SHAPE_REPRESENTATION_RELATIONSHIP('None',
'relationship between Tool-None and Tool-None',#26,#12);
#15=ADVANCED_BREP_SHAPE_REPRESENTATION('Tool-None',(#38,#39),#527);
#16=SHAPE_DEFINITION_REPRESENTATION(#17,#26);
#17=PRODUCT_DEFINITION_SHAPE('','',#18);
#18=PRODUCT_DEFINITION(' ','',#20,#19);
#19=PRODUCT_DEFINITION_CONTEXT('part definition',#25,'design');
#20=PRODUCT_DEFINITION_FORMATION_WITH_SPECIFIED_SOURCE(' ',' ',#22,
 .NOT_KNOWN.);
#21=PRODUCT_RELATED_PRODUCT_CATEGORY('part','',(#22));
#22=PRODUCT('Tool','Tool',' ',(#23));
#23=PRODUCT_CONTEXT(' ',#25,'mechanical');
#24=APPLICATION_PROTOCOL_DEFINITION('international standard',
'automotive_design',2010,#25);
#25=APPLICATION_CONTEXT(
'core data for automotive mechanical design processes');
#26=SHAPE_REPRESENTATION('Tool-None',(#301),#527);
#27=GEOMETRIC_CURVE_SET('None',(#434,#435,#436,#269));
#28=SURFACE_STYLE_USAGE(.BOTH.,#30);
#29=SURFACE_STYLE_USAGE(.BOTH.,#31);
#30=SURFACE_SIDE_STYLE('',(#32));
#31=SURFACE_SIDE_STYLE('',(#33));
#32=SURFACE_STYLE_FILL_AREA(#34);
#33=SURFACE_STYLE_FILL_AREA(#35);
#34=FILL_AREA_STYLE('',(#36));
#35=FILL_AREA_STYLE('',(#37));
#36=FILL_AREA_STYLE_COLOUR('',#299);
#37=FILL_AREA_STYLE_COLOUR('',#300);
#38=MANIFOLD_SOLID_BREP('NOCUT',#40);
#39=MANIFOLD_SOLID_BREP('CUT',#41);
#40=CLOSED_SHELL('',(#60,#61,#62,#63,#64,#65,#66,#67,#68,#69,#70,#71,#72,
#73));
#41=CLOSED_SHELL('',(#74,#75,#76,#77,#78,#79,#80));
#42=FACE_OUTER_BOUND('',#151,.T.);
#43=FACE_OUTER_BOUND('',#152,.T.);
#44=VERTEX_LOOP('',#215);
#45=VERTEX_LOOP('',#219);
#46=PLANE('',#320);
#47=PLANE('',#331);
#48=PLANE('',#333);
#49=PLANE('',#343);
#50=CONICAL_SURFACE('',#314,8.84999999999999,60.);
#51=CONICAL_SURFACE('',#322,6.44,45.);
#52=CONICAL_SURFACE('',#325,10.2,45.);
#53=CONICAL_SURFACE('',#327,1.,30.);
#54=CONICAL_SURFACE('',#330,1.73472347597681E-15,59.9999999999999);
#55=CONICAL_SURFACE('',#337,0.,60.0000000000003);
#56=CONICAL_SURFACE('',#341,1.,30.);
#57=CONICAL_SURFACE('',#344,11.6495949331472,8.26175225584562);
#58=TOROIDAL_SURFACE('',#310,10.35,1.5);
#59=TOROIDAL_SURFACE('',#315,10.25,1.4);
#60=ADVANCED_FACE('',(#88,#89),#81,.T.);
#61=ADVANCED_FACE('',(#90,#91),#58,.F.);
#62=ADVANCED_FACE('',(#92,#93),#82,.T.);
#63=ADVANCED_FACE('',(#94,#95),#50,.T.);
#64=ADVANCED_FACE('',(#96,#97),#59,.F.);
#65=ADVANCED_FACE('',(#98,#99),#83,.T.);
#66=ADVANCED_FACE('',(#100,#101),#46,.F.);
#67=ADVANCED_FACE('',(#102,#103),#51,.T.);
#68=ADVANCED_FACE('',(#104,#105),#84,.T.);
#69=ADVANCED_FACE('',(#106,#107),#52,.T.);
#70=ADVANCED_FACE('',(#108,#109),#53,.F.);
#71=ADVANCED_FACE('',(#110,#111),#85,.F.);
#72=ADVANCED_FACE('',(#112,#113),#54,.F.);
#73=ADVANCED_FACE('',(#42),#47,.T.);
#74=ADVANCED_FACE('',(#43),#48,.T.);
#75=ADVANCED_FACE('',(#114,#115),#86,.T.);
#76=ADVANCED_FACE('',(#116,#117),#55,.F.);
#77=ADVANCED_FACE('',(#118,#119),#87,.F.);
#78=ADVANCED_FACE('',(#120,#121),#56,.F.);
#79=ADVANCED_FACE('',(#122,#123),#49,.F.);
#80=ADVANCED_FACE('',(#124,#125),#57,.T.);
#81=CYLINDRICAL_SURFACE('',#307,13.0777055819794);
#82=CYLINDRICAL_SURFACE('',#312,8.84999999999999);
#83=CYLINDRICAL_SURFACE('',#317,9.00000000000001);
#84=CYLINDRICAL_SURFACE('',#324,8.64);
#85=CYLINDRICAL_SURFACE('',#329,1.);
#86=CYLINDRICAL_SURFACE('',#335,13.0777055819794);
#87=CYLINDRICAL_SURFACE('',#339,1.);
#88=FACE_BOUND('',#126,.T.);
#89=FACE_BOUND('',#127,.T.);
#90=FACE_BOUND('',#128,.T.);
#91=FACE_BOUND('',#129,.T.);
#92=FACE_BOUND('',#130,.T.);
#93=FACE_BOUND('',#131,.T.);
#94=FACE_BOUND('',#132,.T.);
#95=FACE_BOUND('',#133,.T.);
#96=FACE_BOUND('',#134,.T.);
#97=FACE_BOUND('',#135,.T.);
#98=FACE_BOUND('',#136,.T.);
#99=FACE_BOUND('',#137,.T.);
#100=FACE_BOUND('',#138,.T.);
#101=FACE_BOUND('',#139,.T.);
#102=FACE_BOUND('',#140,.T.);
#103=FACE_BOUND('',#141,.T.);
#104=FACE_BOUND('',#142,.T.);
#105=FACE_BOUND('',#143,.T.);
#106=FACE_BOUND('',#144,.T.);
#107=FACE_BOUND('',#145,.T.);
#108=FACE_BOUND('',#146,.T.);
#109=FACE_BOUND('',#147,.T.);
#110=FACE_BOUND('',#148,.T.);
#111=FACE_BOUND('',#149,.T.);
#112=FACE_BOUND('',#150,.T.);
#113=FACE_BOUND('',#44,.T.);
#114=FACE_BOUND('',#153,.T.);
#115=FACE_BOUND('',#154,.T.);
#116=FACE_BOUND('',#155,.T.);
#117=FACE_BOUND('',#45,.T.);
#118=FACE_BOUND('',#156,.T.);
#119=FACE_BOUND('',#157,.T.);
#120=FACE_BOUND('',#158,.T.);
#121=FACE_BOUND('',#159,.T.);
#122=FACE_BOUND('',#160,.T.);
#123=FACE_BOUND('',#161,.T.);
#124=FACE_BOUND('',#162,.T.);
#125=FACE_BOUND('',#163,.T.);
#126=EDGE_LOOP('',(#164));
#127=EDGE_LOOP('',(#165));
#128=EDGE_LOOP('',(#166));
#129=EDGE_LOOP('',(#167));
#130=EDGE_LOOP('',(#168));
#131=EDGE_LOOP('',(#169));
#132=EDGE_LOOP('',(#170));
#133=EDGE_LOOP('',(#171));
#134=EDGE_LOOP('',(#172));
#135=EDGE_LOOP('',(#173));
#136=EDGE_LOOP('',(#174));
#137=EDGE_LOOP('',(#175));
#138=EDGE_LOOP('',(#176));
#139=EDGE_LOOP('',(#177));
#140=EDGE_LOOP('',(#178));
#141=EDGE_LOOP('',(#179));
#142=EDGE_LOOP('',(#180));
#143=EDGE_LOOP('',(#181));
#144=EDGE_LOOP('',(#182));
#145=EDGE_LOOP('',(#183));
#146=EDGE_LOOP('',(#184));
#147=EDGE_LOOP('',(#185));
#148=EDGE_LOOP('',(#186));
#149=EDGE_LOOP('',(#187));
#150=EDGE_LOOP('',(#188));
#151=EDGE_LOOP('',(#189));
#152=EDGE_LOOP('',(#190));
#153=EDGE_LOOP('',(#191));
#154=EDGE_LOOP('',(#192));
#155=EDGE_LOOP('',(#193));
#156=EDGE_LOOP('',(#194));
#157=EDGE_LOOP('',(#195));
#158=EDGE_LOOP('',(#196));
#159=EDGE_LOOP('',(#197));
#160=EDGE_LOOP('',(#198));
#161=EDGE_LOOP('',(#199));
#162=EDGE_LOOP('',(#200));
#163=EDGE_LOOP('',(#201));
#164=ORIENTED_EDGE('',*,*,#223,.T.);
#165=ORIENTED_EDGE('',*,*,#224,.T.);
#166=ORIENTED_EDGE('',*,*,#225,.F.);
#167=ORIENTED_EDGE('',*,*,#226,.F.);
#168=ORIENTED_EDGE('',*,*,#227,.T.);
#169=ORIENTED_EDGE('',*,*,#225,.T.);
#170=ORIENTED_EDGE('',*,*,#228,.T.);
#171=ORIENTED_EDGE('',*,*,#223,.F.);
#172=ORIENTED_EDGE('',*,*,#227,.F.);
#173=ORIENTED_EDGE('',*,*,#228,.F.);
#174=ORIENTED_EDGE('',*,*,#226,.T.);
#175=ORIENTED_EDGE('',*,*,#229,.T.);
#176=ORIENTED_EDGE('',*,*,#230,.T.);
#177=ORIENTED_EDGE('',*,*,#231,.T.);
#178=ORIENTED_EDGE('',*,*,#231,.F.);
#179=ORIENTED_EDGE('',*,*,#232,.T.);
#180=ORIENTED_EDGE('',*,*,#233,.F.);
#181=ORIENTED_EDGE('',*,*,#232,.F.);
#182=ORIENTED_EDGE('',*,*,#233,.T.);
#183=ORIENTED_EDGE('',*,*,#229,.F.);
#184=ORIENTED_EDGE('',*,*,#234,.F.);
#185=ORIENTED_EDGE('',*,*,#230,.F.);
#186=ORIENTED_EDGE('',*,*,#234,.T.);
#187=ORIENTED_EDGE('',*,*,#235,.F.);
#188=ORIENTED_EDGE('',*,*,#235,.T.);
#189=ORIENTED_EDGE('',*,*,#224,.F.);
#190=ORIENTED_EDGE('',*,*,#236,.F.);
#191=ORIENTED_EDGE('',*,*,#237,.T.);
#192=ORIENTED_EDGE('',*,*,#236,.T.);
#193=ORIENTED_EDGE('',*,*,#238,.F.);
#194=ORIENTED_EDGE('',*,*,#239,.F.);
#195=ORIENTED_EDGE('',*,*,#238,.T.);
#196=ORIENTED_EDGE('',*,*,#239,.T.);
#197=ORIENTED_EDGE('',*,*,#240,.T.);
#198=ORIENTED_EDGE('',*,*,#240,.F.);
#199=ORIENTED_EDGE('',*,*,#241,.T.);
#200=ORIENTED_EDGE('',*,*,#241,.F.);
#201=ORIENTED_EDGE('',*,*,#237,.F.);
#202=VERTEX_POINT('',#466);
#203=VERTEX_POINT('',#468);
#204=VERTEX_POINT('',#471);
#205=VERTEX_POINT('',#473);
#206=VERTEX_POINT('',#476);
#207=VERTEX_POINT('',#479);
#208=VERTEX_POINT('',#483);
#209=VERTEX_POINT('',#486);
#210=VERTEX_POINT('',#488);
#211=VERTEX_POINT('',#491);
#212=VERTEX_POINT('',#494);
#213=VERTEX_POINT('',#498);
#214=VERTEX_POINT('',#501);
#215=VERTEX_POINT('',#503);
#216=VERTEX_POINT('',#507);
#217=VERTEX_POINT('',#510);
#218=VERTEX_POINT('',#513);
#219=VERTEX_POINT('',#514);
#220=VERTEX_POINT('',#517);
#221=VERTEX_POINT('',#520);
#222=VERTEX_POINT('',#523);
#223=EDGE_CURVE('',#202,#202,#242,.T.);
#224=EDGE_CURVE('',#203,#203,#243,.T.);
#225=EDGE_CURVE('',#204,#204,#244,.T.);
#226=EDGE_CURVE('',#205,#205,#245,.T.);
#227=EDGE_CURVE('',#206,#206,#246,.T.);
#228=EDGE_CURVE('',#207,#207,#247,.T.);
#229=EDGE_CURVE('',#208,#208,#248,.T.);
#230=EDGE_CURVE('',#209,#209,#249,.T.);
#231=EDGE_CURVE('',#210,#210,#250,.T.);
#232=EDGE_CURVE('',#211,#211,#251,.T.);
#233=EDGE_CURVE('',#212,#212,#252,.T.);
#234=EDGE_CURVE('',#213,#213,#253,.T.);
#235=EDGE_CURVE('',#214,#214,#254,.T.);
#236=EDGE_CURVE('',#216,#216,#255,.T.);
#237=EDGE_CURVE('',#217,#217,#256,.T.);
#238=EDGE_CURVE('',#218,#218,#257,.T.);
#239=EDGE_CURVE('',#220,#220,#258,.T.);
#240=EDGE_CURVE('',#221,#221,#259,.T.);
#241=EDGE_CURVE('',#222,#222,#260,.T.);
#242=CIRCLE('',#305,13.0777055819794);
#243=CIRCLE('',#306,13.0777055819794);
#244=CIRCLE('',#308,8.84999999999999);
#245=CIRCLE('',#309,9.00000000000001);
#246=CIRCLE('',#311,8.84999999999999);
#247=CIRCLE('',#313,9.54999999999999);
#248=CIRCLE('',#316,9.00000000000001);
#249=CIRCLE('',#318,1.85);
#250=CIRCLE('',#319,6.44);
#251=CIRCLE('',#321,8.64);
#252=CIRCLE('',#323,8.64);
#253=CIRCLE('',#326,1.);
#254=CIRCLE('',#328,1.);
#255=CIRCLE('',#332,13.0777055819794);
#256=CIRCLE('',#334,13.0777055819794);
#257=CIRCLE('',#336,1.);
#258=CIRCLE('',#338,1.);
#259=CIRCLE('',#340,1.85);
#260=CIRCLE('',#342,11.94);
#261=CURVE_STYLE('',#265,POSITIVE_LENGTH_MEASURE(0.18),#271);
#262=CURVE_STYLE('',#266,POSITIVE_LENGTH_MEASURE(0.13),#298);
#263=CURVE_STYLE('',#267,POSITIVE_LENGTH_MEASURE(0.18),#297);
#264=CURVE_STYLE('',#268,POSITIVE_LENGTH_MEASURE(0.18),#297);
#265=DRAUGHTING_PRE_DEFINED_CURVE_FONT('continuous');
#266=DRAUGHTING_PRE_DEFINED_CURVE_FONT('continuous');
#267=DRAUGHTING_PRE_DEFINED_CURVE_FONT('continuous');
#268=DRAUGHTING_PRE_DEFINED_CURVE_FONT('continuous');
#269=B_SPLINE_CURVE_WITH_KNOTS('CUTTING PART LINE',3,(#437,#438,#439,#440,
#441,#442,#443,#444,#445,#446,#447,#448,#449,#450,#451,#452,#453,#454,#455,
#456,#457,#458,#459,#460,#461),.UNSPECIFIED.,.T.,.F.,(4,3,3,3,3,3,3,3,4),
(0.,0.163359049864089,0.459688516528765,0.474112360347004,0.501940195597042,
0.523175601382084,0.64921398042389,0.748114375350793,1.),.UNSPECIFIED.);
#270=DRAUGHTING_PRE_DEFINED_COLOUR('white');
#271=DRAUGHTING_PRE_DEFINED_COLOUR('blue');
#272=PRESENTATION_LAYER_ASSIGNMENT('1','Layer 1',(#434,#435,#436,#269,#302,
#303,#304,#38,#39));
#273=STYLED_ITEM('',(#282),#434);
#274=STYLED_ITEM('',(#283),#435);
#275=STYLED_ITEM('',(#284),#436);
#276=STYLED_ITEM('',(#285),#269);
#277=STYLED_ITEM('',(#286),#302);
#278=STYLED_ITEM('',(#287),#303);
#279=STYLED_ITEM('',(#288),#304);
#280=STYLED_ITEM('',(#289),#38);
#281=STYLED_ITEM('',(#290),#39);
#282=PRESENTATION_STYLE_ASSIGNMENT((#291));
#283=PRESENTATION_STYLE_ASSIGNMENT((#292));
#284=PRESENTATION_STYLE_ASSIGNMENT((#293));
#285=PRESENTATION_STYLE_ASSIGNMENT((#261));
#286=PRESENTATION_STYLE_ASSIGNMENT((#262));
#287=PRESENTATION_STYLE_ASSIGNMENT((#263));
#288=PRESENTATION_STYLE_ASSIGNMENT((#264));
#289=PRESENTATION_STYLE_ASSIGNMENT((#28));
#290=PRESENTATION_STYLE_ASSIGNMENT((#29));
#291=POINT_STYLE('',#294,POSITIVE_LENGTH_MEASURE(3.),#297);
#292=POINT_STYLE('',#295,POSITIVE_LENGTH_MEASURE(3.),#270);
#293=POINT_STYLE('',#296,POSITIVE_LENGTH_MEASURE(3.),#297);
#294=PRE_DEFINED_POINT_MARKER_SYMBOL('plus');
#295=PRE_DEFINED_POINT_MARKER_SYMBOL('plus');
#296=PRE_DEFINED_POINT_MARKER_SYMBOL('plus');
#297=COLOUR_RGB('Medium Maroon',0.6,0.4,0.4);
#298=COLOUR_RGB('Silver Gray',0.6,0.6,0.6);
#299=COLOUR_RGB('TLS_NOCUT',0.498023956664378,0.498023956664378,0.498023956664378);
#300=COLOUR_RGB('TLS_CUT',0.8,0.8,0.8);
#301=AXIS2_PLACEMENT_3D('',#433,#345,#346);
#302=AXIS2_PLACEMENT_3D('PCS',#462,#347,#348);
#303=AXIS2_PLACEMENT_3D('MCS',#463,#349,#350);
#304=AXIS2_PLACEMENT_3D('CIP',#464,#351,#352);
#305=AXIS2_PLACEMENT_3D('',#465,#353,#354);
#306=AXIS2_PLACEMENT_3D('',#467,#355,#356);
#307=AXIS2_PLACEMENT_3D('',#469,#357,#358);
#308=AXIS2_PLACEMENT_3D('',#470,#359,#360);
#309=AXIS2_PLACEMENT_3D('',#472,#361,#362);
#310=AXIS2_PLACEMENT_3D('',#474,#363,#364);
#311=AXIS2_PLACEMENT_3D('',#475,#365,#366);
#312=AXIS2_PLACEMENT_3D('',#477,#367,#368);
#313=AXIS2_PLACEMENT_3D('',#478,#369,#370);
#314=AXIS2_PLACEMENT_3D('',#480,#371,#372);
#315=AXIS2_PLACEMENT_3D('',#481,#373,#374);
#316=AXIS2_PLACEMENT_3D('',#482,#375,#376);
#317=AXIS2_PLACEMENT_3D('',#484,#377,#378);
#318=AXIS2_PLACEMENT_3D('',#485,#379,#380);
#319=AXIS2_PLACEMENT_3D('',#487,#381,#382);
#320=AXIS2_PLACEMENT_3D('',#489,#383,#384);
#321=AXIS2_PLACEMENT_3D('',#490,#385,#386);
#322=AXIS2_PLACEMENT_3D('',#492,#387,#388);
#323=AXIS2_PLACEMENT_3D('',#493,#389,#390);
#324=AXIS2_PLACEMENT_3D('',#495,#391,#392);
#325=AXIS2_PLACEMENT_3D('',#496,#393,#394);
#326=AXIS2_PLACEMENT_3D('',#497,#395,#396);
#327=AXIS2_PLACEMENT_3D('',#499,#397,#398);
#328=AXIS2_PLACEMENT_3D('',#500,#399,#400);
#329=AXIS2_PLACEMENT_3D('',#502,#401,#402);
#330=AXIS2_PLACEMENT_3D('',#504,#403,#404);
#331=AXIS2_PLACEMENT_3D('',#505,#405,#406);
#332=AXIS2_PLACEMENT_3D('',#506,#407,#408);
#333=AXIS2_PLACEMENT_3D('',#508,#409,#410);
#334=AXIS2_PLACEMENT_3D('',#509,#411,#412);
#335=AXIS2_PLACEMENT_3D('',#511,#413,#414);
#336=AXIS2_PLACEMENT_3D('',#512,#415,#416);
#337=AXIS2_PLACEMENT_3D('',#515,#417,#418);
#338=AXIS2_PLACEMENT_3D('',#516,#419,#420);
#339=AXIS2_PLACEMENT_3D('',#518,#421,#422);
#340=AXIS2_PLACEMENT_3D('',#519,#423,#424);
#341=AXIS2_PLACEMENT_3D('',#521,#425,#426);
#342=AXIS2_PLACEMENT_3D('',#522,#427,#428);
#343=AXIS2_PLACEMENT_3D('',#524,#429,#430);
#344=AXIS2_PLACEMENT_3D('',#525,#431,#432);
#345=DIRECTION('',(0.,0.,1.));
#346=DIRECTION('',(1.,0.,0.));
#347=DIRECTION('',(0.,0.,1.));
#348=DIRECTION('',(1.,0.,0.));
#349=DIRECTION('',(0.,0.,1.));
#350=DIRECTION('',(1.,0.,0.));
#351=DIRECTION('',(0.,0.,1.));
#352=DIRECTION('',(1.,0.,0.));
#353=DIRECTION('',(0.,0.,-1.));
#354=DIRECTION('',(-1.,0.,0.));
#355=DIRECTION('',(0.,0.,1.));
#356=DIRECTION('',(-1.,0.,0.));
#357=DIRECTION('',(0.,0.,1.));
#358=DIRECTION('',(1.,0.,0.));
#359=DIRECTION('',(1.19298480665472E-16,0.,-1.));
#360=DIRECTION('',(-1.,0.,0.));
#361=DIRECTION('',(0.,0.,1.));
#362=DIRECTION('',(1.,0.,0.));
#363=DIRECTION('',(1.19298480665472E-16,0.,-1.));
#364=DIRECTION('',(-1.,0.,0.));
#365=DIRECTION('',(-1.19298480665472E-16,0.,1.));
#366=DIRECTION('',(-1.,0.,0.));
#367=DIRECTION('',(1.19298480665472E-16,0.,-1.));
#368=DIRECTION('',(-1.,0.,0.));
#369=DIRECTION('',(1.19298480665472E-16,0.,-1.));
#370=DIRECTION('',(-1.,0.,0.));
#371=DIRECTION('',(1.19298480665472E-16,0.,-1.));
#372=DIRECTION('',(-1.,0.,-6.3772905371648E-17));
#373=DIRECTION('',(1.19298480665472E-16,0.,-1.));
#374=DIRECTION('',(-1.,0.,0.));
#375=DIRECTION('',(0.,0.,-1.));
#376=DIRECTION('',(-1.,0.,0.));
#377=DIRECTION('',(0.,0.,1.));
#378=DIRECTION('',(1.,0.,0.));
#379=DIRECTION('',(2.41484345317313E-16,0.,-1.));
#380=DIRECTION('',(-1.,0.,-2.41484345317313E-16));
#381=DIRECTION('',(0.,0.,1.));
#382=DIRECTION('',(1.,0.,0.));
#383=DIRECTION('',(2.41484345317313E-16,0.,-1.));
#384=DIRECTION('',(-1.,0.,-2.41484345317313E-16));
#385=DIRECTION('',(0.,0.,1.));
#386=DIRECTION('',(-1.,0.,0.));
#387=DIRECTION('',(0.,0.,-1.));
#388=DIRECTION('',(-1.,0.,0.));
#389=DIRECTION('',(0.,0.,-1.));
#390=DIRECTION('',(1.,0.,0.));
#391=DIRECTION('',(0.,0.,1.));
#392=DIRECTION('',(1.,0.,0.));
#393=DIRECTION('',(0.,0.,-1.));
#394=DIRECTION('',(-1.,0.,2.06064954580496E-17));
#395=DIRECTION('',(0.,0.,1.));
#396=DIRECTION('',(-1.,0.,0.));
#397=DIRECTION('',(0.,0.,1.));
#398=DIRECTION('',(1.,0.,-4.79909444055755E-17));
#399=DIRECTION('',(0.,0.,1.));
#400=DIRECTION('',(-1.,0.,0.));
#401=DIRECTION('',(0.,0.,-1.));
#402=DIRECTION('',(-1.,0.,0.));
#403=DIRECTION('',(0.,0.,1.));
#404=DIRECTION('',(1.,0.,0.));
#405=DIRECTION('',(0.,0.,-1.));
#406=DIRECTION('',(-1.,0.,0.));
#407=DIRECTION('',(0.,0.,-1.));
#408=DIRECTION('',(1.,0.,0.));
#409=DIRECTION('',(0.,0.,1.));
#410=DIRECTION('',(1.,0.,0.));
#411=DIRECTION('',(0.,0.,1.));
#412=DIRECTION('',(1.,0.,0.));
#413=DIRECTION('',(0.,0.,1.));
#414=DIRECTION('',(1.,0.,0.));
#415=DIRECTION('',(0.,0.,1.));
#416=DIRECTION('',(-1.,0.,0.));
#417=DIRECTION('',(0.,0.,-1.));
#418=DIRECTION('',(-1.,0.,0.));
#419=DIRECTION('',(0.,0.,1.));
#420=DIRECTION('',(-1.,0.,0.));
#421=DIRECTION('',(0.,0.,-1.));
#422=DIRECTION('',(-1.,0.,0.));
#423=DIRECTION('',(0.,0.,-1.));
#424=DIRECTION('',(1.,0.,0.));
#425=DIRECTION('',(0.,0.,-1.));
#426=DIRECTION('',(-1.,0.,-1.43972833216726E-16));
#427=DIRECTION('',(0.,0.,-1.));
#428=DIRECTION('',(1.,0.,0.));
#429=DIRECTION('',(0.,0.,1.));
#430=DIRECTION('',(1.,0.,0.));
#431=DIRECTION('',(0.,0.,1.));
#432=DIRECTION('',(1.,0.,0.));
#433=CARTESIAN_POINT('',(0.,0.,0.));
#434=CARTESIAN_POINT('',(0.,0.,-47.));
#435=CARTESIAN_POINT('CRP',(-13.0777055819794,0.,-140.));
#436=CARTESIAN_POINT('CIP_DCSYS',(0.,0.,-140.));
#437=CARTESIAN_POINT('',(-13.0777055819794,0.,-112.));
#438=CARTESIAN_POINT('',(-8.71847038798626,0.,-112.));
#439=CARTESIAN_POINT('',(-4.35923519399313,0.,-112.));
#440=CARTESIAN_POINT('',(0.,0.,-112.));
#441=CARTESIAN_POINT('',(0.,0.,-119.90754991027));
#442=CARTESIAN_POINT('',(0.,0.,-127.81509982054));
#443=CARTESIAN_POINT('',(0.,0.,-135.72264973081));
#444=CARTESIAN_POINT('',(-0.333333333333333,0.,-135.91509982054));
#445=CARTESIAN_POINT('',(-0.666666666666667,0.,-136.10754991027));
#446=CARTESIAN_POINT('',(-1.,0.,-136.3));
#447=CARTESIAN_POINT('',(-1.,0.,-137.042585604522));
#448=CARTESIAN_POINT('',(-1.,0.,-137.785171209044));
#449=CARTESIAN_POINT('',(-1.,0.,-138.527756813566));
#450=CARTESIAN_POINT('',(-1.28333333333334,0.,-139.018504542378));
#451=CARTESIAN_POINT('',(-1.56666666666667,0.,-139.509252271189));
#452=CARTESIAN_POINT('',(-1.85,0.,-140.));
#453=CARTESIAN_POINT('',(-5.21333333333333,0.,-140.));
#454=CARTESIAN_POINT('',(-8.57666666666667,0.,-140.));
#455=CARTESIAN_POINT('',(-11.94,0.,-140.));
#456=CARTESIAN_POINT('',(-12.3192351939931,0.,-137.388232938888));
#457=CARTESIAN_POINT('',(-12.6984703879863,0.,-134.776465877776));
#458=CARTESIAN_POINT('',(-13.0777055819794,0.,-132.164698816664));
#459=CARTESIAN_POINT('',(-13.0777055819794,0.,-125.443132544443));
#460=CARTESIAN_POINT('',(-13.0777055819794,0.,-118.721566272221));
#461=CARTESIAN_POINT('',(-13.0777055819794,0.,-112.));
#462=CARTESIAN_POINT('',(0.,0.,0.));
#463=CARTESIAN_POINT('',(0.,0.,-47.));
#464=CARTESIAN_POINT('',(0.,0.,-140.));
#465=CARTESIAN_POINT('',(0.,0.,-111.884529946162));
#466=CARTESIAN_POINT('',(-13.0777055819794,0.,-111.884529946162));
#467=CARTESIAN_POINT('',(0.,0.,-112.));
#468=CARTESIAN_POINT('',(-13.0777055819794,0.,-112.));
#469=CARTESIAN_POINT('',(0.,0.,20.9080749503476));
#470=CARTESIAN_POINT('',(8.10849832817424E-15,0.,-73.6538348415311));
#471=CARTESIAN_POINT('',(-8.84999999999998,0.,-73.6538348415311));
#472=CARTESIAN_POINT('',(0.,0.,-73.));
#473=CARTESIAN_POINT('',(9.00000000000001,0.,-73.));
#474=CARTESIAN_POINT('',(8.67361737988404E-15,0.,-73.6538348415311));
#475=CARTESIAN_POINT('',(1.22817426357103E-14,0.,-108.635372613486));
#476=CARTESIAN_POINT('',(-8.84999999999998,0.,-108.635372613486));
#477=CARTESIAN_POINT('',(7.99360577730113E-15,0.,-72.6907668273182));
#478=CARTESIAN_POINT('',(1.24263843565552E-14,0.,-109.847808178785));
#479=CARTESIAN_POINT('',(-9.54999999999998,0.,-109.847808178785));
#480=CARTESIAN_POINT('',(1.23781704496069E-14,0.,-109.443662990352));
#481=CARTESIAN_POINT('',(1.22817426357103E-14,0.,-108.635372613486));
#482=CARTESIAN_POINT('',(0.,0.,-20.76));
#483=CARTESIAN_POINT('',(-9.00000000000001,0.,-20.76));
#484=CARTESIAN_POINT('',(0.,0.,20.9080749503476));
#485=CARTESIAN_POINT('',(-9.68976309829517E-16,0.,-1.0842021724855E-15));
#486=CARTESIAN_POINT('',(-1.85,0.,-1.53094821132253E-15));
#487=CARTESIAN_POINT('',(0.,0.,0.));
#488=CARTESIAN_POINT('',(6.44,0.,0.));
#489=CARTESIAN_POINT('',(9.20000000000001,0.,1.11082798845964E-15));
#490=CARTESIAN_POINT('',(0.,0.,-2.2));
#491=CARTESIAN_POINT('',(-8.64,0.,-2.2));
#492=CARTESIAN_POINT('',(0.,0.,0.));
#493=CARTESIAN_POINT('',(0.,0.,-20.4));
#494=CARTESIAN_POINT('',(8.64,0.,-20.4));
#495=CARTESIAN_POINT('',(0.,0.,20.9080749503476));
#496=CARTESIAN_POINT('',(0.,0.,-21.96));
#497=CARTESIAN_POINT('',(0.,0.,-1.47224318643355));
#498=CARTESIAN_POINT('',(-1.,0.,-1.47224318643355));
#499=CARTESIAN_POINT('',(0.,0.,-1.47224318643355));
#500=CARTESIAN_POINT('',(0.,0.,-3.7));
#501=CARTESIAN_POINT('',(-1.,0.,-3.7));
#502=CARTESIAN_POINT('',(0.,0.,20.9080749503476));
#503=CARTESIAN_POINT('',(0.,0.,-4.27735026918963));
#504=CARTESIAN_POINT('',(0.,0.,-4.27735026918963));
#505=CARTESIAN_POINT('',(0.,0.,-112.));
#506=CARTESIAN_POINT('',(0.,0.,-112.));
#507=CARTESIAN_POINT('',(13.0777055819794,0.,-112.));
#508=CARTESIAN_POINT('',(0.,0.,-112.));
#509=CARTESIAN_POINT('',(0.,0.,-132.164698816664));
#510=CARTESIAN_POINT('',(13.0777055819794,0.,-132.164698816664));
#511=CARTESIAN_POINT('',(0.,0.,20.9080749503476));
#512=CARTESIAN_POINT('',(0.,0.,-136.3));
#513=CARTESIAN_POINT('',(-1.,0.,-136.3));
#514=CARTESIAN_POINT('',(0.,0.,-135.72264973081));
#515=CARTESIAN_POINT('',(0.,0.,-135.72264973081));
#516=CARTESIAN_POINT('',(0.,0.,-138.527756813566));
#517=CARTESIAN_POINT('',(-1.,0.,-138.527756813566));
#518=CARTESIAN_POINT('',(0.,0.,20.9080749503476));
#519=CARTESIAN_POINT('',(0.,0.,-140.));
#520=CARTESIAN_POINT('',(1.85,0.,-140.));
#521=CARTESIAN_POINT('',(0.,0.,-138.527756813566));
#522=CARTESIAN_POINT('',(0.,0.,-140.));
#523=CARTESIAN_POINT('',(11.94,0.,-140.));
#524=CARTESIAN_POINT('',(0.,0.,-140.));
#525=CARTESIAN_POINT('',(0.,0.,-142.));
#526=MECHANICAL_DESIGN_GEOMETRIC_PRESENTATION_REPRESENTATION('',(#273,#274,
#275,#276,#277,#278,#279,#280,#281),#527);
#527=(
GEOMETRIC_REPRESENTATION_CONTEXT(3)
GLOBAL_UNCERTAINTY_ASSIGNED_CONTEXT((#528))
GLOBAL_UNIT_ASSIGNED_CONTEXT((#534,#530,#529))
REPRESENTATION_CONTEXT('tool','TOP_LEVEL_ASSEMBLY_PART')
);
#528=UNCERTAINTY_MEASURE_WITH_UNIT(LENGTH_MEASURE(2.E-5),#534,
'DISTANCE_ACCURACY_VALUE','Maximum Tolerance applied to model');
#529=(
NAMED_UNIT(*)
SI_UNIT($,.STERADIAN.)
SOLID_ANGLE_UNIT()
);
#530=(
CONVERSION_BASED_UNIT('DEGREE',#532)
NAMED_UNIT(#531)
PLANE_ANGLE_UNIT()
);
#531=DIMENSIONAL_EXPONENTS(0.,0.,0.,0.,0.,0.,0.);
#532=PLANE_ANGLE_MEASURE_WITH_UNIT(PLANE_ANGLE_MEASURE(0.0174532925),#533);
#533=(
NAMED_UNIT(*)
PLANE_ANGLE_UNIT()
SI_UNIT($,.RADIAN.)
);
#534=(
LENGTH_UNIT()
NAMED_UNIT(*)
SI_UNIT(.MILLI.,.METRE.)
);
ENDSEC;
END-ISO-10303-21;
