ISO-10303-21;
HEADER;
/* Generated by software containing ST-Developer
 * from STEP Tools, Inc. (www.steptools.com) 
 */
/* OPTION: using custom schema-name function */

FILE_DESCRIPTION(
/* description */ (''),
/* implementation_level */ '2;1');

FILE_NAME(
/* name */ 'tool.stp',
/* time_stamp */ '2022-04-27T01:38:50+02:00',
/* author */ (''),
/* organization */ ('SMS'),
/* preprocessor_version */ 'ST-DEVELOPER v16.7',
/* originating_system */ 'SIEMENS PLM Software NX 12.0',
/* authorisation */ '');

FILE_SCHEMA (('AUTOMOTIVE_DESIGN { 1 0 10303 214 3 1 1 1 }'));
ENDSEC;

DATA;
#10=CONSTRUCTIVE_GEOMETRY_REPRESENTATION_RELATIONSHIP(
'supplemental geometry','',#26,#11);
#11=CONSTRUCTIVE_GEOMETRY_REPRESENTATION('supplemental geometry',(#313,
#314,#315),#547);
#12=GEOMETRICALLY_BOUNDED_WIREFRAME_SHAPE_REPRESENTATION('Tool-None',(#27),
#547);
#13=SHAPE_REPRESENTATION_RELATIONSHIP('None',
'relationship between Tool-None and Tool-None',#26,#15);
#14=SHAPE_REPRESENTATION_RELATIONSHIP('None',
'relationship between Tool-None and Tool-None',#26,#12);
#15=ADVANCED_BREP_SHAPE_REPRESENTATION('Tool-None',(#38,#39),#547);
#16=SHAPE_DEFINITION_REPRESENTATION(#17,#26);
#17=PRODUCT_DEFINITION_SHAPE('','',#18);
#18=PRODUCT_DEFINITION(' ','',#20,#19);
#19=PRODUCT_DEFINITION_CONTEXT('part definition',#25,'design');
#20=PRODUCT_DEFINITION_FORMATION_WITH_SPECIFIED_SOURCE(' ',' ',#22,
 .NOT_KNOWN.);
#21=PRODUCT_RELATED_PRODUCT_CATEGORY('part','',(#22));
#22=PRODUCT('Tool','Tool',' ',(#23));
#23=PRODUCT_CONTEXT(' ',#25,'mechanical');
#24=APPLICATION_PROTOCOL_DEFINITION('international standard',
'automotive_design',2010,#25);
#25=APPLICATION_CONTEXT(
'core data for automotive mechanical design processes');
#26=SHAPE_REPRESENTATION('Tool-None',(#312),#547);
#27=GEOMETRIC_CURVE_SET('None',(#451,#452,#453,#280));
#28=SURFACE_STYLE_USAGE(.BOTH.,#30);
#29=SURFACE_STYLE_USAGE(.BOTH.,#31);
#30=SURFACE_SIDE_STYLE('',(#32));
#31=SURFACE_SIDE_STYLE('',(#33));
#32=SURFACE_STYLE_FILL_AREA(#34);
#33=SURFACE_STYLE_FILL_AREA(#35);
#34=FILL_AREA_STYLE('',(#36));
#35=FILL_AREA_STYLE('',(#37));
#36=FILL_AREA_STYLE_COLOUR('',#310);
#37=FILL_AREA_STYLE_COLOUR('',#311);
#38=MANIFOLD_SOLID_BREP('NOCUT',#40);
#39=MANIFOLD_SOLID_BREP('CUT',#41);
#40=CLOSED_SHELL('',(#61,#62,#63,#64,#65,#66,#67,#68,#69,#70,#71,#72,#73,
#74,#75));
#41=CLOSED_SHELL('',(#76,#77,#78,#79,#80,#81,#82));
#42=FACE_OUTER_BOUND('',#157,.T.);
#43=FACE_OUTER_BOUND('',#158,.T.);
#44=VERTEX_LOOP('',#224);
#45=VERTEX_LOOP('',#229);
#46=PLANE('',#328);
#47=PLANE('',#333);
#48=PLANE('',#344);
#49=PLANE('',#346);
#50=PLANE('',#357);
#51=CONICAL_SURFACE('',#326,5.84999999999999,60.0000000000004);
#52=CONICAL_SURFACE('',#335,3.96,45.);
#53=CONICAL_SURFACE('',#338,7.2,45.);
#54=CONICAL_SURFACE('',#340,1.,30.0000000000001);
#55=CONICAL_SURFACE('',#343,1.73472347597681E-15,59.9999999999999);
#56=CONICAL_SURFACE('',#350,7.43064193318164,7.95157308466692);
#57=CONICAL_SURFACE('',#352,0.,60.0000000000003);
#58=CONICAL_SURFACE('',#356,1.,30.0000000000003);
#59=TOROIDAL_SURFACE('',#321,7.34999999999999,1.5);
#60=TOROIDAL_SURFACE('',#327,7.24999999999999,1.4);
#61=ADVANCED_FACE('FACE1',(#90,#91),#83,.T.);
#62=ADVANCED_FACE('',(#92,#93),#59,.F.);
#63=ADVANCED_FACE('',(#94,#95),#84,.T.);
#64=ADVANCED_FACE('',(#96,#97),#51,.T.);
#65=ADVANCED_FACE('',(#98,#99),#60,.F.);
#66=ADVANCED_FACE('',(#100,#101),#46,.F.);
#67=ADVANCED_FACE('',(#102,#103),#85,.T.);
#68=ADVANCED_FACE('',(#104,#105),#47,.F.);
#69=ADVANCED_FACE('',(#106,#107),#52,.T.);
#70=ADVANCED_FACE('',(#108,#109),#86,.T.);
#71=ADVANCED_FACE('',(#110,#111),#53,.T.);
#72=ADVANCED_FACE('',(#112,#113),#54,.F.);
#73=ADVANCED_FACE('',(#114,#115),#87,.F.);
#74=ADVANCED_FACE('',(#116,#117),#55,.F.);
#75=ADVANCED_FACE('',(#42),#48,.T.);
#76=ADVANCED_FACE('',(#43),#49,.T.);
#77=ADVANCED_FACE('FACE1',(#118,#119),#88,.T.);
#78=ADVANCED_FACE('',(#120,#121),#56,.T.);
#79=ADVANCED_FACE('',(#122,#123),#57,.F.);
#80=ADVANCED_FACE('',(#124,#125),#89,.F.);
#81=ADVANCED_FACE('',(#126,#127),#58,.F.);
#82=ADVANCED_FACE('',(#128,#129),#50,.F.);
#83=CYLINDRICAL_SURFACE('',#318,8.57321642646872);
#84=CYLINDRICAL_SURFACE('',#323,5.84999999999999);
#85=CYLINDRICAL_SURFACE('',#330,6.);
#86=CYLINDRICAL_SURFACE('',#337,5.76);
#87=CYLINDRICAL_SURFACE('',#342,1.);
#88=CYLINDRICAL_SURFACE('',#348,8.57321642646872);
#89=CYLINDRICAL_SURFACE('',#354,1.);
#90=FACE_BOUND('',#130,.T.);
#91=FACE_BOUND('',#131,.T.);
#92=FACE_BOUND('',#132,.T.);
#93=FACE_BOUND('',#133,.T.);
#94=FACE_BOUND('',#134,.T.);
#95=FACE_BOUND('',#135,.T.);
#96=FACE_BOUND('',#136,.T.);
#97=FACE_BOUND('',#137,.T.);
#98=FACE_BOUND('',#138,.T.);
#99=FACE_BOUND('',#139,.T.);
#100=FACE_BOUND('',#140,.T.);
#101=FACE_BOUND('',#141,.T.);
#102=FACE_BOUND('',#142,.T.);
#103=FACE_BOUND('',#143,.T.);
#104=FACE_BOUND('',#144,.T.);
#105=FACE_BOUND('',#145,.T.);
#106=FACE_BOUND('',#146,.T.);
#107=FACE_BOUND('',#147,.T.);
#108=FACE_BOUND('',#148,.T.);
#109=FACE_BOUND('',#149,.T.);
#110=FACE_BOUND('',#150,.T.);
#111=FACE_BOUND('',#151,.T.);
#112=FACE_BOUND('',#152,.T.);
#113=FACE_BOUND('',#153,.T.);
#114=FACE_BOUND('',#154,.T.);
#115=FACE_BOUND('',#155,.T.);
#116=FACE_BOUND('',#156,.T.);
#117=FACE_BOUND('',#44,.T.);
#118=FACE_BOUND('',#159,.T.);
#119=FACE_BOUND('',#160,.T.);
#120=FACE_BOUND('',#161,.T.);
#121=FACE_BOUND('',#162,.T.);
#122=FACE_BOUND('',#163,.T.);
#123=FACE_BOUND('',#45,.T.);
#124=FACE_BOUND('',#164,.T.);
#125=FACE_BOUND('',#165,.T.);
#126=FACE_BOUND('',#166,.T.);
#127=FACE_BOUND('',#167,.T.);
#128=FACE_BOUND('',#168,.T.);
#129=FACE_BOUND('',#169,.T.);
#130=EDGE_LOOP('',(#170));
#131=EDGE_LOOP('',(#171));
#132=EDGE_LOOP('',(#172));
#133=EDGE_LOOP('',(#173));
#134=EDGE_LOOP('',(#174));
#135=EDGE_LOOP('',(#175));
#136=EDGE_LOOP('',(#176));
#137=EDGE_LOOP('',(#177));
#138=EDGE_LOOP('',(#178));
#139=EDGE_LOOP('',(#179));
#140=EDGE_LOOP('',(#180));
#141=EDGE_LOOP('',(#181));
#142=EDGE_LOOP('',(#182));
#143=EDGE_LOOP('',(#183));
#144=EDGE_LOOP('',(#184));
#145=EDGE_LOOP('',(#185));
#146=EDGE_LOOP('',(#186));
#147=EDGE_LOOP('',(#187));
#148=EDGE_LOOP('',(#188));
#149=EDGE_LOOP('',(#189));
#150=EDGE_LOOP('',(#190));
#151=EDGE_LOOP('',(#191));
#152=EDGE_LOOP('',(#192));
#153=EDGE_LOOP('',(#193));
#154=EDGE_LOOP('',(#194));
#155=EDGE_LOOP('',(#195));
#156=EDGE_LOOP('',(#196));
#157=EDGE_LOOP('',(#197));
#158=EDGE_LOOP('',(#198));
#159=EDGE_LOOP('',(#199));
#160=EDGE_LOOP('',(#200));
#161=EDGE_LOOP('',(#201));
#162=EDGE_LOOP('',(#202));
#163=EDGE_LOOP('',(#203));
#164=EDGE_LOOP('',(#204));
#165=EDGE_LOOP('',(#205));
#166=EDGE_LOOP('',(#206));
#167=EDGE_LOOP('',(#207));
#168=EDGE_LOOP('',(#208));
#169=EDGE_LOOP('',(#209));
#170=ORIENTED_EDGE('',*,*,#232,.F.);
#171=ORIENTED_EDGE('',*,*,#233,.F.);
#172=ORIENTED_EDGE('',*,*,#234,.F.);
#173=ORIENTED_EDGE('',*,*,#235,.F.);
#174=ORIENTED_EDGE('',*,*,#236,.T.);
#175=ORIENTED_EDGE('',*,*,#234,.T.);
#176=ORIENTED_EDGE('',*,*,#237,.T.);
#177=ORIENTED_EDGE('',*,*,#238,.F.);
#178=ORIENTED_EDGE('',*,*,#236,.F.);
#179=ORIENTED_EDGE('',*,*,#237,.F.);
#180=ORIENTED_EDGE('',*,*,#238,.T.);
#181=ORIENTED_EDGE('',*,*,#232,.T.);
#182=ORIENTED_EDGE('',*,*,#235,.T.);
#183=ORIENTED_EDGE('',*,*,#239,.T.);
#184=ORIENTED_EDGE('',*,*,#240,.T.);
#185=ORIENTED_EDGE('',*,*,#241,.T.);
#186=ORIENTED_EDGE('',*,*,#241,.F.);
#187=ORIENTED_EDGE('',*,*,#242,.T.);
#188=ORIENTED_EDGE('',*,*,#243,.F.);
#189=ORIENTED_EDGE('',*,*,#242,.F.);
#190=ORIENTED_EDGE('',*,*,#243,.T.);
#191=ORIENTED_EDGE('',*,*,#239,.F.);
#192=ORIENTED_EDGE('',*,*,#244,.F.);
#193=ORIENTED_EDGE('',*,*,#240,.F.);
#194=ORIENTED_EDGE('',*,*,#244,.T.);
#195=ORIENTED_EDGE('',*,*,#245,.F.);
#196=ORIENTED_EDGE('',*,*,#245,.T.);
#197=ORIENTED_EDGE('',*,*,#233,.T.);
#198=ORIENTED_EDGE('',*,*,#246,.T.);
#199=ORIENTED_EDGE('',*,*,#247,.T.);
#200=ORIENTED_EDGE('',*,*,#246,.F.);
#201=ORIENTED_EDGE('',*,*,#247,.F.);
#202=ORIENTED_EDGE('',*,*,#248,.F.);
#203=ORIENTED_EDGE('',*,*,#249,.F.);
#204=ORIENTED_EDGE('',*,*,#250,.F.);
#205=ORIENTED_EDGE('',*,*,#249,.T.);
#206=ORIENTED_EDGE('',*,*,#250,.T.);
#207=ORIENTED_EDGE('',*,*,#251,.T.);
#208=ORIENTED_EDGE('',*,*,#251,.F.);
#209=ORIENTED_EDGE('',*,*,#248,.T.);
#210=VERTEX_POINT('',#483);
#211=VERTEX_POINT('',#485);
#212=VERTEX_POINT('',#488);
#213=VERTEX_POINT('',#490);
#214=VERTEX_POINT('',#493);
#215=VERTEX_POINT('',#496);
#216=VERTEX_POINT('',#498);
#217=VERTEX_POINT('',#503);
#218=VERTEX_POINT('',#506);
#219=VERTEX_POINT('',#508);
#220=VERTEX_POINT('',#511);
#221=VERTEX_POINT('',#514);
#222=VERTEX_POINT('',#518);
#223=VERTEX_POINT('',#521);
#224=VERTEX_POINT('',#523);
#225=VERTEX_POINT('',#527);
#226=VERTEX_POINT('',#530);
#227=VERTEX_POINT('',#533);
#228=VERTEX_POINT('',#536);
#229=VERTEX_POINT('',#537);
#230=VERTEX_POINT('',#540);
#231=VERTEX_POINT('',#543);
#232=EDGE_CURVE('',#210,#210,#252,.T.);
#233=EDGE_CURVE('',#211,#211,#253,.T.);
#234=EDGE_CURVE('',#212,#212,#254,.T.);
#235=EDGE_CURVE('',#213,#213,#255,.T.);
#236=EDGE_CURVE('',#214,#214,#256,.T.);
#237=EDGE_CURVE('',#215,#215,#257,.T.);
#238=EDGE_CURVE('',#216,#216,#258,.T.);
#239=EDGE_CURVE('',#217,#217,#259,.T.);
#240=EDGE_CURVE('',#218,#218,#260,.T.);
#241=EDGE_CURVE('',#219,#219,#261,.T.);
#242=EDGE_CURVE('',#220,#220,#262,.T.);
#243=EDGE_CURVE('',#221,#221,#263,.T.);
#244=EDGE_CURVE('',#222,#222,#264,.T.);
#245=EDGE_CURVE('',#223,#223,#265,.T.);
#246=EDGE_CURVE('',#225,#225,#266,.T.);
#247=EDGE_CURVE('',#226,#226,#267,.T.);
#248=EDGE_CURVE('',#227,#227,#268,.T.);
#249=EDGE_CURVE('',#228,#228,#269,.T.);
#250=EDGE_CURVE('',#230,#230,#270,.T.);
#251=EDGE_CURVE('',#231,#231,#271,.T.);
#252=CIRCLE('',#316,8.57321642646871);
#253=CIRCLE('',#317,8.57321642646872);
#254=CIRCLE('',#319,5.85);
#255=CIRCLE('',#320,6.00000000000001);
#256=CIRCLE('',#322,5.84999999999999);
#257=CIRCLE('',#324,6.55);
#258=CIRCLE('',#325,8.37321642646871);
#259=CIRCLE('',#329,6.);
#260=CIRCLE('',#331,1.55);
#261=CIRCLE('',#332,3.96);
#262=CIRCLE('',#334,5.76);
#263=CIRCLE('',#336,5.76);
#264=CIRCLE('',#339,1.);
#265=CIRCLE('',#341,1.);
#266=CIRCLE('',#345,8.57321642646872);
#267=CIRCLE('',#347,8.57321642646872);
#268=CIRCLE('',#349,7.71);
#269=CIRCLE('',#351,1.);
#270=CIRCLE('',#353,1.);
#271=CIRCLE('',#355,1.55);
#272=CURVE_STYLE('',#276,POSITIVE_LENGTH_MEASURE(0.18),#282);
#273=CURVE_STYLE('',#277,POSITIVE_LENGTH_MEASURE(0.13),#309);
#274=CURVE_STYLE('',#278,POSITIVE_LENGTH_MEASURE(0.18),#308);
#275=CURVE_STYLE('',#279,POSITIVE_LENGTH_MEASURE(0.18),#308);
#276=DRAUGHTING_PRE_DEFINED_CURVE_FONT('continuous');
#277=DRAUGHTING_PRE_DEFINED_CURVE_FONT('continuous');
#278=DRAUGHTING_PRE_DEFINED_CURVE_FONT('continuous');
#279=DRAUGHTING_PRE_DEFINED_CURVE_FONT('continuous');
#280=B_SPLINE_CURVE_WITH_KNOTS('CUTTING PART LINE',3,(#454,#455,#456,#457,
#458,#459,#460,#461,#462,#463,#464,#465,#466,#467,#468,#469,#470,#471,#472,
#473,#474,#475,#476,#477,#478),.UNSPECIFIED.,.T.,.F.,(4,3,3,3,3,3,3,3,4),
(0.,0.0477654856059943,0.0678409725881686,0.358578982871243,0.507631909630025,
0.765290676734989,0.873778498708291,0.980875530108528,1.),.UNSPECIFIED.);
#281=DRAUGHTING_PRE_DEFINED_COLOUR('white');
#282=DRAUGHTING_PRE_DEFINED_COLOUR('blue');
#283=PRESENTATION_LAYER_ASSIGNMENT('1','Layer 1',(#451,#452,#453,#280,#313,
#314,#315,#38,#39));
#284=STYLED_ITEM('',(#293),#451);
#285=STYLED_ITEM('',(#294),#452);
#286=STYLED_ITEM('',(#295),#453);
#287=STYLED_ITEM('',(#296),#280);
#288=STYLED_ITEM('',(#297),#313);
#289=STYLED_ITEM('',(#298),#314);
#290=STYLED_ITEM('',(#299),#315);
#291=STYLED_ITEM('',(#300),#38);
#292=STYLED_ITEM('',(#301),#39);
#293=PRESENTATION_STYLE_ASSIGNMENT((#302));
#294=PRESENTATION_STYLE_ASSIGNMENT((#303));
#295=PRESENTATION_STYLE_ASSIGNMENT((#304));
#296=PRESENTATION_STYLE_ASSIGNMENT((#272));
#297=PRESENTATION_STYLE_ASSIGNMENT((#273));
#298=PRESENTATION_STYLE_ASSIGNMENT((#274));
#299=PRESENTATION_STYLE_ASSIGNMENT((#275));
#300=PRESENTATION_STYLE_ASSIGNMENT((#28));
#301=PRESENTATION_STYLE_ASSIGNMENT((#29));
#302=POINT_STYLE('',#305,POSITIVE_LENGTH_MEASURE(3.),#308);
#303=POINT_STYLE('',#306,POSITIVE_LENGTH_MEASURE(3.),#281);
#304=POINT_STYLE('',#307,POSITIVE_LENGTH_MEASURE(3.),#308);
#305=PRE_DEFINED_POINT_MARKER_SYMBOL('plus');
#306=PRE_DEFINED_POINT_MARKER_SYMBOL('plus');
#307=PRE_DEFINED_POINT_MARKER_SYMBOL('plus');
#308=COLOUR_RGB('Medium Maroon',0.6,0.4,0.4);
#309=COLOUR_RGB('Silver Gray',0.6,0.6,0.6);
#310=COLOUR_RGB('TLS_NOCUT',0.498023956664378,0.498023956664378,0.498023956664378);
#311=COLOUR_RGB('TLS_CUT',0.8,0.8,0.8);
#312=AXIS2_PLACEMENT_3D('',#450,#358,#359);
#313=AXIS2_PLACEMENT_3D('PCS',#479,#360,#361);
#314=AXIS2_PLACEMENT_3D('MCS',#480,#362,#363);
#315=AXIS2_PLACEMENT_3D('CIP',#481,#364,#365);
#316=AXIS2_PLACEMENT_3D('',#482,#366,#367);
#317=AXIS2_PLACEMENT_3D('',#484,#368,#369);
#318=AXIS2_PLACEMENT_3D('',#486,#370,#371);
#319=AXIS2_PLACEMENT_3D('',#487,#372,#373);
#320=AXIS2_PLACEMENT_3D('',#489,#374,#375);
#321=AXIS2_PLACEMENT_3D('',#491,#376,#377);
#322=AXIS2_PLACEMENT_3D('',#492,#378,#379);
#323=AXIS2_PLACEMENT_3D('',#494,#380,#381);
#324=AXIS2_PLACEMENT_3D('',#495,#382,#383);
#325=AXIS2_PLACEMENT_3D('',#497,#384,#385);
#326=AXIS2_PLACEMENT_3D('',#499,#386,#387);
#327=AXIS2_PLACEMENT_3D('',#500,#388,#389);
#328=AXIS2_PLACEMENT_3D('',#501,#390,#391);
#329=AXIS2_PLACEMENT_3D('',#502,#392,#393);
#330=AXIS2_PLACEMENT_3D('',#504,#394,#395);
#331=AXIS2_PLACEMENT_3D('',#505,#396,#397);
#332=AXIS2_PLACEMENT_3D('',#507,#398,#399);
#333=AXIS2_PLACEMENT_3D('',#509,#400,#401);
#334=AXIS2_PLACEMENT_3D('',#510,#402,#403);
#335=AXIS2_PLACEMENT_3D('',#512,#404,#405);
#336=AXIS2_PLACEMENT_3D('',#513,#406,#407);
#337=AXIS2_PLACEMENT_3D('',#515,#408,#409);
#338=AXIS2_PLACEMENT_3D('',#516,#410,#411);
#339=AXIS2_PLACEMENT_3D('',#517,#412,#413);
#340=AXIS2_PLACEMENT_3D('',#519,#414,#415);
#341=AXIS2_PLACEMENT_3D('',#520,#416,#417);
#342=AXIS2_PLACEMENT_3D('',#522,#418,#419);
#343=AXIS2_PLACEMENT_3D('',#524,#420,#421);
#344=AXIS2_PLACEMENT_3D('',#525,#422,#423);
#345=AXIS2_PLACEMENT_3D('',#526,#424,#425);
#346=AXIS2_PLACEMENT_3D('',#528,#426,#427);
#347=AXIS2_PLACEMENT_3D('',#529,#428,#429);
#348=AXIS2_PLACEMENT_3D('',#531,#430,#431);
#349=AXIS2_PLACEMENT_3D('',#532,#432,#433);
#350=AXIS2_PLACEMENT_3D('',#534,#434,#435);
#351=AXIS2_PLACEMENT_3D('',#535,#436,#437);
#352=AXIS2_PLACEMENT_3D('',#538,#438,#439);
#353=AXIS2_PLACEMENT_3D('',#539,#440,#441);
#354=AXIS2_PLACEMENT_3D('',#541,#442,#443);
#355=AXIS2_PLACEMENT_3D('',#542,#444,#445);
#356=AXIS2_PLACEMENT_3D('',#544,#446,#447);
#357=AXIS2_PLACEMENT_3D('',#545,#448,#449);
#358=DIRECTION('',(0.,0.,1.));
#359=DIRECTION('',(1.,0.,0.));
#360=DIRECTION('',(0.,0.,1.));
#361=DIRECTION('',(1.,0.,0.));
#362=DIRECTION('',(0.,0.,1.));
#363=DIRECTION('',(1.,0.,0.));
#364=DIRECTION('',(0.,0.,1.));
#365=DIRECTION('',(1.,0.,0.));
#366=DIRECTION('',(0.,0.,1.));
#367=DIRECTION('',(1.,0.,0.));
#368=DIRECTION('',(0.,0.,-1.));
#369=DIRECTION('',(-1.,0.,0.));
#370=DIRECTION('',(0.,0.,1.));
#371=DIRECTION('',(1.,0.,0.));
#372=DIRECTION('',(1.14527501935239E-16,0.,-1.));
#373=DIRECTION('',(-1.,0.,0.));
#374=DIRECTION('',(0.,0.,1.));
#375=DIRECTION('',(1.,0.,0.));
#376=DIRECTION('',(1.14527501935239E-16,0.,-1.));
#377=DIRECTION('',(-1.,0.,0.));
#378=DIRECTION('',(-1.14527501935239E-16,0.,1.));
#379=DIRECTION('',(-1.,0.,0.));
#380=DIRECTION('',(1.14527501935239E-16,0.,-1.));
#381=DIRECTION('',(-1.,0.,0.));
#382=DIRECTION('',(1.14527501935239E-16,0.,-1.));
#383=DIRECTION('',(-1.,0.,0.));
#384=DIRECTION('',(1.14527501935239E-16,0.,-1.));
#385=DIRECTION('',(-1.,0.,0.));
#386=DIRECTION('',(1.14527501935239E-16,0.,-1.));
#387=DIRECTION('',(-1.,0.,-1.11795235069364E-16));
#388=DIRECTION('',(1.14527501935239E-16,0.,-1.));
#389=DIRECTION('',(-1.,0.,0.));
#390=DIRECTION('',(0.,0.,-1.));
#391=DIRECTION('',(-1.,0.,0.));
#392=DIRECTION('',(0.,0.,-1.));
#393=DIRECTION('',(-1.,0.,0.));
#394=DIRECTION('',(0.,0.,1.));
#395=DIRECTION('',(1.,0.,0.));
#396=DIRECTION('',(2.39646298340748E-16,0.,-1.));
#397=DIRECTION('',(-1.,0.,-2.39646298340748E-16));
#398=DIRECTION('',(0.,0.,1.));
#399=DIRECTION('',(1.,0.,0.));
#400=DIRECTION('',(2.39646298340748E-16,0.,-1.));
#401=DIRECTION('',(-1.,0.,-2.39646298340748E-16));
#402=DIRECTION('',(0.,0.,1.));
#403=DIRECTION('',(-1.,0.,0.));
#404=DIRECTION('',(0.,0.,-1.));
#405=DIRECTION('',(-1.,0.,0.));
#406=DIRECTION('',(0.,0.,-1.));
#407=DIRECTION('',(1.,0.,0.));
#408=DIRECTION('',(0.,0.,1.));
#409=DIRECTION('',(1.,0.,0.));
#410=DIRECTION('',(0.,0.,-1.));
#411=DIRECTION('',(-1.,0.,-7.57822010950947E-17));
#412=DIRECTION('',(0.,0.,1.));
#413=DIRECTION('',(-1.,0.,0.));
#414=DIRECTION('',(0.,0.,1.));
#415=DIRECTION('',(1.,0.,6.59875485576661E-17));
#416=DIRECTION('',(0.,0.,1.));
#417=DIRECTION('',(-1.,0.,0.));
#418=DIRECTION('',(0.,0.,-1.));
#419=DIRECTION('',(-1.,0.,0.));
#420=DIRECTION('',(0.,0.,1.));
#421=DIRECTION('',(1.,0.,0.));
#422=DIRECTION('',(0.,0.,-1.));
#423=DIRECTION('',(-1.,0.,0.));
#424=DIRECTION('',(0.,0.,1.));
#425=DIRECTION('',(1.,0.,0.));
#426=DIRECTION('',(0.,0.,1.));
#427=DIRECTION('',(1.,0.,0.));
#428=DIRECTION('',(0.,0.,1.));
#429=DIRECTION('',(1.,0.,0.));
#430=DIRECTION('',(0.,0.,1.));
#431=DIRECTION('',(1.,0.,0.));
#432=DIRECTION('',(0.,0.,-1.));
#433=DIRECTION('',(1.,0.,0.));
#434=DIRECTION('',(0.,0.,1.));
#435=DIRECTION('',(1.,0.,1.88672672623573E-16));
#436=DIRECTION('',(0.,0.,1.));
#437=DIRECTION('',(-1.,0.,0.));
#438=DIRECTION('',(0.,0.,-1.));
#439=DIRECTION('',(-1.,0.,1.60246890531962E-17));
#440=DIRECTION('',(0.,0.,1.));
#441=DIRECTION('',(-1.,0.,0.));
#442=DIRECTION('',(0.,0.,-1.));
#443=DIRECTION('',(-1.,0.,0.));
#444=DIRECTION('',(0.,0.,-1.));
#445=DIRECTION('',(1.,0.,0.));
#446=DIRECTION('',(0.,0.,-1.));
#447=DIRECTION('',(-1.,0.,0.));
#448=DIRECTION('',(0.,0.,1.));
#449=DIRECTION('',(1.,0.,0.));
#450=CARTESIAN_POINT('',(0.,0.,0.));
#451=CARTESIAN_POINT('',(0.,0.,-42.));
#452=CARTESIAN_POINT('CRP',(-8.37321642646872,0.,-100.));
#453=CARTESIAN_POINT('CIP_DCSYS',(0.,0.,-100.));
#454=CARTESIAN_POINT('',(-1.,0.,-99.0473720558371));
#455=CARTESIAN_POINT('',(-1.,0.,-98.1315813705581));
#456=CARTESIAN_POINT('',(-1.,0.,-97.2157906852791));
#457=CARTESIAN_POINT('',(-1.,0.,-96.3));
#458=CARTESIAN_POINT('',(-0.666666666666667,0.,-96.1075499102701));
#459=CARTESIAN_POINT('',(-0.333333333333333,0.,-95.9150998205402));
#460=CARTESIAN_POINT('',(0.,0.,-95.7226497308104));
#461=CARTESIAN_POINT('',(0.,0.,-90.1484331538736));
#462=CARTESIAN_POINT('',(0.,0.,-84.5742165769368));
#463=CARTESIAN_POINT('',(0.,0.,-79.));
#464=CARTESIAN_POINT('',(-2.85773880882291,0.,-79.));
#465=CARTESIAN_POINT('',(-5.71547761764582,0.,-79.));
#466=CARTESIAN_POINT('',(-8.57321642646872,0.,-79.));
#467=CARTESIAN_POINT('',(-8.57321642646872,0.,-83.94));
#468=CARTESIAN_POINT('',(-8.57321642646872,0.,-88.88));
#469=CARTESIAN_POINT('',(-8.57321642646872,0.,-93.82));
#470=CARTESIAN_POINT('',(-8.28547761764581,0.,-95.88));
#471=CARTESIAN_POINT('',(-7.99773880882291,0.,-97.94));
#472=CARTESIAN_POINT('',(-7.71,0.,-100.));
#473=CARTESIAN_POINT('',(-5.65666666666667,0.,-100.));
#474=CARTESIAN_POINT('',(-3.60333333333333,0.,-100.));
#475=CARTESIAN_POINT('',(-1.55,0.,-100.));
#476=CARTESIAN_POINT('',(-1.36666666666667,0.,-99.6824573519457));
#477=CARTESIAN_POINT('',(-1.18333333333333,0.,-99.3649147038914));
#478=CARTESIAN_POINT('',(-1.,0.,-99.0473720558371));
#479=CARTESIAN_POINT('',(0.,0.,0.));
#480=CARTESIAN_POINT('',(0.,0.,-42.));
#481=CARTESIAN_POINT('',(0.,0.,-100.));
#482=CARTESIAN_POINT('',(0.,0.,-78.8845299461621));
#483=CARTESIAN_POINT('',(8.57321642646871,0.,-78.8845299461621));
#484=CARTESIAN_POINT('',(0.,0.,-79.));
#485=CARTESIAN_POINT('',(-8.57321642646872,0.,-79.));
#486=CARTESIAN_POINT('',(0.,0.,-100.));
#487=CARTESIAN_POINT('',(5.43936829206229E-15,0.,-50.6538348415311));
#488=CARTESIAN_POINT('',(-5.84999999999999,0.,-50.6538348415311));
#489=CARTESIAN_POINT('',(0.,0.,-50.));
#490=CARTESIAN_POINT('',(6.00000000000001,0.,-50.));
#491=CARTESIAN_POINT('',(5.20417042793042E-15,0.,-50.6538348415311));
#492=CARTESIAN_POINT('',(8.41314646462115E-15,0.,-76.6194598862512));
#493=CARTESIAN_POINT('',(-5.84999999999998,0.,-76.6194598862512));
#494=CARTESIAN_POINT('',(5.32907051820075E-15,0.,-49.6907668273182));
#495=CARTESIAN_POINT('',(8.5520036811722E-15,0.,-77.8318954515494));
#496=CARTESIAN_POINT('',(-6.54999999999999,0.,-77.8318954515494));
#497=CARTESIAN_POINT('',(8.67255928029104E-15,0.,-78.8845299461621));
#498=CARTESIAN_POINT('',(-8.3732164264687,0.,-78.8845299461621));
#499=CARTESIAN_POINT('',(8.50571794232185E-15,0.,-77.4277502631167));
#500=CARTESIAN_POINT('',(8.41314646462115E-15,0.,-76.6194598862512));
#501=CARTESIAN_POINT('',(8.57321642646871,0.,-78.8845299461621));
#502=CARTESIAN_POINT('',(0.,0.,-14.64));
#503=CARTESIAN_POINT('',(-6.,0.,-14.64));
#504=CARTESIAN_POINT('',(0.,0.,20.9080749503476));
#505=CARTESIAN_POINT('',(-6.71045296058042E-16,0.,-7.58941520739853E-16));
#506=CARTESIAN_POINT('',(-1.55,0.,-1.13039328316801E-15));
#507=CARTESIAN_POINT('',(0.,0.,0.));
#508=CARTESIAN_POINT('',(3.96,0.,0.));
#509=CARTESIAN_POINT('',(6.20000000000001,0.,7.4290352485632E-16));
#510=CARTESIAN_POINT('',(0.,0.,-1.8));
#511=CARTESIAN_POINT('',(-5.76,0.,-1.8));
#512=CARTESIAN_POINT('',(0.,0.,0.));
#513=CARTESIAN_POINT('',(0.,0.,-14.4));
#514=CARTESIAN_POINT('',(5.76,0.,-14.4));
#515=CARTESIAN_POINT('',(0.,0.,20.9080749503476));
#516=CARTESIAN_POINT('',(0.,0.,-15.84));
#517=CARTESIAN_POINT('',(0.,0.,-0.952627944162881));
#518=CARTESIAN_POINT('',(-1.,0.,-0.952627944162881));
#519=CARTESIAN_POINT('',(0.,0.,-0.952627944162881));
#520=CARTESIAN_POINT('',(0.,0.,-3.7));
#521=CARTESIAN_POINT('',(-1.,0.,-3.7));
#522=CARTESIAN_POINT('',(0.,0.,20.9080749503476));
#523=CARTESIAN_POINT('',(0.,0.,-4.27735026918963));
#524=CARTESIAN_POINT('',(0.,0.,-4.27735026918963));
#525=CARTESIAN_POINT('',(0.,0.,-79.));
#526=CARTESIAN_POINT('',(0.,0.,-79.));
#527=CARTESIAN_POINT('',(8.57321642646872,0.,-79.));
#528=CARTESIAN_POINT('',(0.,0.,-79.));
#529=CARTESIAN_POINT('',(0.,0.,-93.82));
#530=CARTESIAN_POINT('',(8.57321642646872,0.,-93.82));
#531=CARTESIAN_POINT('',(0.,0.,-100.));
#532=CARTESIAN_POINT('',(0.,0.,-100.));
#533=CARTESIAN_POINT('',(7.71,0.,-100.));
#534=CARTESIAN_POINT('',(0.,0.,-102.));
#535=CARTESIAN_POINT('',(0.,0.,-96.3));
#536=CARTESIAN_POINT('',(-1.,0.,-96.3));
#537=CARTESIAN_POINT('',(0.,0.,-95.7226497308104));
#538=CARTESIAN_POINT('',(0.,0.,-95.7226497308104));
#539=CARTESIAN_POINT('',(0.,0.,-99.0473720558371));
#540=CARTESIAN_POINT('',(-1.,0.,-99.0473720558371));
#541=CARTESIAN_POINT('',(0.,0.,20.9080749503476));
#542=CARTESIAN_POINT('',(0.,0.,-100.));
#543=CARTESIAN_POINT('',(1.55,0.,-100.));
#544=CARTESIAN_POINT('',(0.,0.,-99.0473720558371));
#545=CARTESIAN_POINT('',(0.,0.,-100.));
#546=MECHANICAL_DESIGN_GEOMETRIC_PRESENTATION_REPRESENTATION('',(#284,#285,
#286,#287,#288,#289,#290,#291,#292),#547);
#547=(
GEOMETRIC_REPRESENTATION_CONTEXT(3)
GLOBAL_UNCERTAINTY_ASSIGNED_CONTEXT((#548))
GLOBAL_UNIT_ASSIGNED_CONTEXT((#554,#550,#549))
REPRESENTATION_CONTEXT('tool','TOP_LEVEL_ASSEMBLY_PART')
);
#548=UNCERTAINTY_MEASURE_WITH_UNIT(LENGTH_MEASURE(2.E-5),#554,
'DISTANCE_ACCURACY_VALUE','Maximum Tolerance applied to model');
#549=(
NAMED_UNIT(*)
SI_UNIT($,.STERADIAN.)
SOLID_ANGLE_UNIT()
);
#550=(
CONVERSION_BASED_UNIT('DEGREE',#552)
NAMED_UNIT(#551)
PLANE_ANGLE_UNIT()
);
#551=DIMENSIONAL_EXPONENTS(0.,0.,0.,0.,0.,0.,0.);
#552=PLANE_ANGLE_MEASURE_WITH_UNIT(PLANE_ANGLE_MEASURE(0.0174532925),#553);
#553=(
NAMED_UNIT(*)
PLANE_ANGLE_UNIT()
SI_UNIT($,.RADIAN.)
);
#554=(
LENGTH_UNIT()
NAMED_UNIT(*)
SI_UNIT(.MILLI.,.METRE.)
);
ENDSEC;
END-ISO-10303-21;
