ISO-10303-21;
HEADER;
FILE_DESCRIPTION(('STEP'), '1');
FILE_NAME('C:\\Users\\ds2002\\OneDrive - Sandvik\\HomeShare\\Documents\\Batchrepair\\CorSRT2\\NEW_MILTH_SLDAC\\Output\\MOD000000000000000020084660000000.stp', '2019-01-04T10:05:21', (''), (''), 'Express v3.0.0.0', 'Express Tool', 'Unknown');
FILE_SCHEMA(('AUTOMOTIVE_DESIGN'));
ENDSEC;

DATA;
#1 = MANIFOLD_SOLID_BREP('NOCUT', #2);
#2 = CLOSED_SHELL('', (#3, #20, #67, #106, #145, #154, #174));
#3 = ADVANCED_FACE('', (#4), #15, .T.);
#4 = FACE_OUTER_BOUND('', #5, .T.);
#5 = EDGE_LOOP('', (#6));
#6 = ORIENTED_EDGE('', *, *, #7, .T.);
#7 = EDGE_CURVE('', #8, #8, #10, .T.);
#8 = VERTEX_POINT('', #9);
#9 = CARTESIAN_POINT('', (-2.8009625, 5.25379370446935E-15, -83.));
#10 = CIRCLE('', #11, 2.8009625);
#11 = AXIS2_PLACEMENT_3D('', #12, #13, #14);
#12 = CARTESIAN_POINT('', (7.21644966006352E-16, 3.21964677141295E-15, -83.));
#13 = DIRECTION('', (5.07356121876032E-15, -1.65059007937492E-14, -1.));
#14 = DIRECTION('', (-1., 7.26231405474509E-16, -5.07356121876034E-15));
#15 = B_SPLINE_SURFACE_WITH_KNOTS('', 1, 1, ((#16, #17), (#18, #19)), .UNSPECIFIED., .F., .F., .U., (2, 2), (2, 2), (0.189472006651885, 0.810527993348115), (0.189472006651885, 0.810527993348115), .UNSPECIFIED.);
#16 = CARTESIAN_POINT('', (2.8009625, -2.8009625, -83.));
#17 = CARTESIAN_POINT('', (2.8009625, 2.8009625, -83.));
#18 = CARTESIAN_POINT('', (-2.8009625, -2.8009625, -83.));
#19 = CARTESIAN_POINT('', (-2.8009625, 2.8009625, -83.));
#20 = ADVANCED_FACE('', (#21), #48, .T.);
#21 = FACE_OUTER_BOUND('', #22, .T.);
#22 = EDGE_LOOP('', (#23, #33, #40, #41));
#23 = ORIENTED_EDGE('', *, *, #24, .F.);
#24 = EDGE_CURVE('', #25, #27, #29, .T.);
#25 = VERTEX_POINT('', #26);
#26 = CARTESIAN_POINT('', (-6., 3.89988773188475E-15, -57.69));
#27 = VERTEX_POINT('', #28);
#28 = CARTESIAN_POINT('', (-4.1, 3.89988773188475E-15, -59.59));
#29 = LINE('', #30, #31);
#30 = CARTESIAN_POINT('', (-6., 3.89988773188475E-15, -57.69));
#31 = VECTOR('', #32, 2.68700576850889);
#32 = DIRECTION('', (1.9, 0., -1.90000000000001));
#33 = ORIENTED_EDGE('', *, *, #34, .T.);
#34 = EDGE_CURVE('', #25, #25, #35, .T.);
#35 = CIRCLE('', #36, 6.);
#36 = AXIS2_PLACEMENT_3D('', #37, #38, #39);
#37 = CARTESIAN_POINT('', (4.9960036108132E-16, 2.88657986402541E-15, -57.69));
#38 = DIRECTION('', (0., 0., -1.));
#39 = DIRECTION('', (-1., 1.68884644643224E-16, 0.));
#40 = ORIENTED_EDGE('', *, *, #24, .T.);
#41 = ORIENTED_EDGE('', *, *, #42, .F.);
#42 = EDGE_CURVE('', #27, #27, #43, .T.);
#43 = CIRCLE('', #44, 4.1);
#44 = AXIS2_PLACEMENT_3D('', #45, #46, #47);
#45 = CARTESIAN_POINT('', (8.46545056276682E-16, 1.55431223447522E-15, -59.59));
#46 = DIRECTION('', (0., 0., -1.));
#47 = DIRECTION('', (-1., 5.72091584734032E-16, 0.));
#48 = (
   BOUNDED_SURFACE ()
   B_SPLINE_SURFACE (2, 1, ((#49, #50), (#51, #52), (#53, #54), (#55, #56), (#57, #58), (#59, #60), (#61, #62), (#63, #64), (#65, #66)), .UNSPECIFIED., .T., .F., .U.)
   B_SPLINE_SURFACE_WITH_KNOTS ((3, 2, 2, 2, 3), (2, 2), (0., 0.25, 0.5, 0.75, 1.), (0., 1.), .UNSPECIFIED.)
   GEOMETRIC_REPRESENTATION_ITEM ()
   RATIONAL_B_SPLINE_SURFACE (((1., 1.), (0.707106781186548, 0.707106781186548), (1., 1.), (0.707106781186548, 0.707106781186548), (1., 1.), (0.707106781186548, 0.707106781186548), (1., 1.), (0.707106781186548, 0.707106781186548), (1., 1.)))
   REPRESENTATION_ITEM ('')
   SURFACE ()
);
#49 = CARTESIAN_POINT('', (-6., 3.89988773188475E-15, -57.69));
#50 = CARTESIAN_POINT('', (-4.1, 2.24673927751244E-15, -59.59));
#51 = CARTESIAN_POINT('', (-6., 6., -57.69));
#52 = CARTESIAN_POINT('', (-4.1, 4.1, -59.59));
#53 = CARTESIAN_POINT('', (1.14551418919646E-15, 6., -57.69));
#54 = CARTESIAN_POINT('', (9.40974810293331E-16, 4.1, -59.59));
#55 = CARTESIAN_POINT('', (6., 6., -57.69));
#56 = CARTESIAN_POINT('', (4.1, 4.1, -59.59));
#57 = CARTESIAN_POINT('', (6., 2.60806007565448E-15, -57.69));
#58 = CARTESIAN_POINT('', (4.1, 1.36399037908842E-15, -59.59));
#59 = CARTESIAN_POINT('', (6., -6., -57.69));
#60 = CARTESIAN_POINT('', (4.1, -4.1, -59.59));
#61 = CARTESIAN_POINT('', (5.88474612454595E-16, -6., -57.69));
#62 = CARTESIAN_POINT('', (5.60331099519724E-16, -4.1, -59.59));
#63 = CARTESIAN_POINT('', (-6., -6., -57.69));
#64 = CARTESIAN_POINT('', (-4.1, -4.1, -59.59));
#65 = CARTESIAN_POINT('', (-6., 3.89988773188475E-15, -57.69));
#66 = CARTESIAN_POINT('', (-4.1, 2.24673927751244E-15, -59.59));
#67 = ADVANCED_FACE('', (#68), #87, .T.);
#68 = FACE_OUTER_BOUND('', #69, .T.);
#69 = EDGE_LOOP('', (#70, #78, #85, #86));
#70 = ORIENTED_EDGE('', *, *, #71, .T.);
#71 = EDGE_CURVE('', #25, #72, #74, .T.);
#72 = VERTEX_POINT('', #73);
#73 = CARTESIAN_POINT('', (-6., 4.04133443718627E-16, -0.600000000000009));
#74 = LINE('', #75, #76);
#75 = CARTESIAN_POINT('', (-6., 3.89988773188475E-15, -57.69));
#76 = VECTOR('', #77, 57.09);
#77 = DIRECTION('', (0., -3.49575428816612E-15, 57.09));
#78 = ORIENTED_EDGE('', *, *, #79, .T.);
#79 = EDGE_CURVE('', #72, #72, #80, .T.);
#80 = CIRCLE('', #81, 6.);
#81 = AXIS2_PLACEMENT_3D('', #82, #83, #84);
#82 = CARTESIAN_POINT('', (1.47104550762833E-15, -5.55111512312578E-16, -0.600000000000009));
#83 = DIRECTION('', (3.70074341541719E-17, 5.55929764527973E-18, -1.));
#84 = DIRECTION('', (-1., 1.59874159338534E-16, -3.70074341541719E-17));
#85 = ORIENTED_EDGE('', *, *, #71, .F.);
#86 = ORIENTED_EDGE('', *, *, #34, .F.);
#87 = (
   BOUNDED_SURFACE ()
   B_SPLINE_SURFACE (1, 2, ((#88, #89, #90, #91, #92, #93, #94, #95, #96), (#97, #98, #99, #100, #101, #102, #103, #104, #105)), .UNSPECIFIED., .F., .T., .U.)
   B_SPLINE_SURFACE_WITH_KNOTS ((2, 2), (3, 2, 2, 2, 3), (0., 1.), (0., 9.42477796076938, 18.8495559215388, 28.2743338823081, 37.6991118430775), .UNSPECIFIED.)
   GEOMETRIC_REPRESENTATION_ITEM ()
   RATIONAL_B_SPLINE_SURFACE (((1., 0.707106781186548, 1., 0.707106781186548, 1., 0.707106781186548, 1., 0.707106781186548, 1.), (1., 0.707106781186548, 1., 0.707106781186548, 1., 0.707106781186548, 1., 0.707106781186548, 1.)))
   REPRESENTATION_ITEM ('')
   SURFACE ()
);
#88 = CARTESIAN_POINT('', (-6., 7.37200351106173E-16, -57.69));
#89 = CARTESIAN_POINT('', (-6., 6., -57.69));
#90 = CARTESIAN_POINT('', (4.175650839777E-15, 6., -57.69));
#91 = CARTESIAN_POINT('', (6., 6., -57.69));
#92 = CARTESIAN_POINT('', (6., -4.46501481467825E-16, -57.69));
#93 = CARTESIAN_POINT('', (6., -6., -57.69));
#94 = CARTESIAN_POINT('', (3.72673708669142E-15, -6., -57.69));
#95 = CARTESIAN_POINT('', (-6., -6., -57.69));
#96 = CARTESIAN_POINT('', (-6., 7.37200351106173E-16, -57.69));
#97 = CARTESIAN_POINT('', (-6., 4.04133443718627E-16, -0.600000000000009));
#98 = CARTESIAN_POINT('', (-6., 6., -0.600000000000009));
#99 = CARTESIAN_POINT('', (2.06289642391533E-15, 6., -0.600000000000009));
#100 = CARTESIAN_POINT('', (6., 6., -0.600000000000009));
#101 = CARTESIAN_POINT('', (6., -7.79568388855371E-16, -0.600000000000009));
#102 = CARTESIAN_POINT('', (6., -6., -0.600000000000009));
#103 = CARTESIAN_POINT('', (1.61398267082975E-15, -6., -0.600000000000009));
#104 = CARTESIAN_POINT('', (-6., -6., -0.600000000000009));
#105 = CARTESIAN_POINT('', (-6., 4.04133443718627E-16, -0.600000000000009));
#106 = ADVANCED_FACE('', (#107), #126, .T.);
#107 = FACE_OUTER_BOUND('', #108, .T.);
#108 = EDGE_LOOP('', (#109, #117, #124, #125));
#109 = ORIENTED_EDGE('', *, *, #110, .T.);
#110 = EDGE_CURVE('', #72, #111, #113, .T.);
#111 = VERTEX_POINT('', #112);
#112 = CARTESIAN_POINT('', (-5.4, 3.30654635769785E-16, 0.));
#113 = LINE('', #114, #115);
#114 = CARTESIAN_POINT('', (-6., 4.04133443718627E-16, -0.600000000000009));
#115 = VECTOR('', #116, 0.848528137423863);
#116 = DIRECTION('', (0.6, -7.3478807948842E-17, 0.600000000000009));
#117 = ORIENTED_EDGE('', *, *, #118, .T.);
#118 = EDGE_CURVE('', #111, #111, #119, .T.);
#119 = CIRCLE('', #120, 5.4);
#120 = AXIS2_PLACEMENT_3D('', #121, #122, #123);
#121 = CARTESIAN_POINT('', (1.84574577843932E-15, -2.55351295663786E-15, -1.4791141972894E-31));
#122 = DIRECTION('', (5.31350199692362E-33, 6.12323399573676E-17, -1.));
#123 = DIRECTION('', (-1., 5.34105109705119E-16, 2.73910036535073E-32));
#124 = ORIENTED_EDGE('', *, *, #110, .F.);
#125 = ORIENTED_EDGE('', *, *, #79, .F.);
#126 = (
   BOUNDED_SURFACE ()
   B_SPLINE_SURFACE (1, 2, ((#127, #128, #129, #130, #131, #132, #133, #134, #135), (#136, #137, #138, #139, #140, #141, #142, #143, #144)), .UNSPECIFIED., .F., .T., .U.)
   B_SPLINE_SURFACE_WITH_KNOTS ((2, 2), (3, 2, 2, 2, 3), (0., 1.), (0., 0.25, 0.5, 0.75, 1.), .UNSPECIFIED.)
   GEOMETRIC_REPRESENTATION_ITEM ()
   RATIONAL_B_SPLINE_SURFACE (((1., 0.707106781186548, 1., 0.707106781186548, 1., 0.707106781186548, 1., 0.707106781186548, 1.), (1., 0.707106781186548, 1., 0.707106781186548, 1., 0.707106781186548, 1., 0.707106781186548, 1.)))
   REPRESENTATION_ITEM ('')
   SURFACE ()
);
#127 = CARTESIAN_POINT('', (-6., 2.98258605330569E-15, -0.600000000000009));
#128 = CARTESIAN_POINT('', (-6., 6., -0.599999999999986));
#129 = CARTESIAN_POINT('', (4.68298239692583E-15, 6., -0.599999999999986));
#130 = CARTESIAN_POINT('', (6., 6., -0.599999999999986));
#131 = CARTESIAN_POINT('', (6., -2.69188718366733E-15, -0.600000000000009));
#132 = CARTESIAN_POINT('', (6., -6., -0.600000000000032));
#133 = CARTESIAN_POINT('', (-2.56702760558774E-16, -6., -0.600000000000032));
#134 = CARTESIAN_POINT('', (-6., -6., -0.600000000000032));
#135 = CARTESIAN_POINT('', (-6., 2.98258605330569E-15, -0.600000000000009));
#136 = CARTESIAN_POINT('', (-5.4, 3.30654635769784E-16, -4.37905770101505E-47));
#137 = CARTESIAN_POINT('', (-5.4, 5.4, 2.09832151654152E-14));
#138 = CARTESIAN_POINT('', (4.39925873507718E-15, 5.4, 2.09832151654152E-14));
#139 = CARTESIAN_POINT('', (5.4, 5.4, 2.09832151654152E-14));
#140 = CARTESIAN_POINT('', (5.4, -4.77637127750593E-15, 2.2738798893567E-30));
#141 = CARTESIAN_POINT('', (5.4, -5.40000000000001, -2.09832151654151E-14));
#142 = CARTESIAN_POINT('', (-4.64579066589654E-17, -5.4, -2.09832151654152E-14));
#143 = CARTESIAN_POINT('', (-5.4, -5.4, -2.09832151654152E-14));
#144 = CARTESIAN_POINT('', (-5.4, 3.30654635769784E-16, -4.37905770101505E-47));
#145 = ADVANCED_FACE('', (#146), #149, .T.);
#146 = FACE_OUTER_BOUND('', #147, .T.);
#147 = EDGE_LOOP('', (#148));
#148 = ORIENTED_EDGE('', *, *, #118, .F.);
#149 = B_SPLINE_SURFACE_WITH_KNOTS('', 1, 1, ((#150, #151), (#152, #153)), .UNSPECIFIED., .F., .F., .U., (2, 2), (2, 2), (0.0454545454545454, 0.954545454545454), (0.0454545454545454, 0.954545454545454), .UNSPECIFIED.);
#150 = CARTESIAN_POINT('', (5.4, -5.4, -3.30654635769785E-16));
#151 = CARTESIAN_POINT('', (-5.4, -5.4, -3.30654635769785E-16));
#152 = CARTESIAN_POINT('', (5.4, 5.4, 3.30654635769785E-16));
#153 = CARTESIAN_POINT('', (-5.4, 5.4, 3.30654635769785E-16));
#154 = ADVANCED_FACE('', (#155, #158), #169, .T.);
#155 = FACE_OUTER_BOUND('', #156, .T.);
#156 = EDGE_LOOP('', (#157));
#157 = ORIENTED_EDGE('', *, *, #42, .T.);
#158 = FACE_BOUND('', #159, .T.);
#159 = EDGE_LOOP('', (#160));
#160 = ORIENTED_EDGE('', *, *, #161, .F.);
#161 = EDGE_CURVE('', #162, #162, #164, .T.);
#162 = VERTEX_POINT('', #163);
#163 = CARTESIAN_POINT('', (-2.8009625, 3.82034462606738E-15, -59.59));
#164 = CIRCLE('', #165, 2.8009625);
#165 = AXIS2_PLACEMENT_3D('', #166, #167, #168);
#166 = CARTESIAN_POINT('', (4.9960036108132E-16, 7.21644966006352E-16, -59.59));
#167 = DIRECTION('', (-9.55180971342999E-30, -8.63402838270755E-15, -1.));
#168 = DIRECTION('', (-1., 1.10629816002929E-15, 0.));
#169 = B_SPLINE_SURFACE_WITH_KNOTS('', 1, 1, ((#170, #171), (#172, #173)), .UNSPECIFIED., .F., .F., .U., (2, 2), (2, 2), (0.0454545454545453, 0.954545454545454), (0.0454545454545452, 0.954545454545454), .UNSPECIFIED.);
#170 = CARTESIAN_POINT('', (4.1, -4.1, -59.59));
#171 = CARTESIAN_POINT('', (4.1, 4.1, -59.59));
#172 = CARTESIAN_POINT('', (-4.1, -4.1, -59.59));
#173 = CARTESIAN_POINT('', (-4.1, 4.1, -59.59));
#174 = ADVANCED_FACE('', (#175), #186, .T.);
#175 = FACE_OUTER_BOUND('', #176, .T.);
#176 = EDGE_LOOP('', (#177, #183, #184, #185));
#177 = ORIENTED_EDGE('', *, *, #178, .T.);
#178 = EDGE_CURVE('', #8, #162, #179, .T.);
#179 = LINE('', #180, #181);
#180 = CARTESIAN_POINT('', (-2.8009625, 5.25379370446935E-15, -83.));
#181 = VECTOR('', #182, 23.41);
#182 = DIRECTION('', (0., -1.43344907840197E-15, 23.41));
#183 = ORIENTED_EDGE('', *, *, #161, .T.);
#184 = ORIENTED_EDGE('', *, *, #178, .F.);
#185 = ORIENTED_EDGE('', *, *, #7, .F.);
#186 = (
   BOUNDED_SURFACE ()
   B_SPLINE_SURFACE (1, 2, ((#187, #188, #189, #190, #191, #192, #193, #194, #195), (#196, #197, #198, #199, #200, #201, #202, #203, #204)), .UNSPECIFIED., .F., .T., .U.)
   B_SPLINE_SURFACE_WITH_KNOTS ((2, 2), (3, 2, 2, 2, 3), (0., 1.), (0., 4.39974160649025, 8.7994832129805, 13.1992248194708, 17.598966425961), .UNSPECIFIED.)
   GEOMETRIC_REPRESENTATION_ITEM ()
   RATIONAL_B_SPLINE_SURFACE (((1., 0.707106781186548, 1., 0.707106781186548, 1., 0.707106781186548, 1., 0.707106781186548, 1.), (1., 0.707106781186548, 1., 0.707106781186548, 1., 0.707106781186548, 1., 0.707106781186548, 1.)))
   REPRESENTATION_ITEM ('')
   SURFACE ()
);
#187 = CARTESIAN_POINT('', (-2.8009625, 6.31834643147398E-15, -83.));
#188 = CARTESIAN_POINT('', (-2.80096249999999, 2.8009625, -83.));
#189 = CARTESIAN_POINT('', (3.42679053313451E-15, 2.8009625, -83.));
#190 = CARTESIAN_POINT('', (2.8009625, 2.8009625, -83.));
#191 = CARTESIAN_POINT('', (2.8009625, 4.63966087367605E-16, -83.));
#192 = CARTESIAN_POINT('', (2.8009625, -2.8009625, -83.));
#193 = CARTESIAN_POINT('', (-2.08457083495619E-15, -2.80096249999999, -83.));
#194 = CARTESIAN_POINT('', (-2.8009625, -2.80096249999999, -83.));
#195 = CARTESIAN_POINT('', (-2.8009625, 6.31834643147398E-15, -83.));
#196 = CARTESIAN_POINT('', (-2.8009625, 3.82034462606738E-15, -59.59));
#197 = CARTESIAN_POINT('', (-2.80096249999999, 2.8009625, -59.59));
#198 = CARTESIAN_POINT('', (3.42679053313451E-15, 2.8009625, -59.59));
#199 = CARTESIAN_POINT('', (2.8009625, 2.8009625, -59.59));
#200 = CARTESIAN_POINT('', (2.8009625, -2.034035718039E-15, -59.59));
#201 = CARTESIAN_POINT('', (2.8009625, -2.8009625, -59.59));
#202 = CARTESIAN_POINT('', (-2.08457083495619E-15, -2.8009625, -59.59));
#203 = CARTESIAN_POINT('', (-2.8009625, -2.80096249999999, -59.59));
#204 = CARTESIAN_POINT('', (-2.8009625, 3.82034462606738E-15, -59.59));
#205 = DRAUGHTING_MODEL('', (#213, #351, #390, #395, #400, #405, #410), #424);
#206 = PRESENTATION_STYLE_ASSIGNMENT((#207));
#207 = SURFACE_STYLE_USAGE(.POSITIVE., #208);
#208 = SURFACE_SIDE_STYLE('', (#209));
#209 = SURFACE_STYLE_FILL_AREA(#210);
#210 = FILL_AREA_STYLE('', (#211));
#211 = FILL_AREA_STYLE_COLOUR('', #212);
#212 = COLOUR_RGB('', 0.50196078431373, 0.50196078431373, 0.50196078431373);
#213 = STYLED_ITEM('', (#206), #1);
#214 = MANIFOLD_SOLID_BREP('CUT', #215);
#215 = CLOSED_SHELL('', (#216, #263, #288, #327));
#216 = ADVANCED_FACE('', (#217), #244, .T.);
#217 = FACE_OUTER_BOUND('', #218, .T.);
#218 = EDGE_LOOP('', (#219, #229, #236, #237));
#219 = ORIENTED_EDGE('', *, *, #220, .F.);
#220 = EDGE_CURVE('', #221, #223, #225, .T.);
#221 = VERTEX_POINT('', #222);
#222 = CARTESIAN_POINT('', (-4.1, 3.89988773188475E-15, -59.59));
#223 = VERTEX_POINT('', #224);
#224 = CARTESIAN_POINT('', (-4.1, 5.33333681028672E-15, -83.));
#225 = LINE('', #226, #227);
#226 = CARTESIAN_POINT('', (-4.1, 3.89988773188475E-15, -59.59));
#227 = VECTOR('', #228, 23.41);
#228 = DIRECTION('', (0., 1.43344907840197E-15, -23.41));
#229 = ORIENTED_EDGE('', *, *, #230, .T.);
#230 = EDGE_CURVE('', #221, #221, #231, .T.);
#231 = CIRCLE('', #232, 4.1);
#232 = AXIS2_PLACEMENT_3D('', #233, #234, #235);
#233 = CARTESIAN_POINT('', (8.46545056276682E-16, 1.55431223447522E-15, -59.59));
#234 = DIRECTION('', (0., 0., -1.));
#235 = DIRECTION('', (-1., 5.72091584734032E-16, 0.));
#236 = ORIENTED_EDGE('', *, *, #220, .T.);
#237 = ORIENTED_EDGE('', *, *, #238, .F.);
#238 = EDGE_CURVE('', #223, #223, #239, .T.);
#239 = CIRCLE('', #240, 4.1);
#240 = AXIS2_PLACEMENT_3D('', #241, #242, #243);
#241 = CARTESIAN_POINT('', (9.85322934354826E-16, 3.66373598126302E-15, -83.));
#242 = DIRECTION('', (-4.80391926850571E-30, -1.17968730360482E-14, -1.));
#243 = DIRECTION('', (-1., 4.07219714396025E-16, 0.));
#244 = (
   BOUNDED_SURFACE ()
   B_SPLINE_SURFACE (2, 1, ((#245, #246), (#247, #248), (#249, #250), (#251, #252), (#253, #254), (#255, #256), (#257, #258), (#259, #260), (#261, #262)), .UNSPECIFIED., .T., .F., .U.)
   B_SPLINE_SURFACE_WITH_KNOTS ((3, 2, 2, 2, 3), (2, 2), (0., 6.44026493985908, 12.8805298797182, 19.3207948195772, 25.7610597594363), (0., 1.), .UNSPECIFIED.)
   GEOMETRIC_REPRESENTATION_ITEM ()
   RATIONAL_B_SPLINE_SURFACE (((1., 1.), (0.707106781186548, 0.707106781186548), (1., 1.), (0.707106781186548, 0.707106781186548), (1., 1.), (0.707106781186548, 0.707106781186548), (1., 1.), (0.707106781186548, 0.707106781186548), (1., 1.)))
   REPRESENTATION_ITEM ('')
   SURFACE ()
);
#245 = CARTESIAN_POINT('', (-4.1, 3.89988773188475E-15, -59.59));
#246 = CARTESIAN_POINT('', (-4.1, 7.7856683180728E-15, -83.));
#247 = CARTESIAN_POINT('', (-4.09999999999999, 4.1, -59.59));
#248 = CARTESIAN_POINT('', (-4.09999999999999, 4.10000000000001, -83.));
#249 = CARTESIAN_POINT('', (4.80069152610814E-15, 4.1, -59.59));
#250 = CARTESIAN_POINT('', (4.80069152610815E-15, 4.1, -83.));
#251 = CARTESIAN_POINT('', (4.1, 4.1, -59.59));
#252 = CARTESIAN_POINT('', (4.1, 4.1, -83.));
#253 = CARTESIAN_POINT('', (4.1, -3.8418717540844E-15, -59.59));
#254 = CARTESIAN_POINT('', (4.1, 4.39088321036496E-17, -83.));
#255 = CARTESIAN_POINT('', (4.1, -4.1, -59.59));
#256 = CARTESIAN_POINT('', (4.1, -4.1, -83.));
#257 = CARTESIAN_POINT('', (-2.43896277221059E-15, -4.1, -59.59));
#258 = CARTESIAN_POINT('', (-2.43896277221059E-15, -4.1, -83.));
#259 = CARTESIAN_POINT('', (-4.1, -4.1, -59.59));
#260 = CARTESIAN_POINT('', (-4.1, -4.09999999999999, -83.));
#261 = CARTESIAN_POINT('', (-4.1, 3.89988773188475E-15, -59.59));
#262 = CARTESIAN_POINT('', (-4.1, 7.7856683180728E-15, -83.));
#263 = ADVANCED_FACE('', (#264), #283, .T.);
#264 = FACE_OUTER_BOUND('', #265, .T.);
#265 = EDGE_LOOP('', (#266, #274, #281, #282));
#266 = ORIENTED_EDGE('', *, *, #267, .F.);
#267 = EDGE_CURVE('', #268, #221, #270, .T.);
#268 = VERTEX_POINT('', #269);
#269 = CARTESIAN_POINT('', (-2.8009625, 3.82034462606738E-15, -59.59));
#270 = LINE('', #271, #272);
#271 = CARTESIAN_POINT('', (-2.8009625, 3.82034462606738E-15, -59.59));
#272 = VECTOR('', #273, 1.2990375);
#273 = DIRECTION('', (-1.2990375, 7.95431058173703E-17, 0.));
#274 = ORIENTED_EDGE('', *, *, #275, .T.);
#275 = EDGE_CURVE('', #268, #268, #276, .T.);
#276 = CIRCLE('', #277, 2.8009625);
#277 = AXIS2_PLACEMENT_3D('', #278, #279, #280);
#278 = CARTESIAN_POINT('', (4.9960036108132E-16, 7.21644966006352E-16, -59.59));
#279 = DIRECTION('', (-9.55180971342999E-30, -8.63402838270755E-15, -1.));
#280 = DIRECTION('', (-1., 1.10629816002929E-15, 0.));
#281 = ORIENTED_EDGE('', *, *, #267, .T.);
#282 = ORIENTED_EDGE('', *, *, #230, .F.);
#283 = B_SPLINE_SURFACE_WITH_KNOTS('', 1, 1, ((#284, #285), (#286, #287)), .UNSPECIFIED., .F., .F., .U., (2, 2), (2, 2), (0., 1.), (0., 1.), .UNSPECIFIED.);
#284 = CARTESIAN_POINT('', (4.51, -4.51, -59.59));
#285 = CARTESIAN_POINT('', (-4.51, -4.51, -59.59));
#286 = CARTESIAN_POINT('', (4.51, 4.51, -59.59));
#287 = CARTESIAN_POINT('', (-4.51, 4.51, -59.59));
#288 = ADVANCED_FACE('', (#289), #308, .T.);
#289 = FACE_OUTER_BOUND('', #290, .T.);
#290 = EDGE_LOOP('', (#291, #299, #306, #307));
#291 = ORIENTED_EDGE('', *, *, #292, .F.);
#292 = EDGE_CURVE('', #293, #268, #295, .T.);
#293 = VERTEX_POINT('', #294);
#294 = CARTESIAN_POINT('', (-2.8009625, 5.25379370446935E-15, -83.));
#295 = LINE('', #296, #297);
#296 = CARTESIAN_POINT('', (-2.8009625, 5.25379370446935E-15, -83.));
#297 = VECTOR('', #298, 23.41);
#298 = DIRECTION('', (0., -1.43344907840197E-15, 23.41));
#299 = ORIENTED_EDGE('', *, *, #300, .T.);
#300 = EDGE_CURVE('', #293, #293, #301, .T.);
#301 = CIRCLE('', #302, 2.8009625);
#302 = AXIS2_PLACEMENT_3D('', #303, #304, #305);
#303 = CARTESIAN_POINT('', (7.21644966006352E-16, 3.21964677141295E-15, -83.));
#304 = DIRECTION('', (5.07356121876032E-15, -1.65059007937492E-14, -1.));
#305 = DIRECTION('', (-1., 7.26231405474509E-16, -5.07356121876034E-15));
#306 = ORIENTED_EDGE('', *, *, #292, .T.);
#307 = ORIENTED_EDGE('', *, *, #275, .F.);
#308 = (
   BOUNDED_SURFACE ()
   B_SPLINE_SURFACE (2, 1, ((#309, #310), (#311, #312), (#313, #314), (#315, #316), (#317, #318), (#319, #320), (#321, #322), (#323, #324), (#325, #326)), .UNSPECIFIED., .T., .F., .U.)
   B_SPLINE_SURFACE_WITH_KNOTS ((3, 2, 2, 2, 3), (2, 2), (0., 4.39974160649025, 8.7994832129805, 13.1992248194708, 17.598966425961), (0., 1.), .UNSPECIFIED.)
   GEOMETRIC_REPRESENTATION_ITEM ()
   RATIONAL_B_SPLINE_SURFACE (((1., 1.), (0.707106781186548, 0.707106781186548), (1., 1.), (0.707106781186548, 0.707106781186548), (1., 1.), (0.707106781186548, 0.707106781186548), (1., 1.), (0.707106781186548, 0.707106781186548), (1., 1.)))
   REPRESENTATION_ITEM ('')
   SURFACE ()
);
#309 = CARTESIAN_POINT('', (-2.8009625, 6.31834643147398E-15, -83.));
#310 = CARTESIAN_POINT('', (-2.8009625, 3.82034462606738E-15, -59.59));
#311 = CARTESIAN_POINT('', (-2.80096249999999, 2.8009625, -83.));
#312 = CARTESIAN_POINT('', (-2.80096249999999, 2.8009625, -59.59));
#313 = CARTESIAN_POINT('', (3.42679053313451E-15, 2.8009625, -83.));
#314 = CARTESIAN_POINT('', (3.42679053313451E-15, 2.8009625, -59.59));
#315 = CARTESIAN_POINT('', (2.8009625, 2.8009625, -83.));
#316 = CARTESIAN_POINT('', (2.8009625, 2.8009625, -59.59));
#317 = CARTESIAN_POINT('', (2.8009625, 4.63966087367605E-16, -83.));
#318 = CARTESIAN_POINT('', (2.8009625, -2.034035718039E-15, -59.59));
#319 = CARTESIAN_POINT('', (2.8009625, -2.8009625, -83.));
#320 = CARTESIAN_POINT('', (2.8009625, -2.8009625, -59.59));
#321 = CARTESIAN_POINT('', (-2.08457083495619E-15, -2.80096249999999, -83.));
#322 = CARTESIAN_POINT('', (-2.08457083495619E-15, -2.8009625, -59.59));
#323 = CARTESIAN_POINT('', (-2.8009625, -2.80096249999999, -83.));
#324 = CARTESIAN_POINT('', (-2.8009625, -2.80096249999999, -59.59));
#325 = CARTESIAN_POINT('', (-2.8009625, 6.31834643147398E-15, -83.));
#326 = CARTESIAN_POINT('', (-2.8009625, 3.82034462606738E-15, -59.59));
#327 = ADVANCED_FACE('', (#328), #339, .T.);
#328 = FACE_OUTER_BOUND('', #329, .T.);
#329 = EDGE_LOOP('', (#330, #336, #337, #338));
#330 = ORIENTED_EDGE('', *, *, #331, .F.);
#331 = EDGE_CURVE('', #223, #293, #332, .T.);
#332 = LINE('', #333, #334);
#333 = CARTESIAN_POINT('', (-4.1, 5.33333681028672E-15, -83.));
#334 = VECTOR('', #335, 1.2990375);
#335 = DIRECTION('', (1.2990375, -7.95431058173703E-17, 0.));
#336 = ORIENTED_EDGE('', *, *, #238, .T.);
#337 = ORIENTED_EDGE('', *, *, #331, .T.);
#338 = ORIENTED_EDGE('', *, *, #300, .F.);
#339 = B_SPLINE_SURFACE_WITH_KNOTS('', 1, 1, ((#340, #341), (#342, #343)), .UNSPECIFIED., .F., .F., .U., (2, 2), (2, 2), (0., 1.), (0., 1.), .UNSPECIFIED.);
#340 = CARTESIAN_POINT('', (4.51, -4.50999999999999, -83.));
#341 = CARTESIAN_POINT('', (4.51, 4.51000000000001, -83.));
#342 = CARTESIAN_POINT('', (-4.51, -4.50999999999999, -83.));
#343 = CARTESIAN_POINT('', (-4.51, 4.51000000000001, -83.));
#344 = PRESENTATION_STYLE_ASSIGNMENT((#345));
#345 = SURFACE_STYLE_USAGE(.POSITIVE., #346);
#346 = SURFACE_SIDE_STYLE('', (#347));
#347 = SURFACE_STYLE_FILL_AREA(#348);
#348 = FILL_AREA_STYLE('', (#349));
#349 = FILL_AREA_STYLE_COLOUR('', #350);
#350 = COLOUR_RGB('', 0.8, 0.8, 0.8);
#351 = STYLED_ITEM('', (#344), #214);
#352 = TRIMMED_CURVE('cutting part line', #353, (#357), (#358), .T., .CARTESIAN.);
#353 = LINE('', #354, #355);
#354 = CARTESIAN_POINT('', (4.1, 0., -59.59));
#355 = VECTOR('', #356, 1.2990375);
#356 = DIRECTION('', (-1.2990375, 0., 0.));
#357 = CARTESIAN_POINT('', (4.1, 0., -59.59));
#358 = CARTESIAN_POINT('', (2.8009625, 0., -59.59));
#359 = TRIMMED_CURVE('cutting part line', #360, (#364), (#365), .T., .CARTESIAN.);
#360 = LINE('', #361, #362);
#361 = CARTESIAN_POINT('', (2.8009625, 0., -59.59));
#362 = VECTOR('', #363, 23.41);
#363 = DIRECTION('', (0., 2.4976213476323E-15, -23.41));
#364 = CARTESIAN_POINT('', (2.8009625, 0., -59.59));
#365 = CARTESIAN_POINT('', (2.8009625, 2.4976213476323E-15, -83.));
#366 = TRIMMED_CURVE('cutting part line', #367, (#371), (#372), .T., .CARTESIAN.);
#367 = LINE('', #368, #369);
#368 = CARTESIAN_POINT('', (2.8009625, 0., -83.));
#369 = VECTOR('', #370, 1.2990375);
#370 = DIRECTION('', (1.2990375, 0., 0.));
#371 = CARTESIAN_POINT('', (2.8009625, 0., -83.));
#372 = CARTESIAN_POINT('', (4.1, 0., -83.));
#373 = TRIMMED_CURVE('cutting part line', #374, (#378), (#379), .T., .CARTESIAN.);
#374 = LINE('', #375, #376);
#375 = CARTESIAN_POINT('', (4.1, 3.88518876298357E-15, -83.));
#376 = VECTOR('', #377, 23.41);
#377 = DIRECTION('', (0., -3.88518876298357E-15, 23.41));
#378 = CARTESIAN_POINT('', (4.1, 3.88518876298357E-15, -83.));
#379 = CARTESIAN_POINT('', (4.1, 0., -59.59));
#380 = COMPOSITE_CURVE('cutting part line', (#381, #382, #383, #384), .U.);
#381 = COMPOSITE_CURVE_SEGMENT(.CONTINUOUS., .T., #352);
#382 = COMPOSITE_CURVE_SEGMENT(.CONTINUOUS., .T., #359);
#383 = COMPOSITE_CURVE_SEGMENT(.CONTINUOUS., .T., #366);
#384 = COMPOSITE_CURVE_SEGMENT(.CONTINUOUS., .T., #373);
#385 = GEOMETRIC_SET('', (#380, #423));
#386 = PRESENTATION_STYLE_ASSIGNMENT((#387));
#387 = CURVE_STYLE('', #389, POSITIVE_LENGTH_MEASURE(1.E-6), #388);
#388 = COLOUR_RGB('', 0., 0., 1.);
#389 = DRAUGHTING_PRE_DEFINED_CURVE_FONT('continuous');
#390 = STYLED_ITEM('', (#386), #380);
#391 = PRESENTATION_STYLE_ASSIGNMENT((#392));
#392 = CURVE_STYLE('', #394, POSITIVE_LENGTH_MEASURE(1.E-6), #393);
#393 = COLOUR_RGB('', 0., 0., 1.);
#394 = DRAUGHTING_PRE_DEFINED_CURVE_FONT('continuous');
#395 = OVER_RIDING_STYLED_ITEM('', (#391), #352, #390);
#396 = PRESENTATION_STYLE_ASSIGNMENT((#397));
#397 = CURVE_STYLE('', #399, POSITIVE_LENGTH_MEASURE(1.E-6), #398);
#398 = COLOUR_RGB('', 0., 0., 1.);
#399 = DRAUGHTING_PRE_DEFINED_CURVE_FONT('continuous');
#400 = OVER_RIDING_STYLED_ITEM('', (#396), #359, #390);
#401 = PRESENTATION_STYLE_ASSIGNMENT((#402));
#402 = CURVE_STYLE('', #404, POSITIVE_LENGTH_MEASURE(1.E-6), #403);
#403 = COLOUR_RGB('', 0., 0., 1.);
#404 = DRAUGHTING_PRE_DEFINED_CURVE_FONT('continuous');
#405 = OVER_RIDING_STYLED_ITEM('', (#401), #366, #390);
#406 = PRESENTATION_STYLE_ASSIGNMENT((#407));
#407 = CURVE_STYLE('', #409, POSITIVE_LENGTH_MEASURE(1.E-6), #408);
#408 = COLOUR_RGB('', 0., 0., 1.);
#409 = DRAUGHTING_PRE_DEFINED_CURVE_FONT('continuous');
#410 = OVER_RIDING_STYLED_ITEM('', (#406), #373, #390);
#411 = AXIS2_PLACEMENT_3D('MCS', #412, #413, #414);
#412 = CARTESIAN_POINT('', (0., 0., -45.));
#413 = DIRECTION('', (0., 0., 1.));
#414 = DIRECTION('', (1., 0., 0.));
#415 = AXIS2_PLACEMENT_3D('PCS', #416, #417, #418);
#416 = CARTESIAN_POINT('', (0., 0., 0.));
#417 = DIRECTION('', (0., 0., 1.));
#418 = DIRECTION('', (1., 0., 0.));
#419 = AXIS2_PLACEMENT_3D('CIP', #420, #421, #422);
#420 = CARTESIAN_POINT('', (0., 0., -83.));
#421 = DIRECTION('', (0., 0., 1.));
#422 = DIRECTION('', (1., 0., 0.));
#423 = CARTESIAN_POINT('CRP', (4.1, 0., -83.));
#424 = (
   GEOMETRIC_REPRESENTATION_CONTEXT (3)
   GLOBAL_UNCERTAINTY_ASSIGNED_CONTEXT ((#426))
   GLOBAL_UNIT_ASSIGNED_CONTEXT ((#425, #427, #428))
   REPRESENTATION_CONTEXT ('', '3D')
);
#425 = (
   LENGTH_UNIT ()
   NAMED_UNIT (*)
   SI_UNIT (.MILLI., .METRE.)
);
#426 = UNCERTAINTY_MEASURE_WITH_UNIT(LENGTH_MEASURE(1.E-6), #425, 'DISTANCE_ACCURACY_VALUE', '');
#427 = (
   NAMED_UNIT (*)
   SI_UNIT ($, .STERADIAN.)
   SOLID_ANGLE_UNIT ()
);
#428 = (
   NAMED_UNIT (*)
   PLANE_ANGLE_UNIT ()
   SI_UNIT ($, .RADIAN.)
);
#429 = SHAPE_REPRESENTATION('', (), #424);
#430 = PRODUCT_DEFINITION_SHAPE('', '', #431);
#431 = PRODUCT_DEFINITION('', '', #434, #438);
#432 = APPLICATION_CONTEXT('configuration controlled 3D designs of mechanical parts and assemblies');
#433 = APPLICATION_PROTOCOL_DEFINITION('International Standard', 'automotive_design', 2002, #432);
#434 = PRODUCT_DEFINITION_FORMATION_WITH_SPECIFIED_SOURCE('', '', #435, .NOT_KNOWN.);
#435 = PRODUCT('product-name', 'R217.13C082150CC21K 1630', '', (#436));
#436 = PRODUCT_CONTEXT('', #432, 'mechanical');
#437 = PRODUCT_RELATED_PRODUCT_CATEGORY('detail', '', (#435));
#438 = PRODUCT_DEFINITION_CONTEXT('part definition', #432, 'design');
#439 = SHAPE_DEFINITION_REPRESENTATION(#430, #429);
#440 = CONSTRUCTIVE_GEOMETRY_REPRESENTATION('supplemental geometry', (#411, #415, #419), #424);
#441 = CONSTRUCTIVE_GEOMETRY_REPRESENTATION_RELATIONSHIP('', '', #429, #440);
#442 = SHAPE_REPRESENTATION_RELATIONSHIP('', '', #429, #443);
#443 = SHAPE_REPRESENTATION('', (#385), #424);
#444 = SHAPE_REPRESENTATION_RELATIONSHIP('', '', #429, #445);
#445 = ADVANCED_BREP_SHAPE_REPRESENTATION('', (#1, #214), #424);
ENDSEC;
END-ISO-10303-21;
