ISO-10303-21;
HEADER;
FILE_DESCRIPTION(('STEP'), '1');
FILE_NAME('C:\\Users\\ds2002\\OneDrive - Sandvik\\HomeShare\\Documents\\Batchrepair\\CorSRT2\\NEW_MILTH_SLD\\Output\\MOD000000000000000020084664600000.stp', '2019-01-04T08:50:51', (''), (''), 'Express v3.0.0.0', 'Express Tool', 'Unknown');
FILE_SCHEMA(('AUTOMOTIVE_DESIGN'));
ENDSEC;

DATA;
#1 = MANIFOLD_SOLID_BREP('NOCUT', #2);
#2 = CLOSED_SHELL('', (#3, #50, #59, #98));
#3 = ADVANCED_FACE('', (#4), #31, .T.);
#4 = FACE_OUTER_BOUND('', #5, .T.);
#5 = EDGE_LOOP('', (#6, #16, #23, #24));
#6 = ORIENTED_EDGE('', *, *, #7, .T.);
#7 = EDGE_CURVE('', #8, #10, #12, .T.);
#8 = VERTEX_POINT('', #9);
#9 = CARTESIAN_POINT('', (-4., 2.69422295812418E-16, -0.399999999999999));
#10 = VERTEX_POINT('', #11);
#11 = CARTESIAN_POINT('', (-3.6, 2.20436423846524E-16, 0.));
#12 = LINE('', #13, #14);
#13 = CARTESIAN_POINT('', (-4., 2.69422295812418E-16, -0.399999999999999));
#14 = VECTOR('', #15, 0.565685424949237);
#15 = DIRECTION('', (0.4, -4.8985871965894E-17, 0.399999999999999));
#16 = ORIENTED_EDGE('', *, *, #17, .T.);
#17 = EDGE_CURVE('', #10, #10, #18, .T.);
#18 = CIRCLE('', #19, 3.6);
#19 = AXIS2_PLACEMENT_3D('', #20, #21, #22);
#20 = CARTESIAN_POINT('', (-5.55111512312578E-16, -1.11022302462516E-16, -6.16297582203915E-33));
#21 = DIRECTION('', (3.9258382192089E-33, 6.12323399573677E-17, -1.));
#22 = DIRECTION('', (-1., 9.20718684191777E-17, 1.71193772834421E-33));
#23 = ORIENTED_EDGE('', *, *, #7, .F.);
#24 = ORIENTED_EDGE('', *, *, #25, .F.);
#25 = EDGE_CURVE('', #8, #8, #26, .T.);
#26 = CIRCLE('', #27, 4.);
#27 = AXIS2_PLACEMENT_3D('', #28, #29, #30);
#28 = CARTESIAN_POINT('', (5.55111512312578E-17, 1.11022302462516E-16, -0.399999999999999));
#29 = DIRECTION('', (-1.38777878078145E-17, 1.39615984421495E-16, -1.));
#30 = DIRECTION('', (-1., 3.95999983374756E-17, 1.38777878078145E-17));
#31 = (
   BOUNDED_SURFACE ()
   B_SPLINE_SURFACE (1, 2, ((#32, #33, #34, #35, #36, #37, #38, #39, #40), (#41, #42, #43, #44, #45, #46, #47, #48, #49)), .UNSPECIFIED., .F., .T., .U.)
   B_SPLINE_SURFACE_WITH_KNOTS ((2, 2), (3, 2, 2, 2, 3), (0., 1.), (0., 0.25, 0.5, 0.75, 1.), .UNSPECIFIED.)
   GEOMETRIC_REPRESENTATION_ITEM ()
   RATIONAL_B_SPLINE_SURFACE (((1., 0.707106781186548, 1., 0.707106781186548, 1., 0.707106781186548, 1., 0.707106781186548, 1.), (1., 0.707106781186548, 1., 0.707106781186548, 1., 0.707106781186548, 1., 0.707106781186548, 1.)))
   REPRESENTATION_ITEM ('')
   SURFACE ()
);
#32 = CARTESIAN_POINT('', (-4., -2.04953155772919E-15, -0.399999999999999));
#33 = CARTESIAN_POINT('', (-4., 4., -0.400000000000022));
#34 = CARTESIAN_POINT('', (3.28440978118275E-16, 4., -0.400000000000022));
#35 = CARTESIAN_POINT('', (4., 4., -0.400000000000022));
#36 = CARTESIAN_POINT('', (4., -2.78968024081262E-15, -0.399999999999999));
#37 = CARTESIAN_POINT('', (4., -4., -0.399999999999976));
#38 = CARTESIAN_POINT('', (7.81510146937783E-17, -4., -0.399999999999976));
#39 = CARTESIAN_POINT('', (-4., -4., -0.399999999999976));
#40 = CARTESIAN_POINT('', (-4., -2.04953155772919E-15, -0.399999999999999));
#41 = CARTESIAN_POINT('', (-3.6, 2.20436423846524E-16, 0.));
#42 = CARTESIAN_POINT('', (-3.6, 3.6, -2.09832151654155E-14));
#43 = CARTESIAN_POINT('', (2.91433543964104E-16, 3.6, -2.09832151654155E-14));
#44 = CARTESIAN_POINT('', (3.6, 3.6, -2.09832151654155E-14));
#45 = CARTESIAN_POINT('', (3.6, -4.45697390928571E-16, -2.60668058374687E-30));
#46 = CARTESIAN_POINT('', (3.6, -3.6, 2.09832151654155E-14));
#47 = CARTESIAN_POINT('', (6.61725768820564E-17, -3.6, 2.09832151654155E-14));
#48 = CARTESIAN_POINT('', (-3.6, -3.6, 2.09832151654155E-14));
#49 = CARTESIAN_POINT('', (-3.6, 2.20436423846524E-16, 0.));
#50 = ADVANCED_FACE('', (#51), #54, .T.);
#51 = FACE_OUTER_BOUND('', #52, .T.);
#52 = EDGE_LOOP('', (#53));
#53 = ORIENTED_EDGE('', *, *, #17, .F.);
#54 = B_SPLINE_SURFACE_WITH_KNOTS('', 1, 1, ((#55, #56), (#57, #58)), .UNSPECIFIED., .F., .F., .U., (2, 2), (2, 2), (1.99928570699746, 9.20128570699746), (1.99928570699746, 9.20128570699746), .UNSPECIFIED.);
#55 = CARTESIAN_POINT('', (3.601, -3.601, -2.2049765618648E-16));
#56 = CARTESIAN_POINT('', (-3.601, -3.601, -2.2049765618648E-16));
#57 = CARTESIAN_POINT('', (3.601, 3.601, 2.20497656186482E-16));
#58 = CARTESIAN_POINT('', (-3.601, 3.601, 2.20497656186482E-16));
#59 = ADVANCED_FACE('', (#60), #79, .T.);
#60 = FACE_OUTER_BOUND('', #61, .T.);
#61 = EDGE_LOOP('', (#62, #70, #77, #78));
#62 = ORIENTED_EDGE('', *, *, #63, .F.);
#63 = EDGE_CURVE('', #64, #8, #66, .T.);
#64 = VERTEX_POINT('', #65);
#65 = CARTESIAN_POINT('', (-4., 2.87791997799628E-15, -43.));
#66 = LINE('', #67, #68);
#67 = CARTESIAN_POINT('', (-4., 2.87791997799628E-15, -43.));
#68 = VECTOR('', #69, 42.6);
#69 = DIRECTION('', (0., -2.60849768218386E-15, 42.6));
#70 = ORIENTED_EDGE('', *, *, #71, .F.);
#71 = EDGE_CURVE('', #64, #64, #72, .T.);
#72 = CIRCLE('', #73, 4.);
#73 = AXIS2_PLACEMENT_3D('', #74, #75, #76);
#74 = CARTESIAN_POINT('', (-1.52655665885959E-16, 3.99680288865056E-15, -43.));
#75 = DIRECTION('', (0., 0., -1.));
#76 = DIRECTION('', (-1., -2.79720727663571E-16, 0.));
#77 = ORIENTED_EDGE('', *, *, #63, .T.);
#78 = ORIENTED_EDGE('', *, *, #25, .T.);
#79 = (
   BOUNDED_SURFACE ()
   B_SPLINE_SURFACE (1, 2, ((#80, #81, #82, #83, #84, #85, #86, #87, #88), (#89, #90, #91, #92, #93, #94, #95, #96, #97)), .UNSPECIFIED., .F., .T., .U.)
   B_SPLINE_SURFACE_WITH_KNOTS ((2, 2), (3, 2, 2, 2, 3), (-0.196629213483146, 1.), (0., 0.25, 0.5, 0.75, 1.), .UNSPECIFIED.)
   GEOMETRIC_REPRESENTATION_ITEM ()
   RATIONAL_B_SPLINE_SURFACE (((1., 0.707106781186548, 1., 0.707106781186548, 1., 0.707106781186548, 1., 0.707106781186548, 1.), (1., 0.707106781186548, 1., 0.707106781186548, 1., 0.707106781186548, 1., 0.707106781186548, 1.)))
   REPRESENTATION_ITEM ('')
   SURFACE ()
);
#80 = CARTESIAN_POINT('', (-4., 4.04418057953795E-15, -43.));
#81 = CARTESIAN_POINT('', (-4., 4., -43.));
#82 = CARTESIAN_POINT('', (3.59385996015283E-15, 4., -43.));
#83 = CARTESIAN_POINT('', (4., 4., -43.));
#84 = CARTESIAN_POINT('', (4., 4.42481028771554E-16, -43.));
#85 = CARTESIAN_POINT('', (4., -4., -43.));
#86 = CARTESIAN_POINT('', (4.82019129045373E-16, -4., -43.));
#87 = CARTESIAN_POINT('', (-4., -4., -43.));
#88 = CARTESIAN_POINT('', (-4., 4.04418057953795E-15, -43.));
#89 = CARTESIAN_POINT('', (-4., 2.69422295812417E-16, -0.399999999999999));
#90 = CARTESIAN_POINT('', (-4., 4., -0.399999999999999));
#91 = CARTESIAN_POINT('', (2.41147243892703E-15, 4., -0.399999999999999));
#92 = CARTESIAN_POINT('', (4., 4., -0.399999999999998));
#93 = CARTESIAN_POINT('', (4., -3.33227725495398E-15, -0.399999999999999));
#94 = CARTESIAN_POINT('', (4., -4., -0.399999999999999));
#95 = CARTESIAN_POINT('', (-7.0036839218042E-16, -4., -0.399999999999999));
#96 = CARTESIAN_POINT('', (-4., -4., -0.399999999999999));
#97 = CARTESIAN_POINT('', (-4., 2.69422295812417E-16, -0.399999999999999));
#98 = ADVANCED_FACE('', (#99), #102, .T.);
#99 = FACE_OUTER_BOUND('', #100, .T.);
#100 = EDGE_LOOP('', (#101));
#101 = ORIENTED_EDGE('', *, *, #71, .T.);
#102 = B_SPLINE_SURFACE_WITH_KNOTS('', 1, 1, ((#103, #104), (#105, #106)), .UNSPECIFIED., .F., .F., .U., (2, 2), (2, 2), (61.4671852269284, 69.4691852269284), (58.5465375574984, 66.5485375574984), .UNSPECIFIED.);
#103 = CARTESIAN_POINT('', (-4.00100000000001, 4.001, -43.));
#104 = CARTESIAN_POINT('', (-4.00100000000001, -4.001, -43.));
#105 = CARTESIAN_POINT('', (4.001, 4.001, -43.));
#106 = CARTESIAN_POINT('', (4.001, -4.001, -43.));
#107 = DRAUGHTING_MODEL('', (#115, #229, #276, #281, #286, #291, #296, #301), #315);
#108 = PRESENTATION_STYLE_ASSIGNMENT((#109));
#109 = SURFACE_STYLE_USAGE(.POSITIVE., #110);
#110 = SURFACE_SIDE_STYLE('', (#111));
#111 = SURFACE_STYLE_FILL_AREA(#112);
#112 = FILL_AREA_STYLE('', (#113));
#113 = FILL_AREA_STYLE_COLOUR('', #114);
#114 = COLOUR_RGB('', 0.50196078431373, 0.50196078431373, 0.50196078431373);
#115 = STYLED_ITEM('', (#108), #1);
#116 = MANIFOLD_SOLID_BREP('CUT', #117);
#117 = CLOSED_SHELL('', (#118, #135, #174, #213));
#118 = ADVANCED_FACE('', (#119), #130, .T.);
#119 = FACE_OUTER_BOUND('', #120, .T.);
#120 = EDGE_LOOP('', (#121));
#121 = ORIENTED_EDGE('', *, *, #122, .F.);
#122 = EDGE_CURVE('', #123, #123, #125, .T.);
#123 = VERTEX_POINT('', #124);
#124 = CARTESIAN_POINT('', (-4., 2.87791997799628E-15, -43.));
#125 = CIRCLE('', #126, 4.);
#126 = AXIS2_PLACEMENT_3D('', #127, #128, #129);
#127 = CARTESIAN_POINT('', (-1.52655665885959E-16, 3.99680288865056E-15, -43.));
#128 = DIRECTION('', (0., 0., -1.));
#129 = DIRECTION('', (-1., -2.79720727663571E-16, 0.));
#130 = B_SPLINE_SURFACE_WITH_KNOTS('', 1, 1, ((#131, #132), (#133, #134)), .UNSPECIFIED., .F., .F., .U., (2, 2), (2, 2), (58.5465375574984, 66.5485375574984), (61.4671852269284, 69.4691852269284), .UNSPECIFIED.);
#131 = CARTESIAN_POINT('', (-4.001, 4.00100000000001, -43.));
#132 = CARTESIAN_POINT('', (4.001, 4.00100000000001, -43.));
#133 = CARTESIAN_POINT('', (-4.001, -4.00099999999999, -43.));
#134 = CARTESIAN_POINT('', (4.001, -4.00099999999999, -43.));
#135 = ADVANCED_FACE('', (#136), #155, .T.);
#136 = FACE_OUTER_BOUND('', #137, .T.);
#137 = EDGE_LOOP('', (#138, #146, #147, #148));
#138 = ORIENTED_EDGE('', *, *, #139, .F.);
#139 = EDGE_CURVE('', #123, #140, #142, .T.);
#140 = VERTEX_POINT('', #141);
#141 = CARTESIAN_POINT('', (-4., 4.06888899016708E-15, -62.45));
#142 = LINE('', #143, #144);
#143 = CARTESIAN_POINT('', (-4., 2.87791997799628E-15, -43.));
#144 = VECTOR('', #145, 19.45);
#145 = DIRECTION('', (0., 1.1909690121708E-15, -19.45));
#146 = ORIENTED_EDGE('', *, *, #122, .T.);
#147 = ORIENTED_EDGE('', *, *, #139, .T.);
#148 = ORIENTED_EDGE('', *, *, #149, .F.);
#149 = EDGE_CURVE('', #140, #140, #150, .T.);
#150 = CIRCLE('', #151, 4.);
#151 = AXIS2_PLACEMENT_3D('', #152, #153, #154);
#152 = CARTESIAN_POINT('', (8.32667268468867E-17, 4.10782519111308E-15, -62.45));
#153 = DIRECTION('', (0., 0., -1.));
#154 = DIRECTION('', (-1., -9.73405023649944E-18, 0.));
#155 = (
   BOUNDED_SURFACE ()
   B_SPLINE_SURFACE (2, 1, ((#156, #157), (#158, #159), (#160, #161), (#162, #163), (#164, #165), (#166, #167), (#168, #169), (#170, #171), (#172, #173)), .UNSPECIFIED., .T., .F., .U.)
   B_SPLINE_SURFACE_WITH_KNOTS ((3, 2, 2, 2, 3), (2, 2), (0., 6.28318530717958, 12.5663706143592, 18.8495559215387, 25.1327412287183), (0., 1.), .UNSPECIFIED.)
   GEOMETRIC_REPRESENTATION_ITEM ()
   RATIONAL_B_SPLINE_SURFACE (((1., 1.), (0.707106781186548, 0.707106781186548), (1., 1.), (0.707106781186548, 0.707106781186548), (1., 1.), (0.707106781186548, 0.707106781186548), (1., 1.), (0.707106781186548, 0.707106781186548), (1., 1.)))
   REPRESENTATION_ITEM ('')
   SURFACE ()
);
#156 = CARTESIAN_POINT('', (-4., 2.87791997799628E-15, -43.));
#157 = CARTESIAN_POINT('', (-4.00000000000003, 4.21018760754649E-15, -62.45));
#158 = CARTESIAN_POINT('', (-4., 4., -43.));
#159 = CARTESIAN_POINT('', (-4.00000000000003, 4., -62.45));
#160 = CARTESIAN_POINT('', (4.18730285264203E-15, 4., -43.));
#161 = CARTESIAN_POINT('', (-3.03628376736928E-14, 4., -62.45));
#162 = CARTESIAN_POINT('', (4., 4., -43.));
#163 = CARTESIAN_POINT('', (3.99999999999997, 4., -62.45));
#164 = CARTESIAN_POINT('', (4., -3.05419507311243E-15, -43.));
#165 = CARTESIAN_POINT('', (3.99999999999997, -1.72192744356222E-15, -62.45));
#166 = CARTESIAN_POINT('', (4., -4., -43.));
#167 = CARTESIAN_POINT('', (3.99999999999996, -4., -62.45));
#168 = CARTESIAN_POINT('', (-1.25495347880774E-15, -4., -43.));
#169 = CARTESIAN_POINT('', (-3.58050940051426E-14, -4., -62.45));
#170 = CARTESIAN_POINT('', (-4., -4., -43.));
#171 = CARTESIAN_POINT('', (-4.00000000000004, -4., -62.45));
#172 = CARTESIAN_POINT('', (-4., 2.87791997799628E-15, -43.));
#173 = CARTESIAN_POINT('', (-4.00000000000003, 4.21018760754649E-15, -62.45));
#174 = ADVANCED_FACE('', (#175), #194, .T.);
#175 = FACE_OUTER_BOUND('', #176, .T.);
#176 = EDGE_LOOP('', (#177, #185, #186, #187));
#177 = ORIENTED_EDGE('', *, *, #178, .F.);
#178 = EDGE_CURVE('', #140, #179, #181, .T.);
#179 = VERTEX_POINT('', #180);
#180 = CARTESIAN_POINT('', (-3.45, 4.06888899016708E-15, -63.));
#181 = LINE('', #182, #183);
#182 = CARTESIAN_POINT('', (-4., 4.06888899016708E-15, -62.45));
#183 = VECTOR('', #184, 0.7778174593052);
#184 = DIRECTION('', (0.55, 0., -0.549999999999997));
#185 = ORIENTED_EDGE('', *, *, #149, .T.);
#186 = ORIENTED_EDGE('', *, *, #178, .T.);
#187 = ORIENTED_EDGE('', *, *, #188, .F.);
#188 = EDGE_CURVE('', #179, #179, #189, .T.);
#189 = CIRCLE('', #190, 3.45);
#190 = AXIS2_PLACEMENT_3D('', #191, #192, #193);
#191 = CARTESIAN_POINT('', (3.46944695195361E-16, 3.66373598126302E-15, -63.));
#192 = DIRECTION('', (0., 0., -1.));
#193 = DIRECTION('', (-1., 1.17435654754801E-16, 0.));
#194 = (
   BOUNDED_SURFACE ()
   B_SPLINE_SURFACE (2, 1, ((#195, #196), (#197, #198), (#199, #200), (#201, #202), (#203, #204), (#205, #206), (#207, #208), (#209, #210), (#211, #212)), .UNSPECIFIED., .T., .F., .U.)
   B_SPLINE_SURFACE_WITH_KNOTS ((3, 2, 2, 2, 3), (2, 2), (0., 0.25, 0.5, 0.75, 1.), (0., 1.), .UNSPECIFIED.)
   GEOMETRIC_REPRESENTATION_ITEM ()
   RATIONAL_B_SPLINE_SURFACE (((1., 1.), (0.707106781186548, 0.707106781186548), (1., 1.), (0.707106781186548, 0.707106781186548), (1., 1.), (0.707106781186548, 0.707106781186548), (1., 1.), (0.707106781186548, 0.707106781186548), (1., 1.)))
   REPRESENTATION_ITEM ('')
   SURFACE ()
);
#195 = CARTESIAN_POINT('', (-4., 4.06888899016708E-15, -62.45));
#196 = CARTESIAN_POINT('', (-3.45, 4.95548224359337E-15, -63.));
#197 = CARTESIAN_POINT('', (-4., 4., -62.45));
#198 = CARTESIAN_POINT('', (-3.45, 3.45000000000001, -63.));
#199 = CARTESIAN_POINT('', (1.54800242985604E-15, 4., -62.45));
#200 = CARTESIAN_POINT('', (1.35805044563373E-15, 3.45, -63.));
#201 = CARTESIAN_POINT('', (4., 4., -62.45));
#202 = CARTESIAN_POINT('', (3.45, 3.45, -63.));
#203 = CARTESIAN_POINT('', (4., 1.30595103784255E-15, -62.45));
#204 = CARTESIAN_POINT('', (3.45, 2.57244825971347E-15, -63.));
#205 = CARTESIAN_POINT('', (4., -4., -62.45));
#206 = CARTESIAN_POINT('', (3.45, -3.45, -63.));
#207 = CARTESIAN_POINT('', (-7.2507680280955E-16, -4., -62.45));
#208 = CARTESIAN_POINT('', (-6.02480392540343E-16, -3.45, -63.));
#209 = CARTESIAN_POINT('', (-4., -4., -62.45));
#210 = CARTESIAN_POINT('', (-3.45, -3.45, -63.));
#211 = CARTESIAN_POINT('', (-4., 4.06888899016708E-15, -62.45));
#212 = CARTESIAN_POINT('', (-3.45, 4.95548224359337E-15, -63.));
#213 = ADVANCED_FACE('', (#214), #217, .T.);
#214 = FACE_OUTER_BOUND('', #215, .T.);
#215 = EDGE_LOOP('', (#216));
#216 = ORIENTED_EDGE('', *, *, #188, .T.);
#217 = B_SPLINE_SURFACE_WITH_KNOTS('', 1, 1, ((#218, #219), (#220, #221)), .UNSPECIFIED., .F., .F., .U., (2, 2), (2, 2), (1.9159404692059, 8.8179404692059), (1.91594046920589, 8.81794046920589), .UNSPECIFIED.);
#218 = CARTESIAN_POINT('', (3.451, -3.451, -63.));
#219 = CARTESIAN_POINT('', (3.451, 3.451, -63.));
#220 = CARTESIAN_POINT('', (-3.451, -3.451, -63.));
#221 = CARTESIAN_POINT('', (-3.451, 3.45100000000001, -63.));
#222 = PRESENTATION_STYLE_ASSIGNMENT((#223));
#223 = SURFACE_STYLE_USAGE(.POSITIVE., #224);
#224 = SURFACE_SIDE_STYLE('', (#225));
#225 = SURFACE_STYLE_FILL_AREA(#226);
#226 = FILL_AREA_STYLE('', (#227));
#227 = FILL_AREA_STYLE_COLOUR('', #228);
#228 = COLOUR_RGB('', 0.8, 0.8, 0.8);
#229 = STYLED_ITEM('', (#222), #116);
#230 = TRIMMED_CURVE('cutting part line', #231, (#235), (#236), .T., .CARTESIAN.);
#231 = LINE('', #232, #233);
#232 = CARTESIAN_POINT('', (-4.83672529908449E-31, -2.63299061816681E-15, -43.));
#233 = VECTOR('', #234, 4.);
#234 = DIRECTION('', (4., -7.34788079488411E-16, 0.));
#235 = CARTESIAN_POINT('', (-4.83672529908449E-31, -2.63299061816681E-15, -43.));
#236 = CARTESIAN_POINT('', (4., -3.36777869765522E-15, -43.));
#237 = TRIMMED_CURVE('cutting part line', #238, (#242), (#243), .T., .CARTESIAN.);
#238 = LINE('', #239, #240);
#239 = CARTESIAN_POINT('', (4., -3.36777869765522E-15, -43.));
#240 = VECTOR('', #241, 19.45);
#241 = DIRECTION('', (0., -1.1909690121708E-15, -19.45));
#242 = CARTESIAN_POINT('', (4., -3.36777869765522E-15, -43.));
#243 = CARTESIAN_POINT('', (4., -4.55874770982602E-15, -62.45));
#244 = TRIMMED_CURVE('cutting part line', #245, (#249), (#250), .T., .CARTESIAN.);
#245 = LINE('', #246, #247);
#246 = CARTESIAN_POINT('', (4., -4.55874770982602E-15, -62.45));
#247 = VECTOR('', #248, 0.7778174593052);
#248 = DIRECTION('', (-0.55, 6.73555739531046E-17, -0.549999999999997));
#249 = CARTESIAN_POINT('', (4., -4.55874770982602E-15, -62.45));
#250 = CARTESIAN_POINT('', (3.45, -4.49139213587292E-15, -63.));
#251 = TRIMMED_CURVE('cutting part line', #252, (#256), (#257), .T., .CARTESIAN.);
#252 = LINE('', #253, #254);
#253 = CARTESIAN_POINT('', (3.45, -4.49139213587292E-15, -63.));
#254 = VECTOR('', #255, 3.45);
#255 = DIRECTION('', (-3.45, 6.33754718558756E-16, 0.));
#256 = CARTESIAN_POINT('', (3.45, -4.49139213587292E-15, -63.));
#257 = CARTESIAN_POINT('', (-4.72424331538485E-31, -3.85763741731416E-15, -63.));
#258 = TRIMMED_CURVE('cutting part line', #259, (#263), (#264), .T., .CARTESIAN.);
#259 = LINE('', #260, #261);
#260 = CARTESIAN_POINT('', (-7.08636497307728E-31, -3.85763741731416E-15, -63.));
#261 = VECTOR('', #262, 20.);
#262 = DIRECTION('', (2.24963967399278E-31, 1.22464679914735E-15, 20.));
#263 = CARTESIAN_POINT('', (-7.08636497307728E-31, -3.85763741731416E-15, -63.));
#264 = CARTESIAN_POINT('', (-4.83672529908449E-31, -2.63299061816681E-15, -43.));
#265 = COMPOSITE_CURVE('cutting part line', (#266, #267, #268, #269, #270), .U.);
#266 = COMPOSITE_CURVE_SEGMENT(.CONTINUOUS., .T., #230);
#267 = COMPOSITE_CURVE_SEGMENT(.CONTINUOUS., .T., #237);
#268 = COMPOSITE_CURVE_SEGMENT(.CONTINUOUS., .T., #244);
#269 = COMPOSITE_CURVE_SEGMENT(.CONTINUOUS., .T., #251);
#270 = COMPOSITE_CURVE_SEGMENT(.CONTINUOUS., .T., #258);
#271 = GEOMETRIC_SET('', (#265, #314));
#272 = PRESENTATION_STYLE_ASSIGNMENT((#273));
#273 = CURVE_STYLE('', #275, POSITIVE_LENGTH_MEASURE(1.E-6), #274);
#274 = COLOUR_RGB('', 0., 0., 1.);
#275 = DRAUGHTING_PRE_DEFINED_CURVE_FONT('continuous');
#276 = STYLED_ITEM('', (#272), #265);
#277 = PRESENTATION_STYLE_ASSIGNMENT((#278));
#278 = CURVE_STYLE('', #280, POSITIVE_LENGTH_MEASURE(1.E-6), #279);
#279 = COLOUR_RGB('', 0., 0., 1.);
#280 = DRAUGHTING_PRE_DEFINED_CURVE_FONT('continuous');
#281 = OVER_RIDING_STYLED_ITEM('', (#277), #230, #276);
#282 = PRESENTATION_STYLE_ASSIGNMENT((#283));
#283 = CURVE_STYLE('', #285, POSITIVE_LENGTH_MEASURE(1.E-6), #284);
#284 = COLOUR_RGB('', 0., 0., 1.);
#285 = DRAUGHTING_PRE_DEFINED_CURVE_FONT('continuous');
#286 = OVER_RIDING_STYLED_ITEM('', (#282), #237, #276);
#287 = PRESENTATION_STYLE_ASSIGNMENT((#288));
#288 = CURVE_STYLE('', #290, POSITIVE_LENGTH_MEASURE(1.E-6), #289);
#289 = COLOUR_RGB('', 0., 0., 1.);
#290 = DRAUGHTING_PRE_DEFINED_CURVE_FONT('continuous');
#291 = OVER_RIDING_STYLED_ITEM('', (#287), #244, #276);
#292 = PRESENTATION_STYLE_ASSIGNMENT((#293));
#293 = CURVE_STYLE('', #295, POSITIVE_LENGTH_MEASURE(1.E-6), #294);
#294 = COLOUR_RGB('', 0., 0., 1.);
#295 = DRAUGHTING_PRE_DEFINED_CURVE_FONT('continuous');
#296 = OVER_RIDING_STYLED_ITEM('', (#292), #251, #276);
#297 = PRESENTATION_STYLE_ASSIGNMENT((#298));
#298 = CURVE_STYLE('', #300, POSITIVE_LENGTH_MEASURE(1.E-6), #299);
#299 = COLOUR_RGB('', 0., 0., 1.);
#300 = DRAUGHTING_PRE_DEFINED_CURVE_FONT('continuous');
#301 = OVER_RIDING_STYLED_ITEM('', (#297), #258, #276);
#302 = AXIS2_PLACEMENT_3D('CIP', #303, #304, #305);
#303 = CARTESIAN_POINT('', (2.36212165769243E-31, 3.85763741731416E-15, -63.));
#304 = DIRECTION('', (-3.74939945665465E-33, -6.12323399573677E-17, 1.));
#305 = DIRECTION('', (1., -6.12323399573677E-17, 0.));
#306 = AXIS2_PLACEMENT_3D('MCS', #307, #308, #309);
#307 = CARTESIAN_POINT('', (1.34978380439567E-31, 2.20436423846524E-15, -36.));
#308 = DIRECTION('', (-3.74939945665465E-33, -6.12323399573677E-17, 1.));
#309 = DIRECTION('', (1., -6.12323399573677E-17, 0.));
#310 = AXIS2_PLACEMENT_3D('PCS', #311, #312, #313);
#311 = CARTESIAN_POINT('', (0., 0., 0.));
#312 = DIRECTION('', (0., 0., 1.));
#313 = DIRECTION('', (1., 0., 0.));
#314 = CARTESIAN_POINT('CRP', (4., 0., -63.));
#315 = (
   GEOMETRIC_REPRESENTATION_CONTEXT (3)
   GLOBAL_UNCERTAINTY_ASSIGNED_CONTEXT ((#317))
   GLOBAL_UNIT_ASSIGNED_CONTEXT ((#316, #318, #319))
   REPRESENTATION_CONTEXT ('', '3D')
);
#316 = (
   LENGTH_UNIT ()
   NAMED_UNIT (*)
   SI_UNIT (.MILLI., .METRE.)
);
#317 = UNCERTAINTY_MEASURE_WITH_UNIT(LENGTH_MEASURE(1.E-6), #316, 'DISTANCE_ACCURACY_VALUE', '');
#318 = (
   NAMED_UNIT (*)
   SI_UNIT ($, .STERADIAN.)
   SOLID_ANGLE_UNIT ()
);
#319 = (
   NAMED_UNIT (*)
   PLANE_ANGLE_UNIT ()
   SI_UNIT ($, .RADIAN.)
);
#320 = SHAPE_REPRESENTATION('', (), #315);
#321 = PRODUCT_DEFINITION_SHAPE('', '', #322);
#322 = PRODUCT_DEFINITION('', '', #325, #329);
#323 = APPLICATION_CONTEXT('configuration controlled 3D designs of mechanical parts and assemblies');
#324 = APPLICATION_PROTOCOL_DEFINITION('International Standard', 'automotive_design', 2002, #323);
#325 = PRODUCT_DEFINITION_FORMATION_WITH_SPECIFIED_SOURCE('', '', #326, .NOT_KNOWN.);
#326 = PRODUCT('NONE', 'R217.34C080140AC19N 1630', '', (#327));
#327 = PRODUCT_CONTEXT('', #323, 'mechanical');
#328 = PRODUCT_RELATED_PRODUCT_CATEGORY('detail', '', (#326));
#329 = PRODUCT_DEFINITION_CONTEXT('part definition', #323, 'design');
#330 = SHAPE_DEFINITION_REPRESENTATION(#321, #320);
#331 = CONSTRUCTIVE_GEOMETRY_REPRESENTATION('supplemental geometry', (#302, #306, #310), #315);
#332 = CONSTRUCTIVE_GEOMETRY_REPRESENTATION_RELATIONSHIP('', '', #320, #331);
#333 = SHAPE_REPRESENTATION_RELATIONSHIP('', '', #320, #334);
#334 = SHAPE_REPRESENTATION('', (#271), #315);
#335 = SHAPE_REPRESENTATION_RELATIONSHIP('', '', #320, #336);
#336 = ADVANCED_BREP_SHAPE_REPRESENTATION('', (#1, #116), #315);
ENDSEC;
END-ISO-10303-21;
