ISO-10303-21;
HEADER;
FILE_DESCRIPTION(('STEP'), '1');
FILE_NAME('C:\\Users\\ds2002\\OneDrive - Sandvik\\HomeShare\\Documents\\Batchrepair\\CorSRT2\\NEW_MILTH_SLD\\Output\\MOD000000000000000020084664400000.stp', '2019-01-04T08:50:48', (''), (''), 'Express v3.0.0.0', 'Express Tool', 'Unknown');
FILE_SCHEMA(('AUTOMOTIVE_DESIGN'));
ENDSEC;

DATA;
#1 = MANIFOLD_SOLID_BREP('NOCUT', #2);
#2 = CLOSED_SHELL('', (#3, #50, #59, #98));
#3 = ADVANCED_FACE('', (#4), #31, .T.);
#4 = FACE_OUTER_BOUND('', #5, .T.);
#5 = EDGE_LOOP('', (#6, #16, #23, #24));
#6 = ORIENTED_EDGE('', *, *, #7, .T.);
#7 = EDGE_CURVE('', #8, #10, #12, .T.);
#8 = VERTEX_POINT('', #9);
#9 = CARTESIAN_POINT('', (-3., 2.02066721859313E-16, -0.299999999999997));
#10 = VERTEX_POINT('', #11);
#11 = CARTESIAN_POINT('', (-2.7, 1.65327317884893E-16, 0.));
#12 = LINE('', #13, #14);
#13 = CARTESIAN_POINT('', (-3., 2.02066721859313E-16, -0.299999999999997));
#14 = VECTOR('', #15, 0.424264068711926);
#15 = DIRECTION('', (0.3, -3.673940397442E-17, 0.299999999999997));
#16 = ORIENTED_EDGE('', *, *, #17, .T.);
#17 = EDGE_CURVE('', #10, #10, #18, .T.);
#18 = CIRCLE('', #19, 2.7);
#19 = AXIS2_PLACEMENT_3D('', #20, #21, #22);
#20 = CARTESIAN_POINT('', (1.80411241501588E-16, 3.33066907387547E-16, 2.46519032881566E-32));
#21 = DIRECTION('', (5.32622804422992E-33, 6.12323399573677E-17, -1.));
#22 = DIRECTION('', (-1., -6.21257738898718E-17, -9.13033455116911E-33));
#23 = ORIENTED_EDGE('', *, *, #7, .F.);
#24 = ORIENTED_EDGE('', *, *, #25, .F.);
#25 = EDGE_CURVE('', #8, #8, #26, .T.);
#26 = CIRCLE('', #27, 3.);
#27 = AXIS2_PLACEMENT_3D('', #28, #29, #30);
#28 = CARTESIAN_POINT('', (2.91433543964104E-16, 0., -0.299999999999997));
#29 = DIRECTION('', (4.24192595338452E-33, 6.2978098239322E-17, -1.));
#30 = DIRECTION('', (-1., 6.73555739531044E-17, 0.));
#31 = (
   BOUNDED_SURFACE ()
   B_SPLINE_SURFACE (1, 2, ((#32, #33, #34, #35, #36, #37, #38, #39, #40), (#41, #42, #43, #44, #45, #46, #47, #48, #49)), .UNSPECIFIED., .F., .T., .U.)
   B_SPLINE_SURFACE_WITH_KNOTS ((2, 2), (3, 2, 2, 2, 3), (0., 1.), (0., 0.25, 0.5, 0.75, 1.), .UNSPECIFIED.)
   GEOMETRIC_REPRESENTATION_ITEM ()
   RATIONAL_B_SPLINE_SURFACE (((1., 0.707106781186548, 1., 0.707106781186548, 1., 0.707106781186548, 1., 0.707106781186548, 1.), (1., 0.707106781186548, 1., 0.707106781186548, 1., 0.707106781186548, 1., 0.707106781186548, 1.)))
   REPRESENTATION_ITEM ('')
   SURFACE ()
);
#32 = CARTESIAN_POINT('', (-3., 1.49129302665284E-15, -0.299999999999997));
#33 = CARTESIAN_POINT('', (-3., 3., -0.299999999999985));
#34 = CARTESIAN_POINT('', (2.34149119846292E-15, 3., -0.299999999999985));
#35 = CARTESIAN_POINT('', (3., 3., -0.299999999999985));
#36 = CARTESIAN_POINT('', (3., -1.34594359183367E-15, -0.299999999999997));
#37 = CARTESIAN_POINT('', (3., -3., -0.300000000000009));
#38 = CARTESIAN_POINT('', (-1.28351380279387E-16, -3., -0.300000000000009));
#39 = CARTESIAN_POINT('', (-3., -3., -0.300000000000009));
#40 = CARTESIAN_POINT('', (-3., 1.49129302665284E-15, -0.299999999999997));
#41 = CARTESIAN_POINT('', (-2.7, 1.65327317884893E-16, -2.18952885050753E-47));
#42 = CARTESIAN_POINT('', (-2.7, 2.7, 1.04916075827078E-14));
#43 = CARTESIAN_POINT('', (2.19962936753859E-15, 2.7, 1.04916075827078E-14));
#44 = CARTESIAN_POINT('', (2.7, 2.7, 1.04916075827078E-14));
#45 = CARTESIAN_POINT('', (2.7, -2.38818563875297E-15, 1.12461399303431E-30));
#46 = CARTESIAN_POINT('', (2.7, -2.7, -1.04916075827078E-14));
#47 = CARTESIAN_POINT('', (-2.32289533294833E-17, -2.7, -1.04916075827078E-14));
#48 = CARTESIAN_POINT('', (-2.7, -2.7, -1.04916075827078E-14));
#49 = CARTESIAN_POINT('', (-2.7, 1.65327317884893E-16, -2.18952885050753E-47));
#50 = ADVANCED_FACE('', (#51), #54, .T.);
#51 = FACE_OUTER_BOUND('', #52, .T.);
#52 = EDGE_LOOP('', (#53));
#53 = ORIENTED_EDGE('', *, *, #17, .F.);
#54 = B_SPLINE_SURFACE_WITH_KNOTS('', 1, 1, ((#55, #56), (#57, #58)), .UNSPECIFIED., .F., .F., .U., (2, 2), (2, 2), (1.49921428024809, 6.90121428024809), (1.49921428024809, 6.90121428024809), .UNSPECIFIED.);
#55 = CARTESIAN_POINT('', (2.701, -2.701, 6.94267044713819E-15));
#56 = CARTESIAN_POINT('', (-2.701, -2.701, -7.27344754758799E-15));
#57 = CARTESIAN_POINT('', (2.701, 2.701, 7.27344754758789E-15));
#58 = CARTESIAN_POINT('', (-2.701, 2.701, -6.94267044713829E-15));
#59 = ADVANCED_FACE('', (#60), #79, .T.);
#60 = FACE_OUTER_BOUND('', #61, .T.);
#61 = EDGE_LOOP('', (#62, #70, #77, #78));
#62 = ORIENTED_EDGE('', *, *, #63, .F.);
#63 = EDGE_CURVE('', #64, #8, #66, .T.);
#64 = VERTEX_POINT('', #65);
#65 = CARTESIAN_POINT('', (-3., 2.82893410603039E-15, -43.2));
#66 = LINE('', #67, #68);
#67 = CARTESIAN_POINT('', (-3., 2.82893410603039E-15, -43.2));
#68 = VECTOR('', #69, 42.9);
#69 = DIRECTION('', (0., -2.62686738417108E-15, 42.9));
#70 = ORIENTED_EDGE('', *, *, #71, .F.);
#71 = EDGE_CURVE('', #64, #64, #72, .T.);
#72 = CIRCLE('', #73, 3.);
#73 = AXIS2_PLACEMENT_3D('', #74, #75, #76);
#74 = CARTESIAN_POINT('', (7.63278329429795E-16, 2.4980018054066E-15, -43.2));
#75 = DIRECTION('', (0., 0., -1.));
#76 = DIRECTION('', (-1., 1.10310766874596E-16, 0.));
#77 = ORIENTED_EDGE('', *, *, #63, .T.);
#78 = ORIENTED_EDGE('', *, *, #25, .T.);
#79 = (
   BOUNDED_SURFACE ()
   B_SPLINE_SURFACE (1, 2, ((#80, #81, #82, #83, #84, #85, #86, #87, #88), (#89, #90, #91, #92, #93, #94, #95, #96, #97)), .UNSPECIFIED., .F., .T., .U.)
   B_SPLINE_SURFACE_WITH_KNOTS ((2, 2), (3, 2, 2, 2, 3), (-0.201680672268908, 1.), (0., 0.25, 0.5, 0.75, 1.), .UNSPECIFIED.)
   GEOMETRIC_REPRESENTATION_ITEM ()
   RATIONAL_B_SPLINE_SURFACE (((1., 0.707106781186548, 1., 0.707106781186548, 1., 0.707106781186548, 1., 0.707106781186548, 1.), (1., 0.707106781186548, 1., 0.707106781186548, 1., 0.707106781186548, 1., 0.707106781186548, 1.)))
   REPRESENTATION_ITEM ('')
   SURFACE ()
);
#80 = CARTESIAN_POINT('', (-3., 3.53273579573478E-15, -43.2));
#81 = CARTESIAN_POINT('', (-3., 3., -43.2));
#82 = CARTESIAN_POINT('', (4.48581124029458E-16, 3., -43.2));
#83 = CARTESIAN_POINT('', (3., 3., -43.2));
#84 = CARTESIAN_POINT('', (3., 3.16292948437282E-15, -43.2));
#85 = CARTESIAN_POINT('', (3., -3., -43.2));
#86 = CARTESIAN_POINT('', (4.46168852411698E-16, -3., -43.2));
#87 = CARTESIAN_POINT('', (-3., -3., -43.2));
#88 = CARTESIAN_POINT('', (-3., 3.53273579573478E-15, -43.2));
#89 = CARTESIAN_POINT('', (-3., 2.02066721859313E-16, -0.299999999999997));
#90 = CARTESIAN_POINT('', (-3., 3., -0.299999999999997));
#91 = CARTESIAN_POINT('', (4.48581124029458E-16, 3., -0.299999999999997));
#92 = CARTESIAN_POINT('', (3., 3., -0.299999999999997));
#93 = CARTESIAN_POINT('', (3., -1.67739589502654E-16, -0.299999999999997));
#94 = CARTESIAN_POINT('', (3., -3., -0.299999999999997));
#95 = CARTESIAN_POINT('', (4.46168852411697E-16, -3., -0.299999999999997));
#96 = CARTESIAN_POINT('', (-3., -3., -0.299999999999997));
#97 = CARTESIAN_POINT('', (-3., 2.02066721859313E-16, -0.299999999999997));
#98 = ADVANCED_FACE('', (#99), #102, .T.);
#99 = FACE_OUTER_BOUND('', #100, .T.);
#100 = EDGE_LOOP('', (#101));
#101 = ORIENTED_EDGE('', *, *, #71, .T.);
#102 = B_SPLINE_SURFACE_WITH_KNOTS('', 1, 1, ((#103, #104), (#105, #106)), .UNSPECIFIED., .F., .F., .U., (2, 2), (2, 2), (56.1744922702688, 62.1764922702688), (53.0797535821803, 59.0817535821803), .UNSPECIFIED.);
#103 = CARTESIAN_POINT('', (-3.001, 3.001, -43.2));
#104 = CARTESIAN_POINT('', (-3.001, -3.001, -43.2));
#105 = CARTESIAN_POINT('', (3.001, 3.001, -43.2));
#106 = CARTESIAN_POINT('', (3.001, -3.001, -43.2));
#107 = DRAUGHTING_MODEL('', (#115, #229, #276, #281, #286, #291, #296, #301), #315);
#108 = PRESENTATION_STYLE_ASSIGNMENT((#109));
#109 = SURFACE_STYLE_USAGE(.POSITIVE., #110);
#110 = SURFACE_SIDE_STYLE('', (#111));
#111 = SURFACE_STYLE_FILL_AREA(#112);
#112 = FILL_AREA_STYLE('', (#113));
#113 = FILL_AREA_STYLE_COLOUR('', #114);
#114 = COLOUR_RGB('', 0.50196078431373, 0.50196078431373, 0.50196078431373);
#115 = STYLED_ITEM('', (#108), #1);
#116 = MANIFOLD_SOLID_BREP('CUT', #117);
#117 = CLOSED_SHELL('', (#118, #135, #174, #213));
#118 = ADVANCED_FACE('', (#119), #130, .T.);
#119 = FACE_OUTER_BOUND('', #120, .T.);
#120 = EDGE_LOOP('', (#121));
#121 = ORIENTED_EDGE('', *, *, #122, .F.);
#122 = EDGE_CURVE('', #123, #123, #125, .T.);
#123 = VERTEX_POINT('', #124);
#124 = CARTESIAN_POINT('', (-3., 2.82893410603039E-15, -43.2));
#125 = CIRCLE('', #126, 3.);
#126 = AXIS2_PLACEMENT_3D('', #127, #128, #129);
#127 = CARTESIAN_POINT('', (7.63278329429795E-16, 2.4980018054066E-15, -43.2));
#128 = DIRECTION('', (0., 0., -1.));
#129 = DIRECTION('', (-1., 1.10310766874596E-16, 0.));
#130 = B_SPLINE_SURFACE_WITH_KNOTS('', 1, 1, ((#131, #132), (#133, #134)), .UNSPECIFIED., .F., .F., .U., (2, 2), (2, 2), (53.0797535821803, 59.0817535821803), (56.1744922702688, 62.1764922702688), .UNSPECIFIED.);
#131 = CARTESIAN_POINT('', (-3.001, 3.001, -43.2));
#132 = CARTESIAN_POINT('', (3.001, 3.001, -43.2));
#133 = CARTESIAN_POINT('', (-3.001, -3.001, -43.2));
#134 = CARTESIAN_POINT('', (3.001, -3.001, -43.2));
#135 = ADVANCED_FACE('', (#136), #155, .T.);
#136 = FACE_OUTER_BOUND('', #137, .T.);
#137 = EDGE_LOOP('', (#138, #146, #147, #148));
#138 = ORIENTED_EDGE('', *, *, #139, .F.);
#139 = EDGE_CURVE('', #123, #140, #142, .T.);
#140 = VERTEX_POINT('', #141);
#141 = CARTESIAN_POINT('', (-3., 3.64944746145911E-15, -56.6));
#142 = LINE('', #143, #144);
#143 = CARTESIAN_POINT('', (-3., 2.82893410603039E-15, -43.2));
#144 = VECTOR('', #145, 13.4);
#145 = DIRECTION('', (0., 8.2051335542872E-16, -13.4));
#146 = ORIENTED_EDGE('', *, *, #122, .T.);
#147 = ORIENTED_EDGE('', *, *, #139, .T.);
#148 = ORIENTED_EDGE('', *, *, #149, .F.);
#149 = EDGE_CURVE('', #140, #140, #150, .T.);
#150 = CIRCLE('', #151, 3.);
#151 = AXIS2_PLACEMENT_3D('', #152, #153, #154);
#152 = CARTESIAN_POINT('', (7.49400541621981E-16, 3.10862446895044E-15, -56.6));
#153 = DIRECTION('', (0., 0., -1.));
#154 = DIRECTION('', (-1., 1.80274330836225E-16, 0.));
#155 = (
   BOUNDED_SURFACE ()
   B_SPLINE_SURFACE (2, 1, ((#156, #157), (#158, #159), (#160, #161), (#162, #163), (#164, #165), (#166, #167), (#168, #169), (#170, #171), (#172, #173)), .UNSPECIFIED., .T., .F., .U.)
   B_SPLINE_SURFACE_WITH_KNOTS ((3, 2, 2, 2, 3), (2, 2), (0., 4.7123889803847, 9.4247779607694, 14.1371669411541, 18.8495559215388), (0., 1.), .UNSPECIFIED.)
   GEOMETRIC_REPRESENTATION_ITEM ()
   RATIONAL_B_SPLINE_SURFACE (((1., 1.), (0.707106781186548, 0.707106781186548), (1., 1.), (0.707106781186548, 0.707106781186548), (1., 1.), (0.707106781186548, 0.707106781186548), (1., 1.), (0.707106781186548, 0.707106781186548), (1., 1.)))
   REPRESENTATION_ITEM ('')
   SURFACE ()
);
#156 = CARTESIAN_POINT('', (-3., 2.82893410603039E-15, -43.2));
#157 = CARTESIAN_POINT('', (-3., 2.32933374494907E-15, -56.6));
#158 = CARTESIAN_POINT('', (-3., 3., -43.2));
#159 = CARTESIAN_POINT('', (-3., 3., -56.6));
#160 = CARTESIAN_POINT('', (2.57584814711921E-15, 3., -43.2));
#161 = CARTESIAN_POINT('', (2.57584814711921E-15, 3., -56.6));
#162 = CARTESIAN_POINT('', (3., 3., -43.2));
#163 = CARTESIAN_POINT('', (3., 3., -56.6));
#164 = CARTESIAN_POINT('', (3., -1.57336164658606E-15, -43.2));
#165 = CARTESIAN_POINT('', (3., -2.07296200766738E-15, -56.6));
#166 = CARTESIAN_POINT('', (3., -3., -43.2));
#167 = CARTESIAN_POINT('', (3., -3., -56.6));
#168 = CARTESIAN_POINT('', (-1.45905356575303E-15, -3., -43.2));
#169 = CARTESIAN_POINT('', (-1.45905356575303E-15, -3., -56.6));
#170 = CARTESIAN_POINT('', (-3., -3., -43.2));
#171 = CARTESIAN_POINT('', (-3., -3., -56.6));
#172 = CARTESIAN_POINT('', (-3., 2.82893410603039E-15, -43.2));
#173 = CARTESIAN_POINT('', (-3., 2.32933374494907E-15, -56.6));
#174 = ADVANCED_FACE('', (#175), #194, .T.);
#175 = FACE_OUTER_BOUND('', #176, .T.);
#176 = EDGE_LOOP('', (#177, #185, #186, #187));
#177 = ORIENTED_EDGE('', *, *, #178, .F.);
#178 = EDGE_CURVE('', #140, #179, #181, .T.);
#179 = VERTEX_POINT('', #180);
#180 = CARTESIAN_POINT('', (-2.6, 3.64944746145911E-15, -57.));
#181 = LINE('', #182, #183);
#182 = CARTESIAN_POINT('', (-3., 3.64944746145911E-15, -56.6));
#183 = VECTOR('', #184, 0.565685424949237);
#184 = DIRECTION('', (0.4, 0., -0.399999999999999));
#185 = ORIENTED_EDGE('', *, *, #149, .T.);
#186 = ORIENTED_EDGE('', *, *, #178, .T.);
#187 = ORIENTED_EDGE('', *, *, #188, .F.);
#188 = EDGE_CURVE('', #179, #179, #189, .T.);
#189 = CIRCLE('', #190, 2.6);
#190 = AXIS2_PLACEMENT_3D('', #191, #192, #193);
#191 = CARTESIAN_POINT('', (9.08995101411847E-16, 3.99680288865056E-15, -57.));
#192 = DIRECTION('', (0., 0., -1.));
#193 = DIRECTION('', (-1., -1.3359824122748E-16, 0.));
#194 = (
   BOUNDED_SURFACE ()
   B_SPLINE_SURFACE (2, 1, ((#195, #196), (#197, #198), (#199, #200), (#201, #202), (#203, #204), (#205, #206), (#207, #208), (#209, #210), (#211, #212)), .UNSPECIFIED., .T., .F., .U.)
   B_SPLINE_SURFACE_WITH_KNOTS ((3, 2, 2, 2, 3), (2, 2), (0., 0.25, 0.5, 0.75, 1.), (0., 1.), .UNSPECIFIED.)
   GEOMETRIC_REPRESENTATION_ITEM ()
   RATIONAL_B_SPLINE_SURFACE (((1., 1.), (0.707106781186548, 0.707106781186548), (1., 1.), (0.707106781186548, 0.707106781186548), (1., 1.), (0.707106781186548, 0.707106781186548), (1., 1.), (0.707106781186548, 0.707106781186548), (1., 1.)))
   REPRESENTATION_ITEM ('')
   SURFACE ()
);
#195 = CARTESIAN_POINT('', (-3., 3.64944746145911E-15, -56.6));
#196 = CARTESIAN_POINT('', (-2.6, 3.47741765690836E-15, -57.));
#197 = CARTESIAN_POINT('', (-3., 3., -56.6));
#198 = CARTESIAN_POINT('', (-2.6, 2.6, -57.));
#199 = CARTESIAN_POINT('', (2.34164962915404E-15, 3., -56.6));
#200 = CARTESIAN_POINT('', (2.13860160935497E-15, 2.6, -57.));
#201 = CARTESIAN_POINT('', (3., 3., -56.6));
#202 = CARTESIAN_POINT('', (2.6, 2.6, -57.));
#203 = CARTESIAN_POINT('', (3., 6.03727164473145E-16, -56.6));
#204 = CARTESIAN_POINT('', (2.6, 8.37793399520519E-16, -57.));
#205 = CARTESIAN_POINT('', (3., -3., -56.6));
#206 = CARTESIAN_POINT('', (2.6, -2.6, -57.));
#207 = CARTESIAN_POINT('', (-3.36676628087723E-16, -3., -56.6));
#208 = CARTESIAN_POINT('', (-1.82614480254554E-16, -2.6, -57.));
#209 = CARTESIAN_POINT('', (-3., -3., -56.6));
#210 = CARTESIAN_POINT('', (-2.6, -2.6, -57.));
#211 = CARTESIAN_POINT('', (-3., 3.64944746145911E-15, -56.6));
#212 = CARTESIAN_POINT('', (-2.6, 3.47741765690836E-15, -57.));
#213 = ADVANCED_FACE('', (#214), #217, .T.);
#214 = FACE_OUTER_BOUND('', #215, .T.);
#215 = EDGE_LOOP('', (#216));
#216 = ORIENTED_EDGE('', *, *, #188, .T.);
#217 = B_SPLINE_SURFACE_WITH_KNOTS('', 1, 1, ((#218, #219), (#220, #221)), .UNSPECIFIED., .F., .F., .U., (2, 2), (2, 2), (1.44365078838705, 6.64565078838705), (1.44365078838705, 6.64565078838705), .UNSPECIFIED.);
#218 = CARTESIAN_POINT('', (2.601, -2.601, -57.));
#219 = CARTESIAN_POINT('', (2.601, 2.601, -57.));
#220 = CARTESIAN_POINT('', (-2.601, -2.601, -57.));
#221 = CARTESIAN_POINT('', (-2.601, 2.601, -57.));
#222 = PRESENTATION_STYLE_ASSIGNMENT((#223));
#223 = SURFACE_STYLE_USAGE(.POSITIVE., #224);
#224 = SURFACE_SIDE_STYLE('', (#225));
#225 = SURFACE_STYLE_FILL_AREA(#226);
#226 = FILL_AREA_STYLE('', (#227));
#227 = FILL_AREA_STYLE_COLOUR('', #228);
#228 = COLOUR_RGB('', 0.8, 0.8, 0.8);
#229 = STYLED_ITEM('', (#222), #116);
#230 = TRIMMED_CURVE('cutting part line', #231, (#235), (#236), .T., .CARTESIAN.);
#231 = LINE('', #232, #233);
#232 = CARTESIAN_POINT('', (-4.85922169582442E-31, -2.64523708615828E-15, -43.2));
#233 = VECTOR('', #234, 3.);
#234 = DIRECTION('', (3., -5.51091059616316E-16, 0.));
#235 = CARTESIAN_POINT('', (-4.85922169582442E-31, -2.64523708615828E-15, -43.2));
#236 = CARTESIAN_POINT('', (3., -3.1963281457746E-15, -43.2));
#237 = TRIMMED_CURVE('cutting part line', #238, (#242), (#243), .T., .CARTESIAN.);
#238 = LINE('', #239, #240);
#239 = CARTESIAN_POINT('', (3., -3.1963281457746E-15, -43.2));
#240 = VECTOR('', #241, 13.4);
#241 = DIRECTION('', (0., -8.2051335542872E-16, -13.4));
#242 = CARTESIAN_POINT('', (3., -3.1963281457746E-15, -43.2));
#243 = CARTESIAN_POINT('', (3., -4.01684150120332E-15, -56.6));
#244 = TRIMMED_CURVE('cutting part line', #245, (#249), (#250), .T., .CARTESIAN.);
#245 = LINE('', #246, #247);
#246 = CARTESIAN_POINT('', (3., -4.01684150120332E-15, -56.6));
#247 = VECTOR('', #248, 0.565685424949237);
#248 = DIRECTION('', (-0.4, 4.89858719658942E-17, -0.399999999999999));
#249 = CARTESIAN_POINT('', (3., -4.01684150120332E-15, -56.6));
#250 = CARTESIAN_POINT('', (2.6, -3.96785562923742E-15, -57.));
#251 = TRIMMED_CURVE('cutting part line', #252, (#256), (#257), .T., .CARTESIAN.);
#252 = LINE('', #253, #254);
#253 = CARTESIAN_POINT('', (2.6, -3.96785562923742E-15, -57.));
#254 = VECTOR('', #255, 2.6);
#255 = DIRECTION('', (-2.6, 4.77612251667462E-16, 0.));
#256 = CARTESIAN_POINT('', (2.6, -3.96785562923742E-15, -57.));
#257 = CARTESIAN_POINT('', (-4.2743153805863E-31, -3.49024337756996E-15, -57.));
#258 = TRIMMED_CURVE('cutting part line', #259, (#263), (#264), .T., .CARTESIAN.);
#259 = LINE('', #260, #261);
#260 = CARTESIAN_POINT('', (-6.41147307087945E-31, -3.49024337756996E-15, -57.));
#261 = VECTOR('', #262, 13.8);
#262 = DIRECTION('', (1.55225137505503E-31, 8.4500629141168E-16, 13.8));
#263 = CARTESIAN_POINT('', (-6.41147307087945E-31, -3.49024337756996E-15, -57.));
#264 = CARTESIAN_POINT('', (-4.85922169582442E-31, -2.64523708615828E-15, -43.2));
#265 = COMPOSITE_CURVE('cutting part line', (#266, #267, #268, #269, #270), .U.);
#266 = COMPOSITE_CURVE_SEGMENT(.CONTINUOUS., .T., #230);
#267 = COMPOSITE_CURVE_SEGMENT(.CONTINUOUS., .T., #237);
#268 = COMPOSITE_CURVE_SEGMENT(.CONTINUOUS., .T., #244);
#269 = COMPOSITE_CURVE_SEGMENT(.CONTINUOUS., .T., #251);
#270 = COMPOSITE_CURVE_SEGMENT(.CONTINUOUS., .T., #258);
#271 = GEOMETRIC_SET('', (#265, #314));
#272 = PRESENTATION_STYLE_ASSIGNMENT((#273));
#273 = CURVE_STYLE('', #275, POSITIVE_LENGTH_MEASURE(1.E-6), #274);
#274 = COLOUR_RGB('', 0., 0., 1.);
#275 = DRAUGHTING_PRE_DEFINED_CURVE_FONT('continuous');
#276 = STYLED_ITEM('', (#272), #265);
#277 = PRESENTATION_STYLE_ASSIGNMENT((#278));
#278 = CURVE_STYLE('', #280, POSITIVE_LENGTH_MEASURE(1.E-6), #279);
#279 = COLOUR_RGB('', 0., 0., 1.);
#280 = DRAUGHTING_PRE_DEFINED_CURVE_FONT('continuous');
#281 = OVER_RIDING_STYLED_ITEM('', (#277), #230, #276);
#282 = PRESENTATION_STYLE_ASSIGNMENT((#283));
#283 = CURVE_STYLE('', #285, POSITIVE_LENGTH_MEASURE(1.E-6), #284);
#284 = COLOUR_RGB('', 0., 0., 1.);
#285 = DRAUGHTING_PRE_DEFINED_CURVE_FONT('continuous');
#286 = OVER_RIDING_STYLED_ITEM('', (#282), #237, #276);
#287 = PRESENTATION_STYLE_ASSIGNMENT((#288));
#288 = CURVE_STYLE('', #290, POSITIVE_LENGTH_MEASURE(1.E-6), #289);
#289 = COLOUR_RGB('', 0., 0., 1.);
#290 = DRAUGHTING_PRE_DEFINED_CURVE_FONT('continuous');
#291 = OVER_RIDING_STYLED_ITEM('', (#287), #244, #276);
#292 = PRESENTATION_STYLE_ASSIGNMENT((#293));
#293 = CURVE_STYLE('', #295, POSITIVE_LENGTH_MEASURE(1.E-6), #294);
#294 = COLOUR_RGB('', 0., 0., 1.);
#295 = DRAUGHTING_PRE_DEFINED_CURVE_FONT('continuous');
#296 = OVER_RIDING_STYLED_ITEM('', (#292), #251, #276);
#297 = PRESENTATION_STYLE_ASSIGNMENT((#298));
#298 = CURVE_STYLE('', #300, POSITIVE_LENGTH_MEASURE(1.E-6), #299);
#299 = COLOUR_RGB('', 0., 0., 1.);
#300 = DRAUGHTING_PRE_DEFINED_CURVE_FONT('continuous');
#301 = OVER_RIDING_STYLED_ITEM('', (#297), #258, #276);
#302 = AXIS2_PLACEMENT_3D('CIP', #303, #304, #305);
#303 = CARTESIAN_POINT('', (2.13715769029315E-31, 3.49024337756996E-15, -57.));
#304 = DIRECTION('', (-3.74939945665465E-33, -6.12323399573677E-17, 1.));
#305 = DIRECTION('', (1., -6.12323399573677E-17, 0.));
#306 = AXIS2_PLACEMENT_3D('MCS', #307, #308, #309);
#307 = CARTESIAN_POINT('', (1.34978380439567E-31, 2.20436423846524E-15, -36.));
#308 = DIRECTION('', (-3.74939945665465E-33, -6.12323399573677E-17, 1.));
#309 = DIRECTION('', (1., -6.12323399573677E-17, 0.));
#310 = AXIS2_PLACEMENT_3D('PCS', #311, #312, #313);
#311 = CARTESIAN_POINT('', (0., 0., 0.));
#312 = DIRECTION('', (0., 0., 1.));
#313 = DIRECTION('', (1., 0., 0.));
#314 = CARTESIAN_POINT('CRP', (3., 0., -57.));
#315 = (
   GEOMETRIC_REPRESENTATION_CONTEXT (3)
   GLOBAL_UNCERTAINTY_ASSIGNED_CONTEXT ((#317))
   GLOBAL_UNIT_ASSIGNED_CONTEXT ((#316, #318, #319))
   REPRESENTATION_CONTEXT ('', '3D')
);
#316 = (
   LENGTH_UNIT ()
   NAMED_UNIT (*)
   SI_UNIT (.MILLI., .METRE.)
);
#317 = UNCERTAINTY_MEASURE_WITH_UNIT(LENGTH_MEASURE(1.E-6), #316, 'DISTANCE_ACCURACY_VALUE', '');
#318 = (
   NAMED_UNIT (*)
   SI_UNIT ($, .STERADIAN.)
   SOLID_ANGLE_UNIT ()
);
#319 = (
   NAMED_UNIT (*)
   PLANE_ANGLE_UNIT ()
   SI_UNIT ($, .RADIAN.)
);
#320 = SHAPE_REPRESENTATION('', (), #315);
#321 = PRODUCT_DEFINITION_SHAPE('', '', #322);
#322 = PRODUCT_DEFINITION('', '', #325, #329);
#323 = APPLICATION_CONTEXT('configuration controlled 3D designs of mechanical parts and assemblies');
#324 = APPLICATION_PROTOCOL_DEFINITION('International Standard', 'automotive_design', 2002, #323);
#325 = PRODUCT_DEFINITION_FORMATION_WITH_SPECIFIED_SOURCE('', '', #326, .NOT_KNOWN.);
#326 = PRODUCT('NONE', 'R217.33C060240AC13N 1630', '', (#327));
#327 = PRODUCT_CONTEXT('', #323, 'mechanical');
#328 = PRODUCT_RELATED_PRODUCT_CATEGORY('detail', '', (#326));
#329 = PRODUCT_DEFINITION_CONTEXT('part definition', #323, 'design');
#330 = SHAPE_DEFINITION_REPRESENTATION(#321, #320);
#331 = CONSTRUCTIVE_GEOMETRY_REPRESENTATION('supplemental geometry', (#302, #306, #310), #315);
#332 = CONSTRUCTIVE_GEOMETRY_REPRESENTATION_RELATIONSHIP('', '', #320, #331);
#333 = SHAPE_REPRESENTATION_RELATIONSHIP('', '', #320, #334);
#334 = SHAPE_REPRESENTATION('', (#271), #315);
#335 = SHAPE_REPRESENTATION_RELATIONSHIP('', '', #320, #336);
#336 = ADVANCED_BREP_SHAPE_REPRESENTATION('', (#1, #116), #315);
ENDSEC;
END-ISO-10303-21;
