ISO-10303-21;
HEADER;
FILE_DESCRIPTION(('STEP'), '1');
FILE_NAME('C:\\Users\\ds2002\\OneDrive - Sandvik\\HomeShare\\Documents\\Batchrepair\\CorSRT2\\NEW_MILTH_SLD\\Output\\MOD000000000000000020084660900000.stp', '2019-01-04T08:50:45', (''), (''), 'Express v3.0.0.0', 'Express Tool', 'Unknown');
FILE_SCHEMA(('AUTOMOTIVE_DESIGN'));
ENDSEC;

DATA;
#1 = MANIFOLD_SOLID_BREP('NOCUT', #2);
#2 = CLOSED_SHELL('', (#3, #50, #59, #98, #115, #135));
#3 = ADVANCED_FACE('', (#4), #31, .T.);
#4 = FACE_OUTER_BOUND('', #5, .T.);
#5 = EDGE_LOOP('', (#6, #16, #23, #24));
#6 = ORIENTED_EDGE('', *, *, #7, .T.);
#7 = EDGE_CURVE('', #8, #10, #12, .T.);
#8 = VERTEX_POINT('', #9);
#9 = CARTESIAN_POINT('', (-3., 2.02066721859313E-16, -0.299999999999997));
#10 = VERTEX_POINT('', #11);
#11 = CARTESIAN_POINT('', (-2.7, 1.65327317884893E-16, 0.));
#12 = LINE('', #13, #14);
#13 = CARTESIAN_POINT('', (-3., 2.02066721859313E-16, -0.299999999999997));
#14 = VECTOR('', #15, 0.424264068711926);
#15 = DIRECTION('', (0.3, -3.673940397442E-17, 0.299999999999997));
#16 = ORIENTED_EDGE('', *, *, #17, .T.);
#17 = EDGE_CURVE('', #10, #10, #18, .T.);
#18 = CIRCLE('', #19, 2.7);
#19 = AXIS2_PLACEMENT_3D('', #20, #21, #22);
#20 = CARTESIAN_POINT('', (1.80411241501588E-16, 3.33066907387547E-16, 2.46519032881566E-32));
#21 = DIRECTION('', (5.32622804422992E-33, 6.12323399573677E-17, -1.));
#22 = DIRECTION('', (-1., -6.21257738898718E-17, -9.13033455116911E-33));
#23 = ORIENTED_EDGE('', *, *, #7, .F.);
#24 = ORIENTED_EDGE('', *, *, #25, .F.);
#25 = EDGE_CURVE('', #8, #8, #26, .T.);
#26 = CIRCLE('', #27, 3.);
#27 = AXIS2_PLACEMENT_3D('', #28, #29, #30);
#28 = CARTESIAN_POINT('', (2.91433543964104E-16, 0., -0.299999999999997));
#29 = DIRECTION('', (4.24192595338452E-33, 6.2978098239322E-17, -1.));
#30 = DIRECTION('', (-1., 6.73555739531044E-17, 0.));
#31 = (
   BOUNDED_SURFACE ()
   B_SPLINE_SURFACE (1, 2, ((#32, #33, #34, #35, #36, #37, #38, #39, #40), (#41, #42, #43, #44, #45, #46, #47, #48, #49)), .UNSPECIFIED., .F., .T., .U.)
   B_SPLINE_SURFACE_WITH_KNOTS ((2, 2), (3, 2, 2, 2, 3), (0., 1.), (0., 0.25, 0.5, 0.75, 1.), .UNSPECIFIED.)
   GEOMETRIC_REPRESENTATION_ITEM ()
   RATIONAL_B_SPLINE_SURFACE (((1., 0.707106781186548, 1., 0.707106781186548, 1., 0.707106781186548, 1., 0.707106781186548, 1.), (1., 0.707106781186548, 1., 0.707106781186548, 1., 0.707106781186548, 1., 0.707106781186548, 1.)))
   REPRESENTATION_ITEM ('')
   SURFACE ()
);
#32 = CARTESIAN_POINT('', (-3., 1.49129302665284E-15, -0.299999999999997));
#33 = CARTESIAN_POINT('', (-3., 3., -0.299999999999985));
#34 = CARTESIAN_POINT('', (2.34149119846292E-15, 3., -0.299999999999985));
#35 = CARTESIAN_POINT('', (3., 3., -0.299999999999985));
#36 = CARTESIAN_POINT('', (3., -1.34594359183367E-15, -0.299999999999997));
#37 = CARTESIAN_POINT('', (3., -3., -0.300000000000009));
#38 = CARTESIAN_POINT('', (-1.28351380279387E-16, -3., -0.300000000000009));
#39 = CARTESIAN_POINT('', (-3., -3., -0.300000000000009));
#40 = CARTESIAN_POINT('', (-3., 1.49129302665284E-15, -0.299999999999997));
#41 = CARTESIAN_POINT('', (-2.7, 1.65327317884893E-16, -2.18952885050753E-47));
#42 = CARTESIAN_POINT('', (-2.7, 2.7, 1.04916075827078E-14));
#43 = CARTESIAN_POINT('', (2.19962936753859E-15, 2.7, 1.04916075827078E-14));
#44 = CARTESIAN_POINT('', (2.7, 2.7, 1.04916075827078E-14));
#45 = CARTESIAN_POINT('', (2.7, -2.38818563875297E-15, 1.12461399303431E-30));
#46 = CARTESIAN_POINT('', (2.7, -2.7, -1.04916075827078E-14));
#47 = CARTESIAN_POINT('', (-2.32289533294833E-17, -2.7, -1.04916075827078E-14));
#48 = CARTESIAN_POINT('', (-2.7, -2.7, -1.04916075827078E-14));
#49 = CARTESIAN_POINT('', (-2.7, 1.65327317884893E-16, -2.18952885050753E-47));
#50 = ADVANCED_FACE('', (#51), #54, .T.);
#51 = FACE_OUTER_BOUND('', #52, .T.);
#52 = EDGE_LOOP('', (#53));
#53 = ORIENTED_EDGE('', *, *, #17, .F.);
#54 = B_SPLINE_SURFACE_WITH_KNOTS('', 1, 1, ((#55, #56), (#57, #58)), .UNSPECIFIED., .F., .F., .U., (2, 2), (2, 2), (1.49921428024809, 6.90121428024809), (1.49921428024809, 6.90121428024809), .UNSPECIFIED.);
#55 = CARTESIAN_POINT('', (2.701, -2.701, 6.94267044713819E-15));
#56 = CARTESIAN_POINT('', (-2.701, -2.701, -7.27344754758799E-15));
#57 = CARTESIAN_POINT('', (2.701, 2.701, 7.27344754758789E-15));
#58 = CARTESIAN_POINT('', (-2.701, 2.701, -6.94267044713829E-15));
#59 = ADVANCED_FACE('', (#60), #79, .T.);
#60 = FACE_OUTER_BOUND('', #61, .T.);
#61 = EDGE_LOOP('', (#62, #70, #77, #78));
#62 = ORIENTED_EDGE('', *, *, #63, .F.);
#63 = EDGE_CURVE('', #64, #8, #66, .T.);
#64 = VERTEX_POINT('', #65);
#65 = CARTESIAN_POINT('', (-3., 3.09223316784707E-15, -47.5));
#66 = LINE('', #67, #68);
#67 = CARTESIAN_POINT('', (-3., 3.09223316784707E-15, -47.5));
#68 = VECTOR('', #69, 47.2);
#69 = DIRECTION('', (0., -2.89016644598776E-15, 47.2));
#70 = ORIENTED_EDGE('', *, *, #71, .F.);
#71 = EDGE_CURVE('', #64, #64, #72, .T.);
#72 = CIRCLE('', #73, 3.);
#73 = AXIS2_PLACEMENT_3D('', #74, #75, #76);
#74 = CARTESIAN_POINT('', (7.63278329429795E-16, 2.77555756156289E-15, -47.5));
#75 = DIRECTION('', (2.368475785867E-15, -7.70540152533532E-15, -1.));
#76 = DIRECTION('', (-1., 1.0555853542806E-16, -2.368475785867E-15));
#77 = ORIENTED_EDGE('', *, *, #63, .T.);
#78 = ORIENTED_EDGE('', *, *, #25, .T.);
#79 = (
   BOUNDED_SURFACE ()
   B_SPLINE_SURFACE (1, 2, ((#80, #81, #82, #83, #84, #85, #86, #87, #88), (#89, #90, #91, #92, #93, #94, #95, #96, #97)), .UNSPECIFIED., .F., .T., .U.)
   B_SPLINE_SURFACE_WITH_KNOTS ((2, 2), (3, 2, 2, 2, 3), (-0.322128851540616, 1.), (0., 0.25, 0.5, 0.75, 1.), .UNSPECIFIED.)
   GEOMETRIC_REPRESENTATION_ITEM ()
   RATIONAL_B_SPLINE_SURFACE (((1., 0.707106781186548, 1., 0.707106781186548, 1., 0.707106781186548, 1., 0.707106781186548, 1.), (1., 0.707106781186548, 1., 0.707106781186548, 1., 0.707106781186548, 1., 0.707106781186548, 1.)))
   REPRESENTATION_ITEM ('')
   SURFACE ()
);
#80 = CARTESIAN_POINT('', (-3., 2.64455737603466E-15, -47.5));
#81 = CARTESIAN_POINT('', (-3., 3., -47.5));
#82 = CARTESIAN_POINT('', (4.48581124029458E-16, 3., -47.5));
#83 = CARTESIAN_POINT('', (3., 3., -47.5));
#84 = CARTESIAN_POINT('', (3., 2.27475106467269E-15, -47.5));
#85 = CARTESIAN_POINT('', (3., -3., -47.5));
#86 = CARTESIAN_POINT('', (4.46168852411697E-16, -3., -47.5));
#87 = CARTESIAN_POINT('', (-3., -3., -47.5));
#88 = CARTESIAN_POINT('', (-3., 2.64455737603466E-15, -47.5));
#89 = CARTESIAN_POINT('', (-3., 2.02066721859313E-16, -0.299999999999997));
#90 = CARTESIAN_POINT('', (-3., 3., -0.299999999999997));
#91 = CARTESIAN_POINT('', (4.48581124029458E-16, 3., -0.299999999999997));
#92 = CARTESIAN_POINT('', (3., 3., -0.299999999999997));
#93 = CARTESIAN_POINT('', (3., -1.67739589502654E-16, -0.299999999999997));
#94 = CARTESIAN_POINT('', (3., -3., -0.299999999999997));
#95 = CARTESIAN_POINT('', (4.46168852411697E-16, -3., -0.299999999999997));
#96 = CARTESIAN_POINT('', (-3., -3., -0.299999999999997));
#97 = CARTESIAN_POINT('', (-3., 2.02066721859313E-16, -0.299999999999997));
#98 = ADVANCED_FACE('', (#99), #110, .T.);
#99 = FACE_OUTER_BOUND('', #100, .T.);
#100 = EDGE_LOOP('', (#101));
#101 = ORIENTED_EDGE('', *, *, #102, .T.);
#102 = EDGE_CURVE('', #103, #103, #105, .T.);
#103 = VERTEX_POINT('', #104);
#104 = CARTESIAN_POINT('', (-1.91746875, 4.09751319558653E-15, -65.));
#105 = CIRCLE('', #106, 1.91746875000001);
#106 = AXIS2_PLACEMENT_3D('', #107, #108, #109);
#107 = CARTESIAN_POINT('', (-9.0205620750794E-17, 4.82947015711943E-15, -65.));
#108 = DIRECTION('', (0., 0., -1.));
#109 = DIRECTION('', (-1., -3.81730842566741E-16, 0.));
#110 = B_SPLINE_SURFACE_WITH_KNOTS('', 1, 1, ((#111, #112), (#113, #114)), .UNSPECIFIED., .F., .F., .U., (2, 2), (2, 2), (2.12618203838704, 5.96311953838706), (2.12618203838704, 5.96311953838706), .UNSPECIFIED.);
#111 = CARTESIAN_POINT('', (1.91846875000001, -1.91846875000001, -65.));
#112 = CARTESIAN_POINT('', (1.91846875000001, 1.91846875000001, -65.));
#113 = CARTESIAN_POINT('', (-1.91846875000001, -1.91846875000001, -65.));
#114 = CARTESIAN_POINT('', (-1.91846875000001, 1.91846875000001, -65.));
#115 = ADVANCED_FACE('', (#116, #119), #130, .T.);
#116 = FACE_OUTER_BOUND('', #117, .T.);
#117 = EDGE_LOOP('', (#118));
#118 = ORIENTED_EDGE('', *, *, #71, .T.);
#119 = FACE_BOUND('', #120, .T.);
#120 = EDGE_LOOP('', (#121));
#121 = ORIENTED_EDGE('', *, *, #122, .F.);
#122 = EDGE_CURVE('', #123, #123, #125, .T.);
#123 = VERTEX_POINT('', #124);
#124 = CARTESIAN_POINT('', (-1.91746875, 3.02594724633259E-15, -47.5));
#125 = CIRCLE('', #126, 1.91746875);
#126 = AXIS2_PLACEMENT_3D('', #127, #128, #129);
#127 = CARTESIAN_POINT('', (4.23272528138341E-16, 3.38618022510673E-15, -47.5));
#128 = DIRECTION('', (3.70562876584091E-15, -1.20555834748316E-14, -1.));
#129 = DIRECTION('', (-1., -1.87869021997953E-16, -3.7056287658409E-15));
#130 = B_SPLINE_SURFACE_WITH_KNOTS('', 1, 1, ((#131, #132), (#133, #134)), .UNSPECIFIED., .F., .F., .U., (2, 2), (2, 2), (1.66590475583121, 7.66790475583121), (1.66590475583121, 7.66790475583121), .UNSPECIFIED.);
#131 = CARTESIAN_POINT('', (3.001, -3.001, -47.5));
#132 = CARTESIAN_POINT('', (3.001, 3.001, -47.5));
#133 = CARTESIAN_POINT('', (-3.001, -3.001, -47.5));
#134 = CARTESIAN_POINT('', (-3.001, 3.001, -47.5));
#135 = ADVANCED_FACE('', (#136), #147, .T.);
#136 = FACE_OUTER_BOUND('', #137, .T.);
#137 = EDGE_LOOP('', (#138, #144, #145, #146));
#138 = ORIENTED_EDGE('', *, *, #139, .T.);
#139 = EDGE_CURVE('', #103, #123, #140, .T.);
#140 = LINE('', #141, #142);
#141 = CARTESIAN_POINT('', (-1.91746875, 4.09751319558653E-15, -65.));
#142 = VECTOR('', #143, 17.5);
#143 = DIRECTION('', (0., -1.07156594925394E-15, 17.5));
#144 = ORIENTED_EDGE('', *, *, #122, .T.);
#145 = ORIENTED_EDGE('', *, *, #139, .F.);
#146 = ORIENTED_EDGE('', *, *, #102, .F.);
#147 = (
   BOUNDED_SURFACE ()
   B_SPLINE_SURFACE (1, 2, ((#148, #149, #150, #151, #152, #153, #154, #155, #156), (#157, #158, #159, #160, #161, #162, #163, #164, #165)), .UNSPECIFIED., .F., .T., .U.)
   B_SPLINE_SURFACE_WITH_KNOTS ((2, 2), (3, 2, 2, 2, 3), (0., 1.), (0., 3.011952869244, 6.023905738488, 9.035858607732, 12.047811476976), .UNSPECIFIED.)
   GEOMETRIC_REPRESENTATION_ITEM ()
   RATIONAL_B_SPLINE_SURFACE (((1., 0.707106781186548, 1., 0.707106781186548, 1., 0.707106781186548, 1., 0.707106781186548, 1.), (1., 0.707106781186548, 1., 0.707106781186548, 1., 0.707106781186548, 1., 0.707106781186548, 1.)))
   REPRESENTATION_ITEM ('')
   SURFACE ()
);
#148 = CARTESIAN_POINT('', (-1.91746874999993, 3.91412566603264E-15, -65.));
#149 = CARTESIAN_POINT('', (-1.91746874999993, 1.91746875, -65.));
#150 = CARTESIAN_POINT('', (6.75974449904009E-14, 1.91746875, -65.));
#151 = CARTESIAN_POINT('', (1.91746875000007, 1.91746875, -65.));
#152 = CARTESIAN_POINT('', (1.91746875000007, -4.59656697904581E-16, -65.));
#153 = CARTESIAN_POINT('', (1.91746875000006, -1.91746875, -65.));
#154 = CARTESIAN_POINT('', (6.34584848231789E-14, -1.91746875, -65.));
#155 = CARTESIAN_POINT('', (-1.91746874999994, -1.91746875, -65.));
#156 = CARTESIAN_POINT('', (-1.91746874999993, 3.91412566603264E-15, -65.));
#157 = CARTESIAN_POINT('', (-1.91746875, 3.02594724633259E-15, -47.5));
#158 = CARTESIAN_POINT('', (-1.91746875, 1.91746875, -47.5));
#159 = CARTESIAN_POINT('', (2.74894158818509E-15, 1.91746875, -47.5));
#160 = CARTESIAN_POINT('', (1.91746875, 1.91746875, -47.5));
#161 = CARTESIAN_POINT('', (1.91746875, -1.34783511760463E-15, -47.5));
#162 = CARTESIAN_POINT('', (1.91746875, -1.91746875, -47.5));
#163 = CARTESIAN_POINT('', (-1.39001857903687E-15, -1.91746875, -47.5));
#164 = CARTESIAN_POINT('', (-1.91746875, -1.91746875, -47.5));
#165 = CARTESIAN_POINT('', (-1.91746875, 3.02594724633259E-15, -47.5));
#166 = DRAUGHTING_MODEL('', (#174, #341, #388, #393, #398, #403, #408, #413), #427);
#167 = PRESENTATION_STYLE_ASSIGNMENT((#168));
#168 = SURFACE_STYLE_USAGE(.POSITIVE., #169);
#169 = SURFACE_SIDE_STYLE('', (#170));
#170 = SURFACE_STYLE_FILL_AREA(#171);
#171 = FILL_AREA_STYLE('', (#172));
#172 = FILL_AREA_STYLE_COLOUR('', #173);
#173 = COLOUR_RGB('', 0.50196078431373, 0.50196078431373, 0.50196078431373);
#174 = STYLED_ITEM('', (#167), #1);
#175 = MANIFOLD_SOLID_BREP('CUT', #176);
#176 = CLOSED_SHELL('', (#177, #205, #244, #264, #303));
#177 = ADVANCED_FACE('', (#178, #189), #200, .T.);
#178 = FACE_OUTER_BOUND('', #179, .T.);
#179 = EDGE_LOOP('', (#180));
#180 = ORIENTED_EDGE('', *, *, #181, .T.);
#181 = EDGE_CURVE('', #182, #182, #184, .T.);
#182 = VERTEX_POINT('', #183);
#183 = CARTESIAN_POINT('', (-2.6, 4.13930618111805E-15, -65.));
#184 = CIRCLE('', #185, 2.6);
#185 = AXIS2_PLACEMENT_3D('', #186, #187, #188);
#186 = CARTESIAN_POINT('', (7.28583859910259E-16, 2.99760216648792E-15, -65.));
#187 = DIRECTION('', (0., 0., -1.));
#188 = DIRECTION('', (-1., 4.39116928703897E-16, 0.));
#189 = FACE_BOUND('', #190, .T.);
#190 = EDGE_LOOP('', (#191));
#191 = ORIENTED_EDGE('', *, *, #192, .F.);
#192 = EDGE_CURVE('', #193, #193, #195, .T.);
#193 = VERTEX_POINT('', #194);
#194 = CARTESIAN_POINT('', (-1.91746875, 4.09751319558653E-15, -65.));
#195 = CIRCLE('', #196, 1.91746875);
#196 = AXIS2_PLACEMENT_3D('', #197, #198, #199);
#197 = CARTESIAN_POINT('', (4.30211422042248E-16, 4.49640324973188E-15, -65.));
#198 = DIRECTION('', (0., 0., -1.));
#199 = DIRECTION('', (-1., -2.08029494167951E-16, 0.));
#200 = B_SPLINE_SURFACE_WITH_KNOTS('', 1, 1, ((#201, #202), (#203, #204)), .UNSPECIFIED., .F., .F., .U., (2, 2), (2, 2), (1.44365078838705, 6.64565078838705), (1.44365078838705, 6.64565078838705), .UNSPECIFIED.);
#201 = CARTESIAN_POINT('', (2.601, -2.601, -65.));
#202 = CARTESIAN_POINT('', (2.601, 2.601, -65.));
#203 = CARTESIAN_POINT('', (-2.601, -2.601, -65.));
#204 = CARTESIAN_POINT('', (-2.601, 2.601, -65.));
#205 = ADVANCED_FACE('', (#206), #225, .T.);
#206 = FACE_OUTER_BOUND('', #207, .T.);
#207 = EDGE_LOOP('', (#208, #216, #217, #218));
#208 = ORIENTED_EDGE('', *, *, #209, .F.);
#209 = EDGE_CURVE('', #193, #210, #212, .T.);
#210 = VERTEX_POINT('', #211);
#211 = CARTESIAN_POINT('', (-1.91746875, 3.02594724633259E-15, -47.5));
#212 = LINE('', #213, #214);
#213 = CARTESIAN_POINT('', (-1.91746875, 4.09751319558653E-15, -65.));
#214 = VECTOR('', #215, 17.5);
#215 = DIRECTION('', (0., -1.07156594925394E-15, 17.5));
#216 = ORIENTED_EDGE('', *, *, #192, .T.);
#217 = ORIENTED_EDGE('', *, *, #209, .T.);
#218 = ORIENTED_EDGE('', *, *, #219, .F.);
#219 = EDGE_CURVE('', #210, #210, #220, .T.);
#220 = CIRCLE('', #221, 1.91746875);
#221 = AXIS2_PLACEMENT_3D('', #222, #223, #224);
#222 = CARTESIAN_POINT('', (4.23272528138341E-16, 3.38618022510673E-15, -47.5));
#223 = DIRECTION('', (3.70562876584091E-15, -1.20555834748316E-14, -1.));
#224 = DIRECTION('', (-1., -1.87869021997953E-16, -3.7056287658409E-15));
#225 = (
   BOUNDED_SURFACE ()
   B_SPLINE_SURFACE (2, 1, ((#226, #227), (#228, #229), (#230, #231), (#232, #233), (#234, #235), (#236, #237), (#238, #239), (#240, #241), (#242, #243)), .UNSPECIFIED., .T., .F., .U.)
   B_SPLINE_SURFACE_WITH_KNOTS ((3, 2, 2, 2, 3), (2, 2), (0., 3.011952869244, 6.023905738488, 9.035858607732, 12.047811476976), (0., 1.), .UNSPECIFIED.)
   GEOMETRIC_REPRESENTATION_ITEM ()
   RATIONAL_B_SPLINE_SURFACE (((1., 1.), (0.707106781186548, 0.707106781186548), (1., 1.), (0.707106781186548, 0.707106781186548), (1., 1.), (0.707106781186548, 0.707106781186548), (1., 1.), (0.707106781186548, 0.707106781186548), (1., 1.)))
   REPRESENTATION_ITEM ('')
   SURFACE ()
);
#226 = CARTESIAN_POINT('', (-1.91746874999993, 3.91412566603264E-15, -65.));
#227 = CARTESIAN_POINT('', (-1.91746875, 3.02594724633259E-15, -47.5));
#228 = CARTESIAN_POINT('', (-1.91746874999993, 1.91746875, -65.));
#229 = CARTESIAN_POINT('', (-1.91746875, 1.91746875, -47.5));
#230 = CARTESIAN_POINT('', (6.75974449904009E-14, 1.91746875, -65.));
#231 = CARTESIAN_POINT('', (2.74894158818509E-15, 1.91746875, -47.5));
#232 = CARTESIAN_POINT('', (1.91746875000007, 1.91746875, -65.));
#233 = CARTESIAN_POINT('', (1.91746875, 1.91746875, -47.5));
#234 = CARTESIAN_POINT('', (1.91746875000007, -4.59656697904581E-16, -65.));
#235 = CARTESIAN_POINT('', (1.91746875, -1.34783511760463E-15, -47.5));
#236 = CARTESIAN_POINT('', (1.91746875000006, -1.91746875, -65.));
#237 = CARTESIAN_POINT('', (1.91746875, -1.91746875, -47.5));
#238 = CARTESIAN_POINT('', (6.34584848231789E-14, -1.91746875, -65.));
#239 = CARTESIAN_POINT('', (-1.39001857903687E-15, -1.91746875, -47.5));
#240 = CARTESIAN_POINT('', (-1.91746874999994, -1.91746875, -65.));
#241 = CARTESIAN_POINT('', (-1.91746875, -1.91746875, -47.5));
#242 = CARTESIAN_POINT('', (-1.91746874999993, 3.91412566603264E-15, -65.));
#243 = CARTESIAN_POINT('', (-1.91746875, 3.02594724633259E-15, -47.5));
#244 = ADVANCED_FACE('', (#245, #256), #259, .T.);
#245 = FACE_OUTER_BOUND('', #246, .T.);
#246 = EDGE_LOOP('', (#247));
#247 = ORIENTED_EDGE('', *, *, #248, .F.);
#248 = EDGE_CURVE('', #249, #249, #251, .T.);
#249 = VERTEX_POINT('', #250);
#250 = CARTESIAN_POINT('', (-3., 3.09223316784707E-15, -47.5));
#251 = CIRCLE('', #252, 3.);
#252 = AXIS2_PLACEMENT_3D('', #253, #254, #255);
#253 = CARTESIAN_POINT('', (7.63278329429795E-16, 2.77555756156289E-15, -47.5));
#254 = DIRECTION('', (2.368475785867E-15, -7.70540152533532E-15, -1.));
#255 = DIRECTION('', (-1., 1.0555853542806E-16, -2.368475785867E-15));
#256 = FACE_BOUND('', #257, .T.);
#257 = EDGE_LOOP('', (#258));
#258 = ORIENTED_EDGE('', *, *, #219, .T.);
#259 = B_SPLINE_SURFACE_WITH_KNOTS('', 1, 1, ((#260, #261), (#262, #263)), .UNSPECIFIED., .F., .F., .U., (2, 2), (2, 2), (1.66590475583121, 7.66790475583121), (1.66590475583121, 7.66790475583121), .UNSPECIFIED.);
#260 = CARTESIAN_POINT('', (3.001, -3.001, -47.5));
#261 = CARTESIAN_POINT('', (-3.001, -3.001, -47.5));
#262 = CARTESIAN_POINT('', (3.001, 3.001, -47.5));
#263 = CARTESIAN_POINT('', (-3.001, 3.001, -47.5));
#264 = ADVANCED_FACE('', (#265), #284, .T.);
#265 = FACE_OUTER_BOUND('', #266, .T.);
#266 = EDGE_LOOP('', (#267, #275, #276, #277));
#267 = ORIENTED_EDGE('', *, *, #268, .F.);
#268 = EDGE_CURVE('', #249, #269, #271, .T.);
#269 = VERTEX_POINT('', #270);
#270 = CARTESIAN_POINT('', (-3., 4.13930618111805E-15, -64.6));
#271 = LINE('', #272, #273);
#272 = CARTESIAN_POINT('', (-3., 3.09223316784707E-15, -47.5));
#273 = VECTOR('', #274, 17.1);
#274 = DIRECTION('', (0., 1.04707301327098E-15, -17.1));
#275 = ORIENTED_EDGE('', *, *, #248, .T.);
#276 = ORIENTED_EDGE('', *, *, #268, .T.);
#277 = ORIENTED_EDGE('', *, *, #278, .F.);
#278 = EDGE_CURVE('', #269, #269, #279, .T.);
#279 = CIRCLE('', #280, 3.);
#280 = AXIS2_PLACEMENT_3D('', #281, #282, #283);
#281 = CARTESIAN_POINT('', (7.63278329429795E-16, 3.83026943495679E-15, -64.6));
#282 = DIRECTION('', (0., 0., -1.));
#283 = DIRECTION('', (-1., 1.03012248720421E-16, 0.));
#284 = (
   BOUNDED_SURFACE ()
   B_SPLINE_SURFACE (2, 1, ((#285, #286), (#287, #288), (#289, #290), (#291, #292), (#293, #294), (#295, #296), (#297, #298), (#299, #300), (#301, #302)), .UNSPECIFIED., .T., .F., .U.)
   B_SPLINE_SURFACE_WITH_KNOTS ((3, 2, 2, 2, 3), (2, 2), (0., 4.7123889803847, 9.4247779607694, 14.1371669411541, 18.8495559215388), (0., 1.), .UNSPECIFIED.)
   GEOMETRIC_REPRESENTATION_ITEM ()
   RATIONAL_B_SPLINE_SURFACE (((1., 1.), (0.707106781186548, 0.707106781186548), (1., 1.), (0.707106781186548, 0.707106781186548), (1., 1.), (0.707106781186548, 0.707106781186548), (1., 1.), (0.707106781186548, 0.707106781186548), (1., 1.)))
   REPRESENTATION_ITEM ('')
   SURFACE ()
);
#285 = CARTESIAN_POINT('', (-3., 3.09223316784707E-15, -47.5));
#286 = CARTESIAN_POINT('', (-3., 2.87018856292204E-15, -64.6));
#287 = CARTESIAN_POINT('', (-3., 3., -47.5));
#288 = CARTESIAN_POINT('', (-3., 3., -64.6));
#289 = CARTESIAN_POINT('', (2.60322481620305E-15, 3., -47.5));
#290 = CARTESIAN_POINT('', (2.60322481620305E-15, 3., -64.6));
#291 = CARTESIAN_POINT('', (3., 3., -47.5));
#292 = CARTESIAN_POINT('', (3., 3., -64.6));
#293 = CARTESIAN_POINT('', (3., -1.39257149855268E-15, -47.5));
#294 = CARTESIAN_POINT('', (3., -1.61461610347771E-15, -64.6));
#295 = CARTESIAN_POINT('', (3., -3., -47.5));
#296 = CARTESIAN_POINT('', (3., -3., -64.6));
#297 = CARTESIAN_POINT('', (-1.51418581045249E-15, -3., -47.5));
#298 = CARTESIAN_POINT('', (-1.51418581045249E-15, -3., -64.6));
#299 = CARTESIAN_POINT('', (-3., -3., -47.5));
#300 = CARTESIAN_POINT('', (-3., -3., -64.6));
#301 = CARTESIAN_POINT('', (-3., 3.09223316784707E-15, -47.5));
#302 = CARTESIAN_POINT('', (-3., 2.87018856292204E-15, -64.6));
#303 = ADVANCED_FACE('', (#304), #315, .T.);
#304 = FACE_OUTER_BOUND('', #305, .T.);
#305 = EDGE_LOOP('', (#306, #312, #313, #314));
#306 = ORIENTED_EDGE('', *, *, #307, .F.);
#307 = EDGE_CURVE('', #269, #182, #308, .T.);
#308 = LINE('', #309, #310);
#309 = CARTESIAN_POINT('', (-3., 4.13930618111805E-15, -64.6));
#310 = VECTOR('', #311, 0.565685424949242);
#311 = DIRECTION('', (0.4, 0., -0.400000000000006));
#312 = ORIENTED_EDGE('', *, *, #278, .T.);
#313 = ORIENTED_EDGE('', *, *, #307, .T.);
#314 = ORIENTED_EDGE('', *, *, #181, .F.);
#315 = (
   BOUNDED_SURFACE ()
   B_SPLINE_SURFACE (2, 1, ((#316, #317), (#318, #319), (#320, #321), (#322, #323), (#324, #325), (#326, #327), (#328, #329), (#330, #331), (#332, #333)), .UNSPECIFIED., .T., .F., .U.)
   B_SPLINE_SURFACE_WITH_KNOTS ((3, 2, 2, 2, 3), (2, 2), (0., 0.25, 0.5, 0.75, 1.), (0., 1.), .UNSPECIFIED.)
   GEOMETRIC_REPRESENTATION_ITEM ()
   RATIONAL_B_SPLINE_SURFACE (((1., 1.), (0.707106781186548, 0.707106781186548), (1., 1.), (0.707106781186548, 0.707106781186548), (1., 1.), (0.707106781186548, 0.707106781186548), (1., 1.), (0.707106781186548, 0.707106781186548), (1., 1.)))
   REPRESENTATION_ITEM ('')
   SURFACE ()
);
#316 = CARTESIAN_POINT('', (-3., 4.13930618111805E-15, -64.6));
#317 = CARTESIAN_POINT('', (-2.6, 5.24163099699379E-15, -65.));
#318 = CARTESIAN_POINT('', (-3., 3., -64.6));
#319 = CARTESIAN_POINT('', (-2.6, 2.6, -65.));
#320 = CARTESIAN_POINT('', (3.34498649770211E-15, 3., -64.6));
#321 = CARTESIAN_POINT('', (2.97300316631684E-15, 2.6, -65.));
#322 = CARTESIAN_POINT('', (3., 3., -64.6));
#323 = CARTESIAN_POINT('', (2.6, 2.6, -65.));
#324 = CARTESIAN_POINT('', (3., -1.44044378966101E-15, -64.6));
#325 = CARTESIAN_POINT('', (2.6, 4.0584768898527E-16, -65.));
#326 = CARTESIAN_POINT('', (3., -3., -64.6));
#327 = CARTESIAN_POINT('', (2.6, -2.6, -65.));
#328 = CARTESIAN_POINT('', (-1.86736943333275E-15, -3., -64.6));
#329 = CARTESIAN_POINT('', (-1.54437197391337E-15, -2.6, -65.));
#330 = CARTESIAN_POINT('', (-3., -3., -64.6));
#331 = CARTESIAN_POINT('', (-2.6, -2.6, -65.));
#332 = CARTESIAN_POINT('', (-3., 4.13930618111805E-15, -64.6));
#333 = CARTESIAN_POINT('', (-2.6, 5.24163099699379E-15, -65.));
#334 = PRESENTATION_STYLE_ASSIGNMENT((#335));
#335 = SURFACE_STYLE_USAGE(.POSITIVE., #336);
#336 = SURFACE_SIDE_STYLE('', (#337));
#337 = SURFACE_STYLE_FILL_AREA(#338);
#338 = FILL_AREA_STYLE('', (#339));
#339 = FILL_AREA_STYLE_COLOUR('', #340);
#340 = COLOUR_RGB('', 0.8, 0.8, 0.8);
#341 = STYLED_ITEM('', (#334), #175);
#342 = TRIMMED_CURVE('cutting part line', #343, (#347), (#348), .T., .CARTESIAN.);
#343 = LINE('', #344, #345);
#344 = CARTESIAN_POINT('', (1.91746875, -3.26076944304785E-15, -47.5));
#345 = VECTOR('', #346, 1.08253125);
#346 = DIRECTION('', (1.08253125, -1.98857764543428E-16, 0.));
#347 = CARTESIAN_POINT('', (1.91746875, -3.26076944304785E-15, -47.5));
#348 = CARTESIAN_POINT('', (3., -3.45962720759128E-15, -47.5));
#349 = TRIMMED_CURVE('cutting part line', #350, (#354), (#355), .T., .CARTESIAN.);
#350 = LINE('', #351, #352);
#351 = CARTESIAN_POINT('', (3., -3.45962720759128E-15, -47.5));
#352 = VECTOR('', #353, 17.1);
#353 = DIRECTION('', (0., -1.04707301327098E-15, -17.1));
#354 = CARTESIAN_POINT('', (3., -3.45962720759128E-15, -47.5));
#355 = CARTESIAN_POINT('', (3., -4.50670022086226E-15, -64.6));
#356 = TRIMMED_CURVE('cutting part line', #357, (#361), (#362), .T., .CARTESIAN.);
#357 = LINE('', #358, #359);
#358 = CARTESIAN_POINT('', (3., -4.50670022086226E-15, -64.6));
#359 = VECTOR('', #360, 0.565685424949242);
#360 = DIRECTION('', (-0.4, 4.89858719658942E-17, -0.400000000000006));
#361 = CARTESIAN_POINT('', (3., -4.50670022086226E-15, -64.6));
#362 = CARTESIAN_POINT('', (2.6, -4.45771434889636E-15, -65.));
#363 = TRIMMED_CURVE('cutting part line', #364, (#368), (#369), .T., .CARTESIAN.);
#364 = LINE('', #365, #366);
#365 = CARTESIAN_POINT('', (2.6, -4.45771434889636E-15, -65.));
#366 = VECTOR('', #367, 0.68253125);
#367 = DIRECTION('', (-0.68253125, 1.25378956594574E-16, 0.));
#368 = CARTESIAN_POINT('', (2.6, -4.45771434889636E-15, -65.));
#369 = CARTESIAN_POINT('', (1.91746875, -4.33233539230179E-15, -65.));
#370 = TRIMMED_CURVE('cutting part line', #371, (#375), (#376), .T., .CARTESIAN.);
#371 = LINE('', #372, #373);
#372 = CARTESIAN_POINT('', (1.91746875, -4.33233539230179E-15, -65.));
#373 = VECTOR('', #374, 17.5);
#374 = DIRECTION('', (0., 1.07156594925394E-15, 17.5));
#375 = CARTESIAN_POINT('', (1.91746875, -4.33233539230179E-15, -65.));
#376 = CARTESIAN_POINT('', (1.91746875, -3.26076944304785E-15, -47.5));
#377 = COMPOSITE_CURVE('cutting part line', (#378, #379, #380, #381, #382), .U.);
#378 = COMPOSITE_CURVE_SEGMENT(.CONTINUOUS., .T., #342);
#379 = COMPOSITE_CURVE_SEGMENT(.CONTINUOUS., .T., #349);
#380 = COMPOSITE_CURVE_SEGMENT(.CONTINUOUS., .T., #356);
#381 = COMPOSITE_CURVE_SEGMENT(.CONTINUOUS., .T., #363);
#382 = COMPOSITE_CURVE_SEGMENT(.CONTINUOUS., .T., #370);
#383 = GEOMETRIC_SET('', (#377, #426));
#384 = PRESENTATION_STYLE_ASSIGNMENT((#385));
#385 = CURVE_STYLE('', #387, POSITIVE_LENGTH_MEASURE(1.E-6), #386);
#386 = COLOUR_RGB('', 0., 0., 1.);
#387 = DRAUGHTING_PRE_DEFINED_CURVE_FONT('continuous');
#388 = STYLED_ITEM('', (#384), #377);
#389 = PRESENTATION_STYLE_ASSIGNMENT((#390));
#390 = CURVE_STYLE('', #392, POSITIVE_LENGTH_MEASURE(1.E-6), #391);
#391 = COLOUR_RGB('', 0., 0., 1.);
#392 = DRAUGHTING_PRE_DEFINED_CURVE_FONT('continuous');
#393 = OVER_RIDING_STYLED_ITEM('', (#389), #342, #388);
#394 = PRESENTATION_STYLE_ASSIGNMENT((#395));
#395 = CURVE_STYLE('', #397, POSITIVE_LENGTH_MEASURE(1.E-6), #396);
#396 = COLOUR_RGB('', 0., 0., 1.);
#397 = DRAUGHTING_PRE_DEFINED_CURVE_FONT('continuous');
#398 = OVER_RIDING_STYLED_ITEM('', (#394), #349, #388);
#399 = PRESENTATION_STYLE_ASSIGNMENT((#400));
#400 = CURVE_STYLE('', #402, POSITIVE_LENGTH_MEASURE(1.E-6), #401);
#401 = COLOUR_RGB('', 0., 0., 1.);
#402 = DRAUGHTING_PRE_DEFINED_CURVE_FONT('continuous');
#403 = OVER_RIDING_STYLED_ITEM('', (#399), #356, #388);
#404 = PRESENTATION_STYLE_ASSIGNMENT((#405));
#405 = CURVE_STYLE('', #407, POSITIVE_LENGTH_MEASURE(1.E-6), #406);
#406 = COLOUR_RGB('', 0., 0., 1.);
#407 = DRAUGHTING_PRE_DEFINED_CURVE_FONT('continuous');
#408 = OVER_RIDING_STYLED_ITEM('', (#404), #363, #388);
#409 = PRESENTATION_STYLE_ASSIGNMENT((#410));
#410 = CURVE_STYLE('', #412, POSITIVE_LENGTH_MEASURE(1.E-6), #411);
#411 = COLOUR_RGB('', 0., 0., 1.);
#412 = DRAUGHTING_PRE_DEFINED_CURVE_FONT('continuous');
#413 = OVER_RIDING_STYLED_ITEM('', (#409), #370, #388);
#414 = AXIS2_PLACEMENT_3D('CIP', #415, #416, #417);
#415 = CARTESIAN_POINT('', (2.43710964682552E-31, 3.9801020972289E-15, -65.));
#416 = DIRECTION('', (-3.74939945665465E-33, -6.12323399573677E-17, 1.));
#417 = DIRECTION('', (1., -6.12323399573677E-17, 0.));
#418 = AXIS2_PLACEMENT_3D('MCS', #419, #420, #421);
#419 = CARTESIAN_POINT('', (1.34978380439567E-31, 2.20436423846524E-15, -36.));
#420 = DIRECTION('', (-3.74939945665465E-33, -6.12323399573677E-17, 1.));
#421 = DIRECTION('', (1., -6.12323399573677E-17, 0.));
#422 = AXIS2_PLACEMENT_3D('PCS', #423, #424, #425);
#423 = CARTESIAN_POINT('', (0., 0., 0.));
#424 = DIRECTION('', (0., 0., 1.));
#425 = DIRECTION('', (1., 0., 0.));
#426 = CARTESIAN_POINT('CRP', (3., 0., -65.));
#427 = (
   GEOMETRIC_REPRESENTATION_CONTEXT (3)
   GLOBAL_UNCERTAINTY_ASSIGNED_CONTEXT ((#429))
   GLOBAL_UNIT_ASSIGNED_CONTEXT ((#428, #430, #431))
   REPRESENTATION_CONTEXT ('', '3D')
);
#428 = (
   LENGTH_UNIT ()
   NAMED_UNIT (*)
   SI_UNIT (.MILLI., .METRE.)
);
#429 = UNCERTAINTY_MEASURE_WITH_UNIT(LENGTH_MEASURE(1.E-6), #428, 'DISTANCE_ACCURACY_VALUE', '');
#430 = (
   NAMED_UNIT (*)
   SI_UNIT ($, .STERADIAN.)
   SOLID_ANGLE_UNIT ()
);
#431 = (
   NAMED_UNIT (*)
   PLANE_ANGLE_UNIT ()
   SI_UNIT ($, .RADIAN.)
);
#432 = SHAPE_REPRESENTATION('', (), #427);
#433 = PRODUCT_DEFINITION_SHAPE('', '', #434);
#434 = PRODUCT_DEFINITION('', '', #437, #441);
#435 = APPLICATION_CONTEXT('configuration controlled 3D designs of mechanical parts and assemblies');
#436 = APPLICATION_PROTOCOL_DEFINITION('International Standard', 'automotive_design', 2002, #435);
#437 = PRODUCT_DEFINITION_FORMATION_WITH_SPECIFIED_SOURCE('', '', #438, .NOT_KNOWN.);
#438 = PRODUCT('NONE', 'R217.14C060125AK17N 1630', '', (#439));
#439 = PRODUCT_CONTEXT('', #435, 'mechanical');
#440 = PRODUCT_RELATED_PRODUCT_CATEGORY('detail', '', (#438));
#441 = PRODUCT_DEFINITION_CONTEXT('part definition', #435, 'design');
#442 = SHAPE_DEFINITION_REPRESENTATION(#433, #432);
#443 = CONSTRUCTIVE_GEOMETRY_REPRESENTATION('supplemental geometry', (#414, #418, #422), #427);
#444 = CONSTRUCTIVE_GEOMETRY_REPRESENTATION_RELATIONSHIP('', '', #432, #443);
#445 = SHAPE_REPRESENTATION_RELATIONSHIP('', '', #432, #446);
#446 = SHAPE_REPRESENTATION('', (#383), #427);
#447 = SHAPE_REPRESENTATION_RELATIONSHIP('', '', #432, #448);
#448 = ADVANCED_BREP_SHAPE_REPRESENTATION('', (#1, #175), #427);
ENDSEC;
END-ISO-10303-21;
