ISO-10303-21;
HEADER;
FILE_DESCRIPTION(('STEP'), '1');
FILE_NAME('C:\\Users\\ds2002\\OneDrive - Sandvik\\HomeShare\\Documents\\Batchrepair\\CorSRT2\\NEW_MILTH_SLD\\Output\\MOD000000000000000020084664300000.stp', '2019-01-04T08:50:44', (''), (''), 'Express v3.0.0.0', 'Express Tool', 'Unknown');
FILE_SCHEMA(('AUTOMOTIVE_DESIGN'));
ENDSEC;

DATA;
#1 = MANIFOLD_SOLID_BREP('NOCUT', #2);
#2 = CLOSED_SHELL('', (#3, #50, #97, #106, #137));
#3 = ADVANCED_FACE('', (#4), #31, .T.);
#4 = FACE_OUTER_BOUND('', #5, .T.);
#5 = EDGE_LOOP('', (#6, #16, #23, #24));
#6 = ORIENTED_EDGE('', *, *, #7, .F.);
#7 = EDGE_CURVE('', #8, #10, #12, .T.);
#8 = VERTEX_POINT('', #9);
#9 = CARTESIAN_POINT('', (-3., 2.38806125833734E-15, -36.));
#10 = VERTEX_POINT('', #11);
#11 = CARTESIAN_POINT('', (-2.75, 2.79525631905383E-15, -42.9));
#12 = LINE('', #13, #14);
#13 = CARTESIAN_POINT('', (-3., 2.38806125833734E-15, -36.));
#14 = VECTOR('', #15, 6.90452750012627);
#15 = DIRECTION('', (0.25, 4.0719506071649E-16, -6.9));
#16 = ORIENTED_EDGE('', *, *, #17, .T.);
#17 = EDGE_CURVE('', #8, #8, #18, .T.);
#18 = CIRCLE('', #19, 3.);
#19 = AXIS2_PLACEMENT_3D('', #20, #21, #22);
#20 = CARTESIAN_POINT('', (7.35522753814166E-16, 1.88737914186277E-15, -36.));
#21 = DIRECTION('', (0., 0., -1.));
#22 = DIRECTION('', (-1., 1.66894038824859E-16, 0.));
#23 = ORIENTED_EDGE('', *, *, #7, .T.);
#24 = ORIENTED_EDGE('', *, *, #25, .F.);
#25 = EDGE_CURVE('', #10, #10, #26, .T.);
#26 = CIRCLE('', #27, 2.75);
#27 = AXIS2_PLACEMENT_3D('', #28, #29, #30);
#28 = CARTESIAN_POINT('', (-2.28983498828939E-16, 1.83186799063151E-15, -42.9));
#29 = DIRECTION('', (0., 0., -1.));
#30 = DIRECTION('', (-1., 3.50323028517208E-16, 0.));
#31 = (
   BOUNDED_SURFACE ()
   B_SPLINE_SURFACE (2, 1, ((#32, #33), (#34, #35), (#36, #37), (#38, #39), (#40, #41), (#42, #43), (#44, #45), (#46, #47), (#48, #49)), .UNSPECIFIED., .T., .F., .U.)
   B_SPLINE_SURFACE_WITH_KNOTS ((3, 2, 2, 2, 3), (2, 2), (0., 0.25, 0.5, 0.75, 1.), (0., 1.), .UNSPECIFIED.)
   GEOMETRIC_REPRESENTATION_ITEM ()
   RATIONAL_B_SPLINE_SURFACE (((1., 1.), (0.707106781186548, 0.707106781186548), (1., 1.), (0.707106781186548, 0.707106781186548), (1., 1.), (0.707106781186548, 0.707106781186548), (1., 1.), (0.707106781186548, 0.707106781186548), (1., 1.)))
   REPRESENTATION_ITEM ('')
   SURFACE ()
);
#32 = CARTESIAN_POINT('', (-3., 2.38806125833734E-15, -36.));
#33 = CARTESIAN_POINT('', (-2.75, 8.01277372694449E-16, -42.9));
#34 = CARTESIAN_POINT('', (-3., 3., -36.));
#35 = CARTESIAN_POINT('', (-2.75, 2.75, -42.9));
#36 = CARTESIAN_POINT('', (8.72096608915049E-16, 3., -36.));
#37 = CARTESIAN_POINT('', (8.5493304273672E-16, 2.75, -42.9));
#38 = CARTESIAN_POINT('', (3., 3., -36.));
#39 = CARTESIAN_POINT('', (2.75, 2.75, -42.9));
#40 = CARTESIAN_POINT('', (3., 1.97613567005743E-15, -36.));
#41 = CARTESIAN_POINT('', (2.75, 4.23678916771198E-16, -42.9));
#42 = CARTESIAN_POINT('', (3., -3., -36.));
#43 = CARTESIAN_POINT('', (2.75, -2.75, -42.9));
#44 = CARTESIAN_POINT('', (8.27565060379345E-16, -3., -36.));
#45 = CARTESIAN_POINT('', (8.1411245657899E-16, -2.75, -42.9));
#46 = CARTESIAN_POINT('', (-3., -3., -36.));
#47 = CARTESIAN_POINT('', (-2.75, -2.75, -42.9));
#48 = CARTESIAN_POINT('', (-3., 2.38806125833734E-15, -36.));
#49 = CARTESIAN_POINT('', (-2.75, 8.01277372694449E-16, -42.9));
#50 = ADVANCED_FACE('', (#51), #78, .T.);
#51 = FACE_OUTER_BOUND('', #52, .T.);
#52 = EDGE_LOOP('', (#53, #63, #70, #71));
#53 = ORIENTED_EDGE('', *, *, #54, .T.);
#54 = EDGE_CURVE('', #55, #57, #59, .T.);
#55 = VERTEX_POINT('', #56);
#56 = CARTESIAN_POINT('', (-3., 2.02066721859313E-16, -0.299999999999997));
#57 = VERTEX_POINT('', #58);
#58 = CARTESIAN_POINT('', (-2.7, 1.65327317884893E-16, 0.));
#59 = LINE('', #60, #61);
#60 = CARTESIAN_POINT('', (-3., 2.02066721859313E-16, -0.299999999999997));
#61 = VECTOR('', #62, 0.424264068711926);
#62 = DIRECTION('', (0.3, -3.673940397442E-17, 0.299999999999997));
#63 = ORIENTED_EDGE('', *, *, #64, .T.);
#64 = EDGE_CURVE('', #57, #57, #65, .T.);
#65 = CIRCLE('', #66, 2.7);
#66 = AXIS2_PLACEMENT_3D('', #67, #68, #69);
#67 = CARTESIAN_POINT('', (1.80411241501588E-16, 3.33066907387547E-16, 2.46519032881566E-32));
#68 = DIRECTION('', (5.32622804422992E-33, 6.12323399573677E-17, -1.));
#69 = DIRECTION('', (-1., -6.21257738898718E-17, -9.13033455116911E-33));
#70 = ORIENTED_EDGE('', *, *, #54, .F.);
#71 = ORIENTED_EDGE('', *, *, #72, .F.);
#72 = EDGE_CURVE('', #55, #55, #73, .T.);
#73 = CIRCLE('', #74, 3.);
#74 = AXIS2_PLACEMENT_3D('', #75, #76, #77);
#75 = CARTESIAN_POINT('', (2.91433543964104E-16, 0., -0.299999999999997));
#76 = DIRECTION('', (4.24192595338452E-33, 6.2978098239322E-17, -1.));
#77 = DIRECTION('', (-1., 6.73555739531044E-17, 0.));
#78 = (
   BOUNDED_SURFACE ()
   B_SPLINE_SURFACE (1, 2, ((#79, #80, #81, #82, #83, #84, #85, #86, #87), (#88, #89, #90, #91, #92, #93, #94, #95, #96)), .UNSPECIFIED., .F., .T., .U.)
   B_SPLINE_SURFACE_WITH_KNOTS ((2, 2), (3, 2, 2, 2, 3), (0., 1.), (0., 0.25, 0.5, 0.75, 1.), .UNSPECIFIED.)
   GEOMETRIC_REPRESENTATION_ITEM ()
   RATIONAL_B_SPLINE_SURFACE (((1., 0.707106781186548, 1., 0.707106781186548, 1., 0.707106781186548, 1., 0.707106781186548, 1.), (1., 0.707106781186548, 1., 0.707106781186548, 1., 0.707106781186548, 1., 0.707106781186548, 1.)))
   REPRESENTATION_ITEM ('')
   SURFACE ()
);
#79 = CARTESIAN_POINT('', (-3., 1.49129302665284E-15, -0.299999999999997));
#80 = CARTESIAN_POINT('', (-3., 3., -0.299999999999985));
#81 = CARTESIAN_POINT('', (2.34149119846292E-15, 3., -0.299999999999985));
#82 = CARTESIAN_POINT('', (3., 3., -0.299999999999985));
#83 = CARTESIAN_POINT('', (3., -1.34594359183367E-15, -0.299999999999997));
#84 = CARTESIAN_POINT('', (3., -3., -0.300000000000009));
#85 = CARTESIAN_POINT('', (-1.28351380279387E-16, -3., -0.300000000000009));
#86 = CARTESIAN_POINT('', (-3., -3., -0.300000000000009));
#87 = CARTESIAN_POINT('', (-3., 1.49129302665284E-15, -0.299999999999997));
#88 = CARTESIAN_POINT('', (-2.7, 1.65327317884893E-16, -2.18952885050753E-47));
#89 = CARTESIAN_POINT('', (-2.7, 2.7, 1.04916075827078E-14));
#90 = CARTESIAN_POINT('', (2.19962936753859E-15, 2.7, 1.04916075827078E-14));
#91 = CARTESIAN_POINT('', (2.7, 2.7, 1.04916075827078E-14));
#92 = CARTESIAN_POINT('', (2.7, -2.38818563875297E-15, 1.12461399303431E-30));
#93 = CARTESIAN_POINT('', (2.7, -2.7, -1.04916075827078E-14));
#94 = CARTESIAN_POINT('', (-2.32289533294833E-17, -2.7, -1.04916075827078E-14));
#95 = CARTESIAN_POINT('', (-2.7, -2.7, -1.04916075827078E-14));
#96 = CARTESIAN_POINT('', (-2.7, 1.65327317884893E-16, -2.18952885050753E-47));
#97 = ADVANCED_FACE('', (#98), #101, .T.);
#98 = FACE_OUTER_BOUND('', #99, .T.);
#99 = EDGE_LOOP('', (#100));
#100 = ORIENTED_EDGE('', *, *, #64, .F.);
#101 = B_SPLINE_SURFACE_WITH_KNOTS('', 1, 1, ((#102, #103), (#104, #105)), .UNSPECIFIED., .F., .F., .U., (2, 2), (2, 2), (1.49921428024809, 6.90121428024809), (1.49921428024809, 6.90121428024809), .UNSPECIFIED.);
#102 = CARTESIAN_POINT('', (2.701, -2.701, 6.94267044713819E-15));
#103 = CARTESIAN_POINT('', (-2.701, -2.701, -7.27344754758799E-15));
#104 = CARTESIAN_POINT('', (2.701, 2.701, 7.27344754758789E-15));
#105 = CARTESIAN_POINT('', (-2.701, 2.701, -6.94267044713829E-15));
#106 = ADVANCED_FACE('', (#107), #118, .T.);
#107 = FACE_OUTER_BOUND('', #108, .T.);
#108 = EDGE_LOOP('', (#109, #115, #116, #117));
#109 = ORIENTED_EDGE('', *, *, #110, .T.);
#110 = EDGE_CURVE('', #8, #55, #111, .T.);
#111 = LINE('', #112, #113);
#112 = CARTESIAN_POINT('', (-3., 2.38806125833734E-15, -36.));
#113 = VECTOR('', #114, 35.7);
#114 = DIRECTION('', (0., -2.18599453647803E-15, 35.7));
#115 = ORIENTED_EDGE('', *, *, #72, .T.);
#116 = ORIENTED_EDGE('', *, *, #110, .F.);
#117 = ORIENTED_EDGE('', *, *, #17, .F.);
#118 = (
   BOUNDED_SURFACE ()
   B_SPLINE_SURFACE (1, 2, ((#119, #120, #121, #122, #123, #124, #125, #126, #127), (#128, #129, #130, #131, #132, #133, #134, #135, #136)), .UNSPECIFIED., .F., .T., .U.)
   B_SPLINE_SURFACE_WITH_KNOTS ((2, 2), (3, 2, 2, 2, 3), (0., 1.), (0., 4.7123889803847, 9.4247779607694, 14.1371669411541, 18.8495559215388), .UNSPECIFIED.)
   GEOMETRIC_REPRESENTATION_ITEM ()
   RATIONAL_B_SPLINE_SURFACE (((1., 0.707106781186548, 1., 0.707106781186548, 1., 0.707106781186548, 1., 0.707106781186548, 1.), (1., 0.707106781186548, 1., 0.707106781186548, 1., 0.707106781186548, 1., 0.707106781186548, 1.)))
   REPRESENTATION_ITEM ('')
   SURFACE ()
);
#119 = CARTESIAN_POINT('', (-3., 2.14495701495334E-15, -36.));
#120 = CARTESIAN_POINT('', (-3., 3., -36.));
#121 = CARTESIAN_POINT('', (2.59131156155601E-15, 3., -36.));
#122 = CARTESIAN_POINT('', (3., 3., -36.));
#123 = CARTESIAN_POINT('', (3., -1.66654067274662E-15, -36.));
#124 = CARTESIAN_POINT('', (3., -3., -36.));
#125 = CARTESIAN_POINT('', (-8.52792086399734E-16, -3., -36.));
#126 = CARTESIAN_POINT('', (-3., -3., -36.));
#127 = CARTESIAN_POINT('', (-3., 2.14495701495334E-15, -36.));
#128 = CARTESIAN_POINT('', (-3., 2.02066721859312E-16, -0.299999999999997));
#129 = CARTESIAN_POINT('', (-3., 3., -0.299999999999997));
#130 = CARTESIAN_POINT('', (3.25189426120798E-15, 3., -0.299999999999997));
#131 = CARTESIAN_POINT('', (3., 3., -0.299999999999997));
#132 = CARTESIAN_POINT('', (3., -3.60943096584064E-15, -0.299999999999997));
#133 = CARTESIAN_POINT('', (3., -3., -0.299999999999997));
#134 = CARTESIAN_POINT('', (-1.92209386747767E-16, -3., -0.299999999999997));
#135 = CARTESIAN_POINT('', (-3., -3., -0.299999999999997));
#136 = CARTESIAN_POINT('', (-3., 2.02066721859312E-16, -0.299999999999997));
#137 = ADVANCED_FACE('', (#138), #141, .T.);
#138 = FACE_OUTER_BOUND('', #139, .T.);
#139 = EDGE_LOOP('', (#140));
#140 = ORIENTED_EDGE('', *, *, #25, .T.);
#141 = B_SPLINE_SURFACE_WITH_KNOTS('', 1, 1, ((#142, #143), (#144, #145)), .UNSPECIFIED., .F., .F., .U., (2, 2), (2, 2), (56.3929645454335, 61.8949645454335), (53.3613675149753, 58.8633675149753), .UNSPECIFIED.);
#142 = CARTESIAN_POINT('', (-2.751, 2.751, -42.9));
#143 = CARTESIAN_POINT('', (-2.751, -2.751, -42.9));
#144 = CARTESIAN_POINT('', (2.751, 2.751, -42.9));
#145 = CARTESIAN_POINT('', (2.751, -2.751, -42.9));
#146 = DRAUGHTING_MODEL('', (#154, #268, #315, #320, #325, #330, #335, #340), #354);
#147 = PRESENTATION_STYLE_ASSIGNMENT((#148));
#148 = SURFACE_STYLE_USAGE(.POSITIVE., #149);
#149 = SURFACE_SIDE_STYLE('', (#150));
#150 = SURFACE_STYLE_FILL_AREA(#151);
#151 = FILL_AREA_STYLE('', (#152));
#152 = FILL_AREA_STYLE_COLOUR('', #153);
#153 = COLOUR_RGB('', 0.50196078431373, 0.50196078431373, 0.50196078431373);
#154 = STYLED_ITEM('', (#147), #1);
#155 = MANIFOLD_SOLID_BREP('CUT', #156);
#156 = CLOSED_SHELL('', (#157, #174, #213, #252));
#157 = ADVANCED_FACE('', (#158), #169, .T.);
#158 = FACE_OUTER_BOUND('', #159, .T.);
#159 = EDGE_LOOP('', (#160));
#160 = ORIENTED_EDGE('', *, *, #161, .F.);
#161 = EDGE_CURVE('', #162, #162, #164, .T.);
#162 = VERTEX_POINT('', #163);
#163 = CARTESIAN_POINT('', (-2.75, 2.79525631905383E-15, -42.9));
#164 = CIRCLE('', #165, 2.75);
#165 = AXIS2_PLACEMENT_3D('', #166, #167, #168);
#166 = CARTESIAN_POINT('', (-2.28983498828939E-16, 1.83186799063151E-15, -42.9));
#167 = DIRECTION('', (0., 0., -1.));
#168 = DIRECTION('', (-1., 3.50323028517208E-16, 0.));
#169 = B_SPLINE_SURFACE_WITH_KNOTS('', 1, 1, ((#170, #171), (#172, #173)), .UNSPECIFIED., .F., .F., .U., (2, 2), (2, 2), (53.3613675149753, 58.8633675149753), (56.3929645454335, 61.8949645454335), .UNSPECIFIED.);
#170 = CARTESIAN_POINT('', (-2.751, 2.751, -42.9));
#171 = CARTESIAN_POINT('', (2.751, 2.751, -42.9));
#172 = CARTESIAN_POINT('', (-2.751, -2.751, -42.9));
#173 = CARTESIAN_POINT('', (2.751, -2.751, -42.9));
#174 = ADVANCED_FACE('', (#175), #194, .T.);
#175 = FACE_OUTER_BOUND('', #176, .T.);
#176 = EDGE_LOOP('', (#177, #185, #186, #187));
#177 = ORIENTED_EDGE('', *, *, #178, .F.);
#178 = EDGE_CURVE('', #162, #179, #181, .T.);
#179 = VERTEX_POINT('', #180);
#180 = CARTESIAN_POINT('', (-2.75, 3.63720099346764E-15, -56.65));
#181 = LINE('', #182, #183);
#182 = CARTESIAN_POINT('', (-2.75, 2.79525631905383E-15, -42.9));
#183 = VECTOR('', #184, 13.75);
#184 = DIRECTION('', (0., 8.4194467441381E-16, -13.75));
#185 = ORIENTED_EDGE('', *, *, #161, .T.);
#186 = ORIENTED_EDGE('', *, *, #178, .T.);
#187 = ORIENTED_EDGE('', *, *, #188, .F.);
#188 = EDGE_CURVE('', #179, #179, #189, .T.);
#189 = CIRCLE('', #190, 2.75);
#190 = AXIS2_PLACEMENT_3D('', #191, #192, #193);
#191 = CARTESIAN_POINT('', (-2.42861286636753E-16, 2.77555756156289E-15, -56.65));
#192 = DIRECTION('', (0., 0., -1.));
#193 = DIRECTION('', (-1., 3.13324884329E-16, 0.));
#194 = (
   BOUNDED_SURFACE ()
   B_SPLINE_SURFACE (2, 1, ((#195, #196), (#197, #198), (#199, #200), (#201, #202), (#203, #204), (#205, #206), (#207, #208), (#209, #210), (#211, #212)), .UNSPECIFIED., .T., .F., .U.)
   B_SPLINE_SURFACE_WITH_KNOTS ((3, 2, 2, 2, 3), (2, 2), (0., 4.31968989868598, 8.63937979737195, 12.9590696960579, 17.2787595947439), (0., 1.), .UNSPECIFIED.)
   GEOMETRIC_REPRESENTATION_ITEM ()
   RATIONAL_B_SPLINE_SURFACE (((1., 1.), (0.707106781186548, 0.707106781186548), (1., 1.), (0.707106781186548, 0.707106781186548), (1., 1.), (0.707106781186548, 0.707106781186548), (1., 1.), (0.707106781186548, 0.707106781186548), (1., 1.)))
   REPRESENTATION_ITEM ('')
   SURFACE ()
);
#195 = CARTESIAN_POINT('', (-2.75, 2.79525631905383E-15, -42.9));
#196 = CARTESIAN_POINT('', (-2.75, 3.57241243629144E-15, -56.65));
#197 = CARTESIAN_POINT('', (-2.75, 2.75, -42.9));
#198 = CARTESIAN_POINT('', (-2.75, 2.75, -56.65));
#199 = CARTESIAN_POINT('', (1.64154444981624E-15, 2.75, -42.9));
#200 = CARTESIAN_POINT('', (1.64154444981624E-15, 2.75, -56.65));
#201 = CARTESIAN_POINT('', (2.75, 2.75, -42.9));
#202 = CARTESIAN_POINT('', (2.75, 2.75, -56.65));
#203 = CARTESIAN_POINT('', (2.75, -1.23723312220064E-15, -42.9));
#204 = CARTESIAN_POINT('', (2.75, -4.60077004963026E-16, -56.65));
#205 = CARTESIAN_POINT('', (2.75, -2.75, -42.9));
#206 = CARTESIAN_POINT('', (2.75, -2.75, -56.65));
#207 = CARTESIAN_POINT('', (-2.0541671216727E-15, -2.75, -42.9));
#208 = CARTESIAN_POINT('', (-2.0541671216727E-15, -2.75, -56.65));
#209 = CARTESIAN_POINT('', (-2.75, -2.75, -42.9));
#210 = CARTESIAN_POINT('', (-2.75, -2.75, -56.65));
#211 = CARTESIAN_POINT('', (-2.75, 2.79525631905383E-15, -42.9));
#212 = CARTESIAN_POINT('', (-2.75, 3.57241243629144E-15, -56.65));
#213 = ADVANCED_FACE('', (#214), #233, .T.);
#214 = FACE_OUTER_BOUND('', #215, .T.);
#215 = EDGE_LOOP('', (#216, #224, #225, #226));
#216 = ORIENTED_EDGE('', *, *, #217, .F.);
#217 = EDGE_CURVE('', #179, #218, #220, .T.);
#218 = VERTEX_POINT('', #219);
#219 = CARTESIAN_POINT('', (-2.4, 3.63720099346764E-15, -57.));
#220 = LINE('', #221, #222);
#221 = CARTESIAN_POINT('', (-2.75, 3.63720099346764E-15, -56.65));
#222 = VECTOR('', #223, 0.494974746830584);
#223 = DIRECTION('', (0.35, 0., -0.350000000000001));
#224 = ORIENTED_EDGE('', *, *, #188, .T.);
#225 = ORIENTED_EDGE('', *, *, #217, .T.);
#226 = ORIENTED_EDGE('', *, *, #227, .F.);
#227 = EDGE_CURVE('', #218, #218, #228, .T.);
#228 = CIRCLE('', #229, 2.4);
#229 = AXIS2_PLACEMENT_3D('', #230, #231, #232);
#230 = CARTESIAN_POINT('', (-1.59594559789866E-16, 3.05311331771918E-15, -57.));
#231 = DIRECTION('', (0., 0., -1.));
#232 = DIRECTION('', (-1., 2.43369864895192E-16, 0.));
#233 = (
   BOUNDED_SURFACE ()
   B_SPLINE_SURFACE (2, 1, ((#234, #235), (#236, #237), (#238, #239), (#240, #241), (#242, #243), (#244, #245), (#246, #247), (#248, #249), (#250, #251)), .UNSPECIFIED., .T., .F., .U.)
   B_SPLINE_SURFACE_WITH_KNOTS ((3, 2, 2, 2, 3), (2, 2), (0., 0.25, 0.5, 0.75, 1.), (0., 1.), .UNSPECIFIED.)
   GEOMETRIC_REPRESENTATION_ITEM ()
   RATIONAL_B_SPLINE_SURFACE (((1., 1.), (0.707106781186548, 0.707106781186548), (1., 1.), (0.707106781186548, 0.707106781186548), (1., 1.), (0.707106781186548, 0.707106781186548), (1., 1.), (0.707106781186548, 0.707106781186548), (1., 1.)))
   REPRESENTATION_ITEM ('')
   SURFACE ()
);
#234 = CARTESIAN_POINT('', (-2.75, 3.63720099346764E-15, -56.65));
#235 = CARTESIAN_POINT('', (-2.4, 4.07255585967757E-15, -57.));
#236 = CARTESIAN_POINT('', (-2.75, 2.75, -56.65));
#237 = CARTESIAN_POINT('', (-2.4, 2.4, -57.));
#238 = CARTESIAN_POINT('', (2.37246682176754E-15, 2.75, -56.65));
#239 = CARTESIAN_POINT('', (2.10760804095619E-15, 2.4, -57.));
#240 = CARTESIAN_POINT('', (2.75, 2.75, -56.65));
#241 = CARTESIAN_POINT('', (2.4, 2.4, -57.));
#242 = CARTESIAN_POINT('', (2.75, -5.24865562139226E-16, -56.65));
#243 = CARTESIAN_POINT('', (2.4, 4.40206865693392E-16, -57.));
#244 = CARTESIAN_POINT('', (2.75, -2.75, -56.65));
#245 = CARTESIAN_POINT('', (2.4, -2.4, -57.));
#246 = CARTESIAN_POINT('', (-1.45282186407381E-15, -2.75, -56.65));
#247 = CARTESIAN_POINT('', (-1.23082572123262E-15, -2.4, -57.));
#248 = CARTESIAN_POINT('', (-2.75, -2.75, -56.65));
#249 = CARTESIAN_POINT('', (-2.4, -2.4, -57.));
#250 = CARTESIAN_POINT('', (-2.75, 3.63720099346764E-15, -56.65));
#251 = CARTESIAN_POINT('', (-2.4, 4.07255585967757E-15, -57.));
#252 = ADVANCED_FACE('', (#253), #256, .T.);
#253 = FACE_OUTER_BOUND('', #254, .T.);
#254 = EDGE_LOOP('', (#255));
#255 = ORIENTED_EDGE('', *, *, #227, .T.);
#256 = B_SPLINE_SURFACE_WITH_KNOTS('', 1, 1, ((#257, #258), (#259, #260)), .UNSPECIFIED., .F., .F., .U., (2, 2), (2, 2), (1.33252380466497, 6.13452380466497), (1.33252380466497, 6.13452380466497), .UNSPECIFIED.);
#257 = CARTESIAN_POINT('', (2.401, -2.401, -57.));
#258 = CARTESIAN_POINT('', (2.401, 2.401, -57.));
#259 = CARTESIAN_POINT('', (-2.401, -2.401, -57.));
#260 = CARTESIAN_POINT('', (-2.401, 2.401, -57.));
#261 = PRESENTATION_STYLE_ASSIGNMENT((#262));
#262 = SURFACE_STYLE_USAGE(.POSITIVE., #263);
#263 = SURFACE_SIDE_STYLE('', (#264));
#264 = SURFACE_STYLE_FILL_AREA(#265);
#265 = FILL_AREA_STYLE('', (#266));
#266 = FILL_AREA_STYLE_COLOUR('', #267);
#267 = COLOUR_RGB('', 0.8, 0.8, 0.8);
#268 = STYLED_ITEM('', (#261), #155);
#269 = TRIMMED_CURVE('cutting part line', #270, (#274), (#275), .T., .CARTESIAN.);
#270 = LINE('', #271, #272);
#271 = CARTESIAN_POINT('', (-4.82547710071452E-31, -2.62686738417107E-15, -42.9));
#272 = VECTOR('', #273, 2.75);
#273 = DIRECTION('', (2.75, -5.05166804648282E-16, 0.));
#274 = CARTESIAN_POINT('', (-4.82547710071452E-31, -2.62686738417107E-15, -42.9));
#275 = CARTESIAN_POINT('', (2.75, -3.13203418881935E-15, -42.9));
#276 = TRIMMED_CURVE('cutting part line', #277, (#281), (#282), .T., .CARTESIAN.);
#277 = LINE('', #278, #279);
#278 = CARTESIAN_POINT('', (2.75, -3.13203418881935E-15, -42.9));
#279 = VECTOR('', #280, 13.75);
#280 = DIRECTION('', (0., -8.4194467441381E-16, -13.75));
#281 = CARTESIAN_POINT('', (2.75, -3.13203418881935E-15, -42.9));
#282 = CARTESIAN_POINT('', (2.75, -3.97397886323316E-15, -56.65));
#283 = TRIMMED_CURVE('cutting part line', #284, (#288), (#289), .T., .CARTESIAN.);
#284 = LINE('', #285, #286);
#285 = CARTESIAN_POINT('', (2.75, -3.97397886323316E-15, -56.65));
#286 = VECTOR('', #287, 0.494974746830584);
#287 = DIRECTION('', (-0.35, 4.28626379701579E-17, -0.350000000000001));
#288 = CARTESIAN_POINT('', (2.75, -3.97397886323316E-15, -56.65));
#289 = CARTESIAN_POINT('', (2.4, -3.931116225263E-15, -57.));
#290 = TRIMMED_CURVE('cutting part line', #291, (#295), (#296), .T., .CARTESIAN.);
#291 = LINE('', #292, #293);
#292 = CARTESIAN_POINT('', (2.4, -3.931116225263E-15, -57.));
#293 = VECTOR('', #294, 2.4);
#294 = DIRECTION('', (-2.4, 4.40872847693044E-16, 0.));
#295 = CARTESIAN_POINT('', (2.4, -3.931116225263E-15, -57.));
#296 = CARTESIAN_POINT('', (-4.2743153805863E-31, -3.49024337756996E-15, -57.));
#297 = TRIMMED_CURVE('cutting part line', #298, (#302), (#303), .T., .CARTESIAN.);
#298 = LINE('', #299, #300);
#299 = CARTESIAN_POINT('', (-6.41147307087945E-31, -3.49024337756996E-15, -57.));
#300 = VECTOR('', #301, 14.1);
#301 = DIRECTION('', (1.58599597016493E-31, 8.6337599339889E-16, 14.1));
#302 = CARTESIAN_POINT('', (-6.41147307087945E-31, -3.49024337756996E-15, -57.));
#303 = CARTESIAN_POINT('', (-4.82547710071452E-31, -2.62686738417107E-15, -42.9));
#304 = COMPOSITE_CURVE('cutting part line', (#305, #306, #307, #308, #309), .U.);
#305 = COMPOSITE_CURVE_SEGMENT(.CONTINUOUS., .T., #269);
#306 = COMPOSITE_CURVE_SEGMENT(.CONTINUOUS., .T., #276);
#307 = COMPOSITE_CURVE_SEGMENT(.CONTINUOUS., .T., #283);
#308 = COMPOSITE_CURVE_SEGMENT(.CONTINUOUS., .T., #290);
#309 = COMPOSITE_CURVE_SEGMENT(.CONTINUOUS., .T., #297);
#310 = GEOMETRIC_SET('', (#304, #353));
#311 = PRESENTATION_STYLE_ASSIGNMENT((#312));
#312 = CURVE_STYLE('', #314, POSITIVE_LENGTH_MEASURE(1.E-6), #313);
#313 = COLOUR_RGB('', 0., 0., 1.);
#314 = DRAUGHTING_PRE_DEFINED_CURVE_FONT('continuous');
#315 = STYLED_ITEM('', (#311), #304);
#316 = PRESENTATION_STYLE_ASSIGNMENT((#317));
#317 = CURVE_STYLE('', #319, POSITIVE_LENGTH_MEASURE(1.E-6), #318);
#318 = COLOUR_RGB('', 0., 0., 1.);
#319 = DRAUGHTING_PRE_DEFINED_CURVE_FONT('continuous');
#320 = OVER_RIDING_STYLED_ITEM('', (#316), #269, #315);
#321 = PRESENTATION_STYLE_ASSIGNMENT((#322));
#322 = CURVE_STYLE('', #324, POSITIVE_LENGTH_MEASURE(1.E-6), #323);
#323 = COLOUR_RGB('', 0., 0., 1.);
#324 = DRAUGHTING_PRE_DEFINED_CURVE_FONT('continuous');
#325 = OVER_RIDING_STYLED_ITEM('', (#321), #276, #315);
#326 = PRESENTATION_STYLE_ASSIGNMENT((#327));
#327 = CURVE_STYLE('', #329, POSITIVE_LENGTH_MEASURE(1.E-6), #328);
#328 = COLOUR_RGB('', 0., 0., 1.);
#329 = DRAUGHTING_PRE_DEFINED_CURVE_FONT('continuous');
#330 = OVER_RIDING_STYLED_ITEM('', (#326), #283, #315);
#331 = PRESENTATION_STYLE_ASSIGNMENT((#332));
#332 = CURVE_STYLE('', #334, POSITIVE_LENGTH_MEASURE(1.E-6), #333);
#333 = COLOUR_RGB('', 0., 0., 1.);
#334 = DRAUGHTING_PRE_DEFINED_CURVE_FONT('continuous');
#335 = OVER_RIDING_STYLED_ITEM('', (#331), #290, #315);
#336 = PRESENTATION_STYLE_ASSIGNMENT((#337));
#337 = CURVE_STYLE('', #339, POSITIVE_LENGTH_MEASURE(1.E-6), #338);
#338 = COLOUR_RGB('', 0., 0., 1.);
#339 = DRAUGHTING_PRE_DEFINED_CURVE_FONT('continuous');
#340 = OVER_RIDING_STYLED_ITEM('', (#336), #297, #315);
#341 = AXIS2_PLACEMENT_3D('CIP', #342, #343, #344);
#342 = CARTESIAN_POINT('', (2.13715769029315E-31, 3.49024337756996E-15, -57.));
#343 = DIRECTION('', (-3.74939945665465E-33, -6.12323399573677E-17, 1.));
#344 = DIRECTION('', (1., -6.12323399573677E-17, 0.));
#345 = AXIS2_PLACEMENT_3D('MCS', #346, #347, #348);
#346 = CARTESIAN_POINT('', (1.34978380439567E-31, 2.20436423846524E-15, -36.));
#347 = DIRECTION('', (-3.74939945665465E-33, -6.12323399573677E-17, 1.));
#348 = DIRECTION('', (1., -6.12323399573677E-17, 0.));
#349 = AXIS2_PLACEMENT_3D('PCS', #350, #351, #352);
#350 = CARTESIAN_POINT('', (0., 0., 0.));
#351 = DIRECTION('', (0., 0., 1.));
#352 = DIRECTION('', (1., 0., 0.));
#353 = CARTESIAN_POINT('CRP', (2.75, 0., -57.));
#354 = (
   GEOMETRIC_REPRESENTATION_CONTEXT (3)
   GLOBAL_UNCERTAINTY_ASSIGNED_CONTEXT ((#356))
   GLOBAL_UNIT_ASSIGNED_CONTEXT ((#355, #357, #358))
   REPRESENTATION_CONTEXT ('', '3D')
);
#355 = (
   LENGTH_UNIT ()
   NAMED_UNIT (*)
   SI_UNIT (.MILLI., .METRE.)
);
#356 = UNCERTAINTY_MEASURE_WITH_UNIT(LENGTH_MEASURE(1.E-6), #355, 'DISTANCE_ACCURACY_VALUE', '');
#357 = (
   NAMED_UNIT (*)
   SI_UNIT ($, .STERADIAN.)
   SOLID_ANGLE_UNIT ()
);
#358 = (
   NAMED_UNIT (*)
   PLANE_ANGLE_UNIT ()
   SI_UNIT ($, .RADIAN.)
);
#359 = SHAPE_REPRESENTATION('', (), #354);
#360 = PRODUCT_DEFINITION_SHAPE('', '', #361);
#361 = PRODUCT_DEFINITION('', '', #364, #368);
#362 = APPLICATION_CONTEXT('configuration controlled 3D designs of mechanical parts and assemblies');
#363 = APPLICATION_PROTOCOL_DEFINITION('International Standard', 'automotive_design', 2002, #362);
#364 = PRODUCT_DEFINITION_FORMATION_WITH_SPECIFIED_SOURCE('', '', #365, .NOT_KNOWN.);
#365 = PRODUCT('NONE', 'R217.33C055180AC14N 1630', '', (#366));
#366 = PRODUCT_CONTEXT('', #362, 'mechanical');
#367 = PRODUCT_RELATED_PRODUCT_CATEGORY('detail', '', (#365));
#368 = PRODUCT_DEFINITION_CONTEXT('part definition', #362, 'design');
#369 = SHAPE_DEFINITION_REPRESENTATION(#360, #359);
#370 = CONSTRUCTIVE_GEOMETRY_REPRESENTATION('supplemental geometry', (#341, #345, #349), #354);
#371 = CONSTRUCTIVE_GEOMETRY_REPRESENTATION_RELATIONSHIP('', '', #359, #370);
#372 = SHAPE_REPRESENTATION_RELATIONSHIP('', '', #359, #373);
#373 = SHAPE_REPRESENTATION('', (#310), #354);
#374 = SHAPE_REPRESENTATION_RELATIONSHIP('', '', #359, #375);
#375 = ADVANCED_BREP_SHAPE_REPRESENTATION('', (#1, #155), #354);
ENDSEC;
END-ISO-10303-21;
