ISO-10303-21;
HEADER;
FILE_DESCRIPTION(('STEP'), '1');
FILE_NAME('C:\\Users\\ds2002\\OneDrive - Sandvik\\HomeShare\\Documents\\Batchrepair\\CorSRT2\\NEW_MILSQ_SLD\\Output\\MOD000000000000000020084957000000.stp', '2019-01-02T12:08:11', (''), (''), 'Express v3.0.0.0', 'Express Tool', 'Unknown');
FILE_SCHEMA(('AUTOMOTIVE_DESIGN'));
ENDSEC;

DATA;
#1 = MANIFOLD_SOLID_BREP('NOCUT', #2);
#2 = CLOSED_SHELL('', (#3, #50, #59, #98));
#3 = ADVANCED_FACE('', (#4), #31, .T.);
#4 = FACE_OUTER_BOUND('', #5, .T.);
#5 = EDGE_LOOP('', (#6, #16, #23, #24));
#6 = ORIENTED_EDGE('', *, *, #7, .T.);
#7 = EDGE_CURVE('', #8, #10, #12, .T.);
#8 = VERTEX_POINT('', #9);
#9 = CARTESIAN_POINT('', (-9.525, 6.4156184190332E-16, -0.952500000000001));
#10 = VERTEX_POINT('', #11);
#11 = CARTESIAN_POINT('', (-8.5725, 5.24914234284534E-16, 0.));
#12 = LINE('', #13, #14);
#13 = CARTESIAN_POINT('', (-9.525, 6.4156184190332E-16, -0.952500000000001));
#14 = VECTOR('', #15, 1.34703841816037);
#15 = DIRECTION('', (0.952500000000001, -1.16647607618786E-16, 0.952500000000001));
#16 = ORIENTED_EDGE('', *, *, #17, .T.);
#17 = EDGE_CURVE('', #10, #10, #18, .T.);
#18 = CIRCLE('', #19, 8.5725);
#19 = AXIS2_PLACEMENT_3D('', #20, #21, #22);
#20 = CARTESIAN_POINT('', (4.16333634234434E-16, 4.44089209850063E-15, 2.83496887813801E-31));
#21 = DIRECTION('', (5.09914260327739E-33, 6.12323399573676E-17, -1.));
#22 = DIRECTION('', (-1., -7.01736343115104E-16, -4.80681009253414E-32));
#23 = ORIENTED_EDGE('', *, *, #7, .F.);
#24 = ORIENTED_EDGE('', *, *, #25, .F.);
#25 = EDGE_CURVE('', #8, #8, #26, .T.);
#26 = CIRCLE('', #27, 9.525);
#27 = AXIS2_PLACEMENT_3D('', #28, #29, #30);
#28 = CARTESIAN_POINT('', (-3.60822483003176E-16, -2.66453525910038E-15, -0.952500000000001));
#29 = DIRECTION('', (2.3311769545935E-17, -3.61693232088461E-17, -1.));
#30 = DIRECTION('', (-1., 3.47096808504325E-16, -2.3311769545935E-17));
#31 = (
   BOUNDED_SURFACE ()
   B_SPLINE_SURFACE (1, 2, ((#32, #33, #34, #35, #36, #37, #38, #39, #40), (#41, #42, #43, #44, #45, #46, #47, #48, #49)), .UNSPECIFIED., .F., .T., .U.)
   B_SPLINE_SURFACE_WITH_KNOTS ((2, 2), (3, 2, 2, 2, 3), (0., 1.), (0., 0.25, 0.5, 0.75, 1.), .UNSPECIFIED.)
   GEOMETRIC_REPRESENTATION_ITEM ()
   RATIONAL_B_SPLINE_SURFACE (((1., 0.707106781186548, 1., 0.707106781186548, 1., 0.707106781186548, 1., 0.707106781186548, 1.), (1., 0.707106781186548, 1., 0.707106781186548, 1., 0.707106781186548, 1., 0.707106781186548, 1.)))
   REPRESENTATION_ITEM ('')
   SURFACE ()
);
#32 = CARTESIAN_POINT('', (-9.52500000000001, 3.71653412981382E-15, -0.952500000000002));
#33 = CARTESIAN_POINT('', (-9.525, 9.52500000000001, -0.952499999999978));
#34 = CARTESIAN_POINT('', (3.82718548211062E-15, 9.525, -0.952499999999978));
#35 = CARTESIAN_POINT('', (9.52500000000001, 9.52499999999999, -0.952499999999978));
#36 = CARTESIAN_POINT('', (9.525, -1.0099574621077E-14, -0.952500000000002));
#37 = CARTESIAN_POINT('', (9.52499999999999, -9.52500000000001, -0.952500000000027));
#38 = CARTESIAN_POINT('', (-8.82244719259238E-15, -9.52500000000001, -0.952500000000027));
#39 = CARTESIAN_POINT('', (-9.52500000000001, -9.525, -0.952500000000027));
#40 = CARTESIAN_POINT('', (-9.52500000000001, 3.71653412981382E-15, -0.952500000000002));
#41 = CARTESIAN_POINT('', (-8.57250000000001, 5.24914234284538E-16, 2.18952885050753E-46));
#42 = CARTESIAN_POINT('', (-8.5725, 8.5725, 2.19824158875781E-14));
#43 = CARTESIAN_POINT('', (3.13638004456607E-15, 8.5725, 2.19824158875781E-14));
#44 = CARTESIAN_POINT('', (8.57250000000001, 8.57249999999999, 2.19824158875781E-14));
#45 = CARTESIAN_POINT('', (8.5725, -1.19095836415172E-14, 1.95251242678014E-30));
#46 = CARTESIAN_POINT('', (8.57249999999999, -8.57250000000001, -2.19824158875781E-14));
#47 = CARTESIAN_POINT('', (-8.24828936266662E-15, -8.57250000000001, -2.19824158875781E-14));
#48 = CARTESIAN_POINT('', (-8.57250000000001, -8.5725, -2.19824158875781E-14));
#49 = CARTESIAN_POINT('', (-8.57250000000001, 5.24914234284538E-16, 2.18952885050753E-46));
#50 = ADVANCED_FACE('', (#51), #54, .T.);
#51 = FACE_OUTER_BOUND('', #52, .T.);
#52 = EDGE_LOOP('', (#53));
#53 = ORIENTED_EDGE('', *, *, #17, .F.);
#54 = B_SPLINE_SURFACE_WITH_KNOTS('', 1, 1, ((#55, #56), (#57, #58)), .UNSPECIFIED., .F., .F., .U., (2, 2), (2, 2), (4.7631803397877, 21.9081803397877), (4.7631803397877, 21.9081803397877), .UNSPECIFIED.);
#55 = CARTESIAN_POINT('', (8.5725, -8.5725, 1.36859404809175E-14));
#56 = CARTESIAN_POINT('', (-8.5725, -8.5725, -5.24914234284522E-16));
#57 = CARTESIAN_POINT('', (8.5725, 8.5725, 5.24914234284537E-16));
#58 = CARTESIAN_POINT('', (-8.5725, 8.5725, -1.36859404809175E-14));
#59 = ADVANCED_FACE('', (#60), #79, .T.);
#60 = FACE_OUTER_BOUND('', #61, .T.);
#61 = EDGE_LOOP('', (#62, #71, #77, #78));
#62 = ORIENTED_EDGE('', *, *, #63, .F.);
#63 = EDGE_CURVE('', #64, #64, #66, .T.);
#64 = VERTEX_POINT('', #65);
#65 = CARTESIAN_POINT('', (-9.525, 4.86031698411606E-15, -69.85));
#66 = CIRCLE('', #67, 9.52500000000001);
#67 = AXIS2_PLACEMENT_3D('', #68, #69, #70);
#68 = CARTESIAN_POINT('', (-2.77555756156289E-16, 3.10862446895044E-15, -69.85));
#69 = DIRECTION('', (0., 0., -1.));
#70 = DIRECTION('', (-1., 1.8390472600164E-16, 0.));
#71 = ORIENTED_EDGE('', *, *, #72, .F.);
#72 = EDGE_CURVE('', #8, #64, #73, .T.);
#73 = LINE('', #74, #75);
#74 = CARTESIAN_POINT('', (-9.525, 6.4156184190332E-16, -0.952500000000001));
#75 = VECTOR('', #76, 68.8975);
#76 = DIRECTION('', (0., 4.21875514221274E-15, -68.8975));
#77 = ORIENTED_EDGE('', *, *, #25, .T.);
#78 = ORIENTED_EDGE('', *, *, #72, .T.);
#79 = (
   BOUNDED_SURFACE ()
   B_SPLINE_SURFACE (1, 2, ((#80, #81, #82, #83, #84, #85, #86, #87, #88), (#89, #90, #91, #92, #93, #94, #95, #96, #97)), .UNSPECIFIED., .F., .T., .U.)
   B_SPLINE_SURFACE_WITH_KNOTS ((2, 2), (3, 2, 2, 2, 3), (-0.360333678858779, 1.), (0., 0.25, 0.5, 0.75, 1.), .UNSPECIFIED.)
   GEOMETRIC_REPRESENTATION_ITEM ()
   RATIONAL_B_SPLINE_SURFACE (((1., 0.707106781186548, 1., 0.707106781186548, 1., 0.707106781186548, 1., 0.707106781186548, 1.), (1., 0.707106781186548, 1., 0.707106781186548, 1., 0.707106781186548, 1., 0.707106781186548, 1.)))
   REPRESENTATION_ITEM ('')
   SURFACE ()
);
#80 = CARTESIAN_POINT('', (-9.525, 5.74858775517904E-15, -69.85));
#81 = CARTESIAN_POINT('', (-9.525, 9.525, -69.85));
#82 = CARTESIAN_POINT('', (-3.8589131014097E-15, 9.525, -69.85));
#83 = CARTESIAN_POINT('', (9.52499999999999, 9.525, -69.85));
#84 = CARTESIAN_POINT('', (9.52499999999999, -1.47348721004074E-15, -69.85));
#85 = CARTESIAN_POINT('', (9.52499999999999, -9.525, -69.85));
#86 = CARTESIAN_POINT('', (-9.91451199044163E-15, -9.525, -69.85));
#87 = CARTESIAN_POINT('', (-9.52500000000001, -9.52499999999999, -69.85));
#88 = CARTESIAN_POINT('', (-9.525, 5.74858775517904E-15, -69.85));
#89 = CARTESIAN_POINT('', (-9.52499999999999, 6.41561841903317E-16, -0.952500000000001));
#90 = CARTESIAN_POINT('', (-9.52499999999999, 9.525, -0.9525));
#91 = CARTESIAN_POINT('', (6.58088407348218E-15, 9.52499999999999, -0.952500000000002));
#92 = CARTESIAN_POINT('', (9.525, 9.52499999999999, -0.952500000000003));
#93 = CARTESIAN_POINT('', (9.525, -6.58051312331647E-15, -0.952500000000004));
#94 = CARTESIAN_POINT('', (9.525, -9.525, -0.952500000000005));
#95 = CARTESIAN_POINT('', (5.25285184450257E-16, -9.525, -0.952500000000003));
#96 = CARTESIAN_POINT('', (-9.525, -9.525, -0.952500000000002));
#97 = CARTESIAN_POINT('', (-9.52499999999999, 6.41561841903317E-16, -0.952500000000001));
#98 = ADVANCED_FACE('', (#99), #102, .T.);
#99 = FACE_OUTER_BOUND('', #100, .T.);
#100 = EDGE_LOOP('', (#101));
#101 = ORIENTED_EDGE('', *, *, #63, .T.);
#102 = B_SPLINE_SURFACE_WITH_KNOTS('', 1, 1, ((#103, #104), (#105, #106)), .UNSPECIFIED., .F., .F., .U., (2, 2), (2, 2), (121.253561963463, 140.303561963463), (119.348561623463, 138.398561623463), .UNSPECIFIED.);
#103 = CARTESIAN_POINT('', (-9.52499999999998, 9.52500000000003, -69.85));
#104 = CARTESIAN_POINT('', (-9.52499999999998, -9.52499999999998, -69.85));
#105 = CARTESIAN_POINT('', (9.52500000000004, 9.52500000000001, -69.85));
#106 = CARTESIAN_POINT('', (9.52500000000003, -9.52500000000001, -69.85));
#107 = DRAUGHTING_MODEL('', (#115, #239, #287, #292, #297, #302, #307, #312), #326);
#108 = PRESENTATION_STYLE_ASSIGNMENT((#109));
#109 = SURFACE_STYLE_USAGE(.POSITIVE., #110);
#110 = SURFACE_SIDE_STYLE('', (#111));
#111 = SURFACE_STYLE_FILL_AREA(#112);
#112 = FILL_AREA_STYLE('', (#113));
#113 = FILL_AREA_STYLE_COLOUR('', #114);
#114 = COLOUR_RGB('', 0.50196078431373, 0.50196078431373, 0.50196078431373);
#115 = STYLED_ITEM('', (#108), #1);
#116 = MANIFOLD_SOLID_BREP('CUT', #117);
#117 = CLOSED_SHELL('', (#118, #135, #174, #223));
#118 = ADVANCED_FACE('', (#119), #130, .T.);
#119 = FACE_OUTER_BOUND('', #120, .T.);
#120 = EDGE_LOOP('', (#121));
#121 = ORIENTED_EDGE('', *, *, #122, .F.);
#122 = EDGE_CURVE('', #123, #123, #125, .T.);
#123 = VERTEX_POINT('', #124);
#124 = CARTESIAN_POINT('', (-9.525, 4.86031698411606E-15, -69.85));
#125 = CIRCLE('', #126, 9.52500000000001);
#126 = AXIS2_PLACEMENT_3D('', #127, #128, #129);
#127 = CARTESIAN_POINT('', (-2.77555756156289E-16, 3.10862446895044E-15, -69.85));
#128 = DIRECTION('', (0., 0., -1.));
#129 = DIRECTION('', (-1., 1.8390472600164E-16, 0.));
#130 = B_SPLINE_SURFACE_WITH_KNOTS('', 1, 1, ((#131, #132), (#133, #134)), .UNSPECIFIED., .F., .F., .U., (2, 2), (2, 2), (119.348561623463, 138.398561623463), (121.253561963463, 140.303561963463), .UNSPECIFIED.);
#131 = CARTESIAN_POINT('', (-9.52500000000001, 9.52500000000001, -69.85));
#132 = CARTESIAN_POINT('', (9.52500000000001, 9.52500000000001, -69.85));
#133 = CARTESIAN_POINT('', (-9.52500000000001, -9.52500000000001, -69.85));
#134 = CARTESIAN_POINT('', (9.52500000000001, -9.52500000000001, -69.85));
#135 = ADVANCED_FACE('', (#136), #155, .T.);
#136 = FACE_OUTER_BOUND('', #137, .T.);
#137 = EDGE_LOOP('', (#138, #139, #147, #154));
#138 = ORIENTED_EDGE('', *, *, #122, .T.);
#139 = ORIENTED_EDGE('', *, *, #140, .T.);
#140 = EDGE_CURVE('', #123, #141, #143, .T.);
#141 = VERTEX_POINT('', #142);
#142 = CARTESIAN_POINT('', (-9.525, 8.26250825682732E-15, -125.412));
#143 = LINE('', #144, #145);
#144 = CARTESIAN_POINT('', (-9.525, 4.86031698411606E-15, -69.85));
#145 = VECTOR('', #146, 55.562);
#146 = DIRECTION('', (0., 3.40219127271126E-15, -55.562));
#147 = ORIENTED_EDGE('', *, *, #148, .F.);
#148 = EDGE_CURVE('', #141, #141, #149, .T.);
#149 = CIRCLE('', #150, 9.52500000000001);
#150 = AXIS2_PLACEMENT_3D('', #151, #152, #153);
#151 = CARTESIAN_POINT('', (1.66533453693773E-16, 1.77635683940025E-15, -125.412));
#152 = DIRECTION('', (0., 0., -1.));
#153 = DIRECTION('', (-1., 6.80960778732501E-16, 0.));
#154 = ORIENTED_EDGE('', *, *, #140, .F.);
#155 = (
   BOUNDED_SURFACE ()
   B_SPLINE_SURFACE (1, 2, ((#156, #157, #158, #159, #160, #161, #162, #163, #164), (#165, #166, #167, #168, #169, #170, #171, #172, #173)), .UNSPECIFIED., .F., .T., .U.)
   B_SPLINE_SURFACE_WITH_KNOTS ((2, 2), (3, 2, 2, 2, 3), (-1.45736709610544, -0.360333678858779), (0., 0.25, 0.5, 0.75, 1.), .UNSPECIFIED.)
   GEOMETRIC_REPRESENTATION_ITEM ()
   RATIONAL_B_SPLINE_SURFACE (((1., 0.707106781186548, 1., 0.707106781186548, 1., 0.707106781186548, 1., 0.707106781186548, 1.), (1., 0.707106781186548, 1., 0.707106781186548, 1., 0.707106781186548, 1., 0.707106781186548, 1.)))
   REPRESENTATION_ITEM ('')
   SURFACE ()
);
#156 = CARTESIAN_POINT('', (-9.525, 1.50743688106675E-14, -125.412));
#157 = CARTESIAN_POINT('', (-9.525, 9.52500000000002, -125.412));
#158 = CARTESIAN_POINT('', (2.83378901400943E-15, 9.52500000000001, -125.412));
#159 = CARTESIAN_POINT('', (9.525, 9.52500000000001, -125.412));
#160 = CARTESIAN_POINT('', (9.525, 1.00729245974237E-14, -125.412));
#161 = CARTESIAN_POINT('', (9.525, -9.52499999999999, -125.412));
#162 = CARTESIAN_POINT('', (-1.00117912304648E-15, -9.52499999999999, -125.412));
#163 = CARTESIAN_POINT('', (-9.525, -9.52499999999999, -125.412));
#164 = CARTESIAN_POINT('', (-9.525, 1.50743688106675E-14, -125.412));
#165 = CARTESIAN_POINT('', (-9.525, 4.86031698411606E-15, -69.85));
#166 = CARTESIAN_POINT('', (-9.525, 9.52500000000001, -69.85));
#167 = CARTESIAN_POINT('', (2.83378901400943E-15, 9.525, -69.85));
#168 = CARTESIAN_POINT('', (9.525, 9.525, -69.85));
#169 = CARTESIAN_POINT('', (9.525, -1.41127229127705E-16, -69.85));
#170 = CARTESIAN_POINT('', (9.525, -9.525, -69.85));
#171 = CARTESIAN_POINT('', (-1.00117912304648E-15, -9.525, -69.85));
#172 = CARTESIAN_POINT('', (-9.525, -9.525, -69.85));
#173 = CARTESIAN_POINT('', (-9.525, 4.86031698411606E-15, -69.85));
#174 = ADVANCED_FACE('', (#175), #195, .T.);
#175 = FACE_OUTER_BOUND('', #176, .T.);
#176 = EDGE_LOOP('', (#177, #186, #187, #188));
#177 = ORIENTED_EDGE('', *, *, #178, .F.);
#178 = EDGE_CURVE('', #141, #179, #181, .T.);
#179 = VERTEX_POINT('', #180);
#180 = CARTESIAN_POINT('', (-7.937, 8.26250825682732E-15, -127.));
#181 = CIRCLE('', #182, 1.58800000000004);
#182 = AXIS2_PLACEMENT_3D('', #183, #184, #185);
#183 = CARTESIAN_POINT('', (-7.93699999999997, 8.16527130097502E-15, -125.412));
#184 = DIRECTION('', (-6.12323399573653E-17, -1., -6.12323399573665E-17));
#185 = DIRECTION('', (-1., 6.1232339957367E-17, -2.68467028624719E-14));
#186 = ORIENTED_EDGE('', *, *, #148, .T.);
#187 = ORIENTED_EDGE('', *, *, #178, .T.);
#188 = ORIENTED_EDGE('', *, *, #189, .F.);
#189 = EDGE_CURVE('', #179, #179, #190, .T.);
#190 = CIRCLE('', #191, 7.937);
#191 = AXIS2_PLACEMENT_3D('', #192, #193, #194);
#192 = CARTESIAN_POINT('', (5.82867087928207E-16, 5.10702591327572E-15, -127.));
#193 = DIRECTION('', (0., 0., -1.));
#194 = DIRECTION('', (-1., 3.97566126187678E-16, 0.));
#195 = (
   BOUNDED_SURFACE ()
   B_SPLINE_SURFACE (2, 2, ((#196, #197, #198), (#199, #200, #201), (#202, #203, #204), (#205, #206, #207), (#208, #209, #210), (#211, #212, #213), (#214, #215, #216), (#217, #218, #219), (#220, #221, #222)), .UNSPECIFIED., .T., .F., .U.)
   B_SPLINE_SURFACE_WITH_KNOTS ((3, 2, 2, 2, 3), (3, 3), (0., 0.25, 0.5, 0.75, 1.), (0., 1.), .UNSPECIFIED.)
   GEOMETRIC_REPRESENTATION_ITEM ()
   RATIONAL_B_SPLINE_SURFACE (((1., 0.707106781186547, 1.), (0.707106781186548, 0.5, 0.707106781186548), (1., 0.707106781186547, 1.), (0.707106781186548, 0.5, 0.707106781186548), (1., 0.707106781186547, 1.), (0.707106781186548, 0.5, 0.707106781186548), (1., 0.707106781186547, 1.), (0.707106781186548, 0.5, 0.707106781186548), (1., 0.707106781186547, 1.)))
   REPRESENTATION_ITEM ('')
   SURFACE ()
);
#196 = CARTESIAN_POINT('', (-9.525, 8.26250825682732E-15, -125.412));
#197 = CARTESIAN_POINT('', (-9.525, 8.35974521267962E-15, -127.));
#198 = CARTESIAN_POINT('', (-7.937, 8.26250825682732E-15, -127.));
#199 = CARTESIAN_POINT('', (-9.525, 9.52500000000001, -125.412));
#200 = CARTESIAN_POINT('', (-9.525, 9.52500000000001, -127.));
#201 = CARTESIAN_POINT('', (-7.937, 7.93700000000001, -127.));
#202 = CARTESIAN_POINT('', (7.8735592480428E-15, 9.52500000000001, -125.412));
#203 = CARTESIAN_POINT('', (7.9707962038951E-15, 9.52500000000001, -127.));
#204 = CARTESIAN_POINT('', (7.9707962038951E-15, 7.93700000000001, -127.));
#205 = CARTESIAN_POINT('', (9.52500000000001, 9.52500000000001, -125.412));
#206 = CARTESIAN_POINT('', (9.52500000000001, 9.52500000000001, -127.));
#207 = CARTESIAN_POINT('', (7.93700000000001, 7.93700000000001, -127.));
#208 = CARTESIAN_POINT('', (9.52500000000001, 1.78575201636179E-15, -125.412));
#209 = CARTESIAN_POINT('', (9.52500000000001, 1.68851506050949E-15, -127.));
#210 = CARTESIAN_POINT('', (7.93700000000001, 1.59127810465719E-15, -127.));
#211 = CARTESIAN_POINT('', (9.52500000000001, -9.525, -125.412));
#212 = CARTESIAN_POINT('', (9.52500000000001, -9.52500000000001, -127.));
#213 = CARTESIAN_POINT('', (7.93700000000001, -7.937, -127.));
#214 = CARTESIAN_POINT('', (2.56327908376512E-15, -9.525, -125.412));
#215 = CARTESIAN_POINT('', (2.46604212791282E-15, -9.525, -127.));
#216 = CARTESIAN_POINT('', (2.27156821620822E-15, -7.937, -127.));
#217 = CARTESIAN_POINT('', (-9.525, -9.525, -125.412));
#218 = CARTESIAN_POINT('', (-9.525, -9.525, -127.));
#219 = CARTESIAN_POINT('', (-7.937, -7.937, -127.));
#220 = CARTESIAN_POINT('', (-9.525, 8.26250825682732E-15, -125.412));
#221 = CARTESIAN_POINT('', (-9.525, 8.35974521267962E-15, -127.));
#222 = CARTESIAN_POINT('', (-7.937, 8.26250825682732E-15, -127.));
#223 = ADVANCED_FACE('', (#224), #227, .T.);
#224 = FACE_OUTER_BOUND('', #225, .T.);
#225 = EDGE_LOOP('', (#226));
#226 = ORIENTED_EDGE('', *, *, #189, .T.);
#227 = B_SPLINE_SURFACE_WITH_KNOTS('', 1, 1, ((#228, #229), (#230, #231)), .UNSPECIFIED., .F., .F., .U., (2, 2), (2, 2), (4.4100743490108, 20.2840743490108), (4.41007434901081, 20.2840743490108), .UNSPECIFIED.);
#228 = CARTESIAN_POINT('', (7.937, -7.93699999999999, -127.));
#229 = CARTESIAN_POINT('', (7.937, 7.93700000000001, -127.));
#230 = CARTESIAN_POINT('', (-7.937, -7.93699999999999, -127.));
#231 = CARTESIAN_POINT('', (-7.937, 7.93700000000001, -127.));
#232 = PRESENTATION_STYLE_ASSIGNMENT((#233));
#233 = SURFACE_STYLE_USAGE(.POSITIVE., #234);
#234 = SURFACE_SIDE_STYLE('', (#235));
#235 = SURFACE_STYLE_FILL_AREA(#236);
#236 = FILL_AREA_STYLE('', (#237));
#237 = FILL_AREA_STYLE_COLOUR('', #238);
#238 = COLOUR_RGB('', 0.8, 0.8, 0.8);
#239 = STYLED_ITEM('', (#232), #116);
#240 = TRIMMED_CURVE('cutting part line', #241, (#245), (#246), .T., .CARTESIAN.);
#241 = LINE('', #242, #243);
#242 = CARTESIAN_POINT('', (-7.85686656141981E-31, -4.27707894602213E-15, -69.85));
#243 = VECTOR('', #244, 9.525);
#244 = DIRECTION('', (9.525, -1.74971411428178E-15, 0.));
#245 = CARTESIAN_POINT('', (-7.85686656141981E-31, -4.27707894602213E-15, -69.85));
#246 = CARTESIAN_POINT('', (9.525, -6.02679306030391E-15, -69.85));
#247 = TRIMMED_CURVE('cutting part line', #248, (#252), (#253), .T., .CARTESIAN.);
#248 = LINE('', #249, #250);
#249 = CARTESIAN_POINT('', (9.525, -6.02679306030391E-15, -69.85));
#250 = VECTOR('', #251, 55.562);
#251 = DIRECTION('', (0., -3.40219127271126E-15, -55.562));
#252 = CARTESIAN_POINT('', (9.525, -6.02679306030391E-15, -69.85));
#253 = CARTESIAN_POINT('', (9.525, -9.42898433301517E-15, -125.412));
#254 = TRIMMED_CURVE('cutting part line', #255, (#260), (#261), .T., .CARTESIAN.);
#255 = CIRCLE('', #256, 1.58800000000001);
#256 = AXIS2_PLACEMENT_3D('', #257, #258, #259);
#257 = CARTESIAN_POINT('', (7.93699999999999, -9.13727346545827E-15, -125.412));
#258 = DIRECTION('', (1.83697019872104E-16, 1., -6.12323399573698E-17));
#259 = DIRECTION('', (1., -1.83697019872105E-16, -8.9489009541574E-15));
#260 = CARTESIAN_POINT('', (9.525, -9.42898433301517E-15, -125.412));
#261 = CARTESIAN_POINT('', (7.937, -9.23451042131058E-15, -127.));
#262 = TRIMMED_CURVE('cutting part line', #263, (#267), (#268), .T., .CARTESIAN.);
#263 = LINE('', #264, #265);
#264 = CARTESIAN_POINT('', (7.937, -9.23451042131058E-15, -127.));
#265 = VECTOR('', #266, 7.937);
#266 = DIRECTION('', (-7.937, 1.45800324672489E-15, 0.));
#267 = CARTESIAN_POINT('', (7.937, -9.23451042131058E-15, -127.));
#268 = CARTESIAN_POINT('', (-9.52347461990279E-31, -7.77650717458569E-15, -127.));
#269 = TRIMMED_CURVE('cutting part line', #270, (#274), (#275), .T., .CARTESIAN.);
#270 = LINE('', #271, #272);
#271 = CARTESIAN_POINT('', (-1.42852119298542E-30, -7.77650717458569E-15, -127.));
#272 = VECTOR('', #273, 57.15);
#273 = DIRECTION('', (6.42834536843439E-31, 3.49942822856356E-15, 57.15));
#274 = CARTESIAN_POINT('', (-1.42852119298542E-30, -7.77650717458569E-15, -127.));
#275 = CARTESIAN_POINT('', (-7.85686656141981E-31, -4.27707894602213E-15, -69.85));
#276 = COMPOSITE_CURVE('cutting part line', (#277, #278, #279, #280, #281), .U.);
#277 = COMPOSITE_CURVE_SEGMENT(.CONTINUOUS., .T., #240);
#278 = COMPOSITE_CURVE_SEGMENT(.CONTINUOUS., .T., #247);
#279 = COMPOSITE_CURVE_SEGMENT(.CONTINUOUS., .T., #254);
#280 = COMPOSITE_CURVE_SEGMENT(.CONTINUOUS., .T., #262);
#281 = COMPOSITE_CURVE_SEGMENT(.CONTINUOUS., .T., #269);
#282 = GEOMETRIC_SET('', (#276, #325));
#283 = PRESENTATION_STYLE_ASSIGNMENT((#284));
#284 = CURVE_STYLE('', #286, POSITIVE_LENGTH_MEASURE(1.E-6), #285);
#285 = COLOUR_RGB('', 0., 0., 1.);
#286 = DRAUGHTING_PRE_DEFINED_CURVE_FONT('continuous');
#287 = STYLED_ITEM('', (#283), #276);
#288 = PRESENTATION_STYLE_ASSIGNMENT((#289));
#289 = CURVE_STYLE('', #291, POSITIVE_LENGTH_MEASURE(1.E-6), #290);
#290 = COLOUR_RGB('', 0., 0., 1.);
#291 = DRAUGHTING_PRE_DEFINED_CURVE_FONT('continuous');
#292 = OVER_RIDING_STYLED_ITEM('', (#288), #240, #287);
#293 = PRESENTATION_STYLE_ASSIGNMENT((#294));
#294 = CURVE_STYLE('', #296, POSITIVE_LENGTH_MEASURE(1.E-6), #295);
#295 = COLOUR_RGB('', 0., 0., 1.);
#296 = DRAUGHTING_PRE_DEFINED_CURVE_FONT('continuous');
#297 = OVER_RIDING_STYLED_ITEM('', (#293), #247, #287);
#298 = PRESENTATION_STYLE_ASSIGNMENT((#299));
#299 = CURVE_STYLE('', #301, POSITIVE_LENGTH_MEASURE(1.E-6), #300);
#300 = COLOUR_RGB('', 0., 0., 1.);
#301 = DRAUGHTING_PRE_DEFINED_CURVE_FONT('continuous');
#302 = OVER_RIDING_STYLED_ITEM('', (#298), #254, #287);
#303 = PRESENTATION_STYLE_ASSIGNMENT((#304));
#304 = CURVE_STYLE('', #306, POSITIVE_LENGTH_MEASURE(1.E-6), #305);
#305 = COLOUR_RGB('', 0., 0., 1.);
#306 = DRAUGHTING_PRE_DEFINED_CURVE_FONT('continuous');
#307 = OVER_RIDING_STYLED_ITEM('', (#303), #262, #287);
#308 = PRESENTATION_STYLE_ASSIGNMENT((#309));
#309 = CURVE_STYLE('', #311, POSITIVE_LENGTH_MEASURE(1.E-6), #310);
#310 = COLOUR_RGB('', 0., 0., 1.);
#311 = DRAUGHTING_PRE_DEFINED_CURVE_FONT('continuous');
#312 = OVER_RIDING_STYLED_ITEM('', (#308), #269, #287);
#313 = AXIS2_PLACEMENT_3D('CIP', #314, #315, #316);
#314 = CARTESIAN_POINT('', (4.7617373099514E-31, 7.77650717458569E-15, -127.));
#315 = DIRECTION('', (-3.74939945665465E-33, -6.12323399573677E-17, 1.));
#316 = DIRECTION('', (1., -6.12323399573677E-17, 0.));
#317 = AXIS2_PLACEMENT_3D('MCS', #318, #319, #320);
#318 = CARTESIAN_POINT('', (1.9346901196338E-31, 3.15958874180017E-15, -51.6));
#319 = DIRECTION('', (-3.74939945665465E-33, -6.12323399573677E-17, 1.));
#320 = DIRECTION('', (1., -6.12323399573677E-17, 0.));
#321 = AXIS2_PLACEMENT_3D('PCS', #322, #323, #324);
#322 = CARTESIAN_POINT('', (0., 0., 0.));
#323 = DIRECTION('', (0., 0., 1.));
#324 = DIRECTION('', (1., 0., 0.));
#325 = CARTESIAN_POINT('CRP', (9.525, 0., -127.));
#326 = (
   GEOMETRIC_REPRESENTATION_CONTEXT (3)
   GLOBAL_UNCERTAINTY_ASSIGNED_CONTEXT ((#328))
   GLOBAL_UNIT_ASSIGNED_CONTEXT ((#327, #329, #330))
   REPRESENTATION_CONTEXT ('', '3D')
);
#327 = (
   LENGTH_UNIT ()
   NAMED_UNIT (*)
   SI_UNIT (.MILLI., .METRE.)
);
#328 = UNCERTAINTY_MEASURE_WITH_UNIT(LENGTH_MEASURE(1.E-6), #327, 'DISTANCE_ACCURACY_VALUE', '');
#329 = (
   NAMED_UNIT (*)
   SI_UNIT ($, .STERADIAN.)
   SOLID_ANGLE_UNIT ()
);
#330 = (
   NAMED_UNIT (*)
   PLANE_ANGLE_UNIT ()
   SI_UNIT ($, .RADIAN.)
);
#331 = SHAPE_REPRESENTATION('', (), #326);
#332 = PRODUCT_DEFINITION_SHAPE('', '', #333);
#333 = PRODUCT_DEFINITION('', '', #336, #340);
#334 = APPLICATION_CONTEXT('configuration controlled 3D designs of mechanical parts and assemblies');
#335 = APPLICATION_PROTOCOL_DEFINITION('International Standard', 'automotive_design', 2002, #334);
#336 = PRODUCT_DEFINITION_FORMATION_WITH_SPECIFIED_SOURCE('', '', #337, .NOT_KNOWN.);
#337 = PRODUCT('EmptyName', 'EmptyName', '', (#338));
#338 = PRODUCT_CONTEXT('', #334, 'mechanical');
#339 = PRODUCT_RELATED_PRODUCT_CATEGORY('detail', '', (#337));
#340 = PRODUCT_DEFINITION_CONTEXT('part definition', #334, 'design');
#341 = SHAPE_DEFINITION_REPRESENTATION(#332, #331);
#342 = CONSTRUCTIVE_GEOMETRY_REPRESENTATION('supplemental geometry', (#313, #317, #321), #326);
#343 = CONSTRUCTIVE_GEOMETRY_REPRESENTATION_RELATIONSHIP('', '', #331, #342);
#344 = SHAPE_REPRESENTATION_RELATIONSHIP('', '', #331, #345);
#345 = SHAPE_REPRESENTATION('', (#282), #326);
#346 = SHAPE_REPRESENTATION_RELATIONSHIP('', '', #331, #347);
#347 = ADVANCED_BREP_SHAPE_REPRESENTATION('', (#1, #116), #326);
ENDSEC;
END-ISO-10303-21;
