ISO-10303-21;
HEADER;
FILE_DESCRIPTION(('STEP'), '1');
FILE_NAME('C:\\Users\\ds2002\\OneDrive - Sandvik\\HomeShare\\Documents\\Batchrepair\\CorSRT2\\NEW_MILSQ_SLD\\Output\\MOD000000000000000020084956500000.stp', '2019-01-02T12:08:41', (''), (''), 'Express v3.0.0.0', 'Express Tool', 'Unknown');
FILE_SCHEMA(('AUTOMOTIVE_DESIGN'));
ENDSEC;

DATA;
#1 = MANIFOLD_SOLID_BREP('NOCUT', #2);
#2 = CLOSED_SHELL('', (#3, #50, #59, #98));
#3 = ADVANCED_FACE('', (#4), #31, .T.);
#4 = FACE_OUTER_BOUND('', #5, .T.);
#5 = EDGE_LOOP('', (#6, #16, #23, #24));
#6 = ORIENTED_EDGE('', *, *, #7, .T.);
#7 = EDGE_CURVE('', #8, #10, #12, .T.);
#8 = VERTEX_POINT('', #9);
#9 = CARTESIAN_POINT('', (-7.9375, 5.34634868252767E-16, -0.793750000000003));
#10 = VERTEX_POINT('', #11);
#11 = CARTESIAN_POINT('', (-7.14375, 4.37428528570445E-16, 0.));
#12 = LINE('', #13, #14);
#13 = CARTESIAN_POINT('', (-7.9375, 5.34634868252767E-16, -0.793750000000003));
#14 = VECTOR('', #15, 1.12253201513365);
#15 = DIRECTION('', (0.79375, -9.72063396823219E-17, 0.793750000000003));
#16 = ORIENTED_EDGE('', *, *, #17, .T.);
#17 = EDGE_CURVE('', #10, #10, #18, .T.);
#18 = CIRCLE('', #19, 7.14375);
#19 = AXIS2_PLACEMENT_3D('', #20, #21, #22);
#20 = CARTESIAN_POINT('', (4.16333634234434E-16, 2.44249065417534E-15, 1.4791141972894E-31));
#21 = DIRECTION('', (3.51870852399057E-33, 6.12323399573676E-17, -1.));
#22 = DIRECTION('', (-1., -5.25602973212484E-16, -3.57026084623406E-32));
#23 = ORIENTED_EDGE('', *, *, #7, .F.);
#24 = ORIENTED_EDGE('', *, *, #25, .F.);
#25 = EDGE_CURVE('', #8, #8, #26, .T.);
#26 = CIRCLE('', #27, 7.9375);
#27 = AXIS2_PLACEMENT_3D('', #28, #29, #30);
#28 = CARTESIAN_POINT('', (1.11022302462516E-15, 2.22044604925031E-16, -0.793750000000003));
#29 = DIRECTION('', (1.3987061727561E-17, -4.55043397165478E-17, -1.));
#30 = DIRECTION('', (-1., 3.93814504979824E-17, -1.3987061727561E-17));
#31 = (
   BOUNDED_SURFACE ()
   B_SPLINE_SURFACE (1, 2, ((#32, #33, #34, #35, #36, #37, #38, #39, #40), (#41, #42, #43, #44, #45, #46, #47, #48, #49)), .UNSPECIFIED., .F., .T., .U.)
   B_SPLINE_SURFACE_WITH_KNOTS ((2, 2), (3, 2, 2, 2, 3), (0., 1.), (0., 0.25, 0.5, 0.75, 1.), .UNSPECIFIED.)
   GEOMETRIC_REPRESENTATION_ITEM ()
   RATIONAL_B_SPLINE_SURFACE (((1., 0.707106781186548, 1., 0.707106781186548, 1., 0.707106781186548, 1., 0.707106781186548, 1.), (1., 0.707106781186548, 1., 0.707106781186548, 1., 0.707106781186548, 1., 0.707106781186548, 1.)))
   REPRESENTATION_ITEM ('')
   SURFACE ()
);
#32 = CARTESIAN_POINT('', (-7.9375, 4.61360075642158E-16, -0.793750000000001));
#33 = CARTESIAN_POINT('', (-7.9375, 7.9375, -0.793750000000004));
#34 = CARTESIAN_POINT('', (1.93945191622994E-15, 7.9375, -0.793750000000005));
#35 = CARTESIAN_POINT('', (7.9375, 7.9375, -0.793750000000007));
#36 = CARTESIAN_POINT('', (7.9375, -3.48609956746951E-15, -0.793750000000005));
#37 = CARTESIAN_POINT('', (7.9375, -7.9375, -0.793750000000003));
#38 = CARTESIAN_POINT('', (-1.03594433005852E-15, -7.9375, -0.793750000000001));
#39 = CARTESIAN_POINT('', (-7.9375, -7.9375, -0.793749999999999));
#40 = CARTESIAN_POINT('', (-7.9375, 4.61360075642158E-16, -0.793750000000001));
#41 = CARTESIAN_POINT('', (-7.14375, 4.37428528570445E-16, 0.));
#42 = CARTESIAN_POINT('', (-7.14375, 7.14375, -1.99840144432528E-15));
#43 = CARTESIAN_POINT('', (1.91513471747839E-15, 7.14375, -3.55590349496166E-15));
#44 = CARTESIAN_POINT('', (7.14375, 7.14375, -5.11340554559804E-15));
#45 = CARTESIAN_POINT('', (7.14375, -3.11528515023006E-15, -3.11500410127276E-15));
#46 = CARTESIAN_POINT('', (7.14375, -7.14375, -1.11660265694748E-15));
#47 = CARTESIAN_POINT('', (-7.62721904181215E-16, -7.14375, 4.40899393688896E-16));
#48 = CARTESIAN_POINT('', (-7.14375, -7.14375, 1.99840144432528E-15));
#49 = CARTESIAN_POINT('', (-7.14375, 4.37428528570445E-16, 0.));
#50 = ADVANCED_FACE('', (#51), #54, .T.);
#51 = FACE_OUTER_BOUND('', #52, .T.);
#52 = EDGE_LOOP('', (#53));
#53 = ORIENTED_EDGE('', *, *, #17, .F.);
#54 = B_SPLINE_SURFACE_WITH_KNOTS('', 1, 1, ((#55, #56), (#57, #58)), .UNSPECIFIED., .F., .F., .U., (2, 2), (2, 2), (3.9693169498231, 18.2568169498231), (3.9693169498231, 18.2568169498231), .UNSPECIFIED.);
#55 = CARTESIAN_POINT('', (7.14375, -7.14375, -2.17537106013734E-14));
#56 = CARTESIAN_POINT('', (-7.14375, -7.14375, -7.54285588617138E-15));
#57 = CARTESIAN_POINT('', (7.14375, 7.14375, -6.66799882903049E-15));
#58 = CARTESIAN_POINT('', (-7.14375, 7.14375, 7.54285588617152E-15));
#59 = ADVANCED_FACE('', (#60), #79, .T.);
#60 = FACE_OUTER_BOUND('', #61, .T.);
#61 = EDGE_LOOP('', (#62, #71, #77, #78));
#62 = ORIENTED_EDGE('', *, *, #63, .F.);
#63 = EDGE_CURVE('', #64, #64, #66, .T.);
#64 = VERTEX_POINT('', #65);
#65 = CARTESIAN_POINT('', (-7.9375, 5.54076136189231E-15, -82.55));
#66 = CIRCLE('', #67, 7.9375);
#67 = AXIS2_PLACEMENT_3D('', #68, #69, #70);
#68 = CARTESIAN_POINT('', (1.63757896132211E-15, 3.5527136788005E-15, -82.55));
#69 = DIRECTION('', (0., 0., -1.));
#70 = DIRECTION('', (-1., 2.50462700232039E-16, 0.));
#71 = ORIENTED_EDGE('', *, *, #72, .F.);
#72 = EDGE_CURVE('', #8, #64, #73, .T.);
#73 = LINE('', #74, #75);
#74 = CARTESIAN_POINT('', (-7.9375, 5.34634868252767E-16, -0.793750000000003));
#75 = VECTOR('', #76, 81.75625);
#76 = DIRECTION('', (0., 5.00612649363954E-15, -81.75625));
#77 = ORIENTED_EDGE('', *, *, #25, .T.);
#78 = ORIENTED_EDGE('', *, *, #72, .T.);
#79 = (
   BOUNDED_SURFACE ()
   B_SPLINE_SURFACE (1, 2, ((#80, #81, #82, #83, #84, #85, #86, #87, #88), (#89, #90, #91, #92, #93, #94, #95, #96, #97)), .UNSPECIFIED., .F., .T., .U.)
   B_SPLINE_SURFACE_WITH_KNOTS ((2, 2), (3, 2, 2, 2, 3), (-0.836961100968965, 1.), (0., 0.25, 0.5, 0.75, 1.), .UNSPECIFIED.)
   GEOMETRIC_REPRESENTATION_ITEM ()
   RATIONAL_B_SPLINE_SURFACE (((1., 0.707106781186548, 1., 0.707106781186548, 1., 0.707106781186548, 1., 0.707106781186548, 1.), (1., 0.707106781186548, 1., 0.707106781186548, 1., 0.707106781186548, 1., 0.707106781186548, 1.)))
   REPRESENTATION_ITEM ('')
   SURFACE ()
);
#80 = CARTESIAN_POINT('', (-7.9375, 1.20809543243544E-14, -82.55));
#81 = CARTESIAN_POINT('', (-7.93749999999999, 7.93750000000001, -82.55));
#82 = CARTESIAN_POINT('', (4.13422390046174E-15, 7.93750000000001, -82.55));
#83 = CARTESIAN_POINT('', (7.9375, 7.93750000000001, -82.55));
#84 = CARTESIAN_POINT('', (7.9375, 7.98694509602151E-15, -82.55));
#85 = CARTESIAN_POINT('', (7.9375, -7.93749999999999, -82.55));
#86 = CARTESIAN_POINT('', (1.01227806895207E-15, -7.93749999999999, -82.55));
#87 = CARTESIAN_POINT('', (-7.9375, -7.93749999999999, -82.55));
#88 = CARTESIAN_POINT('', (-7.9375, 1.20809543243544E-14, -82.55));
#89 = CARTESIAN_POINT('', (-7.9375, 5.34634868252766E-16, -0.793750000000003));
#90 = CARTESIAN_POINT('', (-7.93749999999999, 7.9375, -0.793750000000002));
#91 = CARTESIAN_POINT('', (2.99069418509783E-15, 7.9375, -0.793750000000002));
#92 = CARTESIAN_POINT('', (7.9375, 7.93749999999999, -0.793750000000002));
#93 = CARTESIAN_POINT('', (7.9375, -3.55937436008012E-15, -0.793750000000003));
#94 = CARTESIAN_POINT('', (7.9375, -7.9375, -0.793750000000004));
#95 = CARTESIAN_POINT('', (-1.31251646411848E-16, -7.9375, -0.793750000000004));
#96 = CARTESIAN_POINT('', (-7.9375, -7.9375, -0.793750000000004));
#97 = CARTESIAN_POINT('', (-7.9375, 5.34634868252766E-16, -0.793750000000003));
#98 = ADVANCED_FACE('', (#99), #102, .T.);
#99 = FACE_OUTER_BOUND('', #100, .T.);
#100 = EDGE_LOOP('', (#101));
#101 = ORIENTED_EDGE('', *, *, #63, .T.);
#102 = B_SPLINE_SURFACE_WITH_KNOTS('', 1, 1, ((#103, #104), (#105, #106)), .UNSPECIFIED., .F., .F., .U., (2, 2), (2, 2), (112.074279240301, 127.949279240301), (105.018722153882, 120.893722153882), .UNSPECIFIED.);
#103 = CARTESIAN_POINT('', (-7.9375, 7.93750000000001, -82.55));
#104 = CARTESIAN_POINT('', (-7.9375, -7.9375, -82.55));
#105 = CARTESIAN_POINT('', (7.9375, 7.93750000000001, -82.55));
#106 = CARTESIAN_POINT('', (7.9375, -7.9375, -82.55));
#107 = DRAUGHTING_MODEL('', (#115, #239, #287, #292, #297, #302, #307, #312), #326);
#108 = PRESENTATION_STYLE_ASSIGNMENT((#109));
#109 = SURFACE_STYLE_USAGE(.POSITIVE., #110);
#110 = SURFACE_SIDE_STYLE('', (#111));
#111 = SURFACE_STYLE_FILL_AREA(#112);
#112 = FILL_AREA_STYLE('', (#113));
#113 = FILL_AREA_STYLE_COLOUR('', #114);
#114 = COLOUR_RGB('', 0.50196078431373, 0.50196078431373, 0.50196078431373);
#115 = STYLED_ITEM('', (#108), #1);
#116 = MANIFOLD_SOLID_BREP('CUT', #117);
#117 = CLOSED_SHELL('', (#118, #135, #174, #223));
#118 = ADVANCED_FACE('', (#119), #130, .T.);
#119 = FACE_OUTER_BOUND('', #120, .T.);
#120 = EDGE_LOOP('', (#121));
#121 = ORIENTED_EDGE('', *, *, #122, .F.);
#122 = EDGE_CURVE('', #123, #123, #125, .T.);
#123 = VERTEX_POINT('', #124);
#124 = CARTESIAN_POINT('', (-7.9375, 5.54076136189231E-15, -82.55));
#125 = CIRCLE('', #126, 7.9375);
#126 = AXIS2_PLACEMENT_3D('', #127, #128, #129);
#127 = CARTESIAN_POINT('', (1.63757896132211E-15, 3.5527136788005E-15, -82.55));
#128 = DIRECTION('', (0., 0., -1.));
#129 = DIRECTION('', (-1., 2.50462700232039E-16, 0.));
#130 = B_SPLINE_SURFACE_WITH_KNOTS('', 1, 1, ((#131, #132), (#133, #134)), .UNSPECIFIED., .F., .F., .U., (2, 2), (2, 2), (105.018722153882, 120.893722153882), (112.074279240301, 127.949279240301), .UNSPECIFIED.);
#131 = CARTESIAN_POINT('', (-7.9375, 7.93750000000001, -82.55));
#132 = CARTESIAN_POINT('', (7.9375, 7.93750000000001, -82.55));
#133 = CARTESIAN_POINT('', (-7.9375, -7.9375, -82.55));
#134 = CARTESIAN_POINT('', (7.9375, -7.9375, -82.55));
#135 = ADVANCED_FACE('', (#136), #155, .T.);
#136 = FACE_OUTER_BOUND('', #137, .T.);
#137 = EDGE_LOOP('', (#138, #139, #147, #154));
#138 = ORIENTED_EDGE('', *, *, #122, .T.);
#139 = ORIENTED_EDGE('', *, *, #140, .T.);
#140 = EDGE_CURVE('', #123, #141, #143, .T.);
#141 = VERTEX_POINT('', #142);
#142 = CARTESIAN_POINT('', (-7.9375, 7.43626967761258E-15, -113.506));
#143 = LINE('', #144, #145);
#144 = CARTESIAN_POINT('', (-7.9375, 5.54076136189231E-15, -82.55));
#145 = VECTOR('', #146, 30.956);
#146 = DIRECTION('', (0., 1.89550831572027E-15, -30.956));
#147 = ORIENTED_EDGE('', *, *, #148, .F.);
#148 = EDGE_CURVE('', #141, #141, #149, .T.);
#149 = CIRCLE('', #150, 7.9375);
#150 = AXIS2_PLACEMENT_3D('', #151, #152, #153);
#151 = CARTESIAN_POINT('', (7.7715611723761E-16, 9.54791801177635E-15, -113.506));
#152 = DIRECTION('', (-1.79034390112781E-15, 5.82455548371812E-15, -1.));
#153 = DIRECTION('', (-1., -2.6603443580016E-16, 1.79034390112781E-15));
#154 = ORIENTED_EDGE('', *, *, #140, .F.);
#155 = (
   BOUNDED_SURFACE ()
   B_SPLINE_SURFACE (1, 2, ((#156, #157, #158, #159, #160, #161, #162, #163, #164), (#165, #166, #167, #168, #169, #170, #171, #172, #173)), .UNSPECIFIED., .F., .T., .U.)
   B_SPLINE_SURFACE_WITH_KNOTS ((2, 2), (3, 2, 2, 2, 3), (-1.53250386181716, -0.836961100968965), (0., 0.25, 0.5, 0.75, 1.), .UNSPECIFIED.)
   GEOMETRIC_REPRESENTATION_ITEM ()
   RATIONAL_B_SPLINE_SURFACE (((1., 0.707106781186548, 1., 0.707106781186548, 1., 0.707106781186548, 1., 0.707106781186548, 1.), (1., 0.707106781186548, 1., 0.707106781186548, 1., 0.707106781186548, 1., 0.707106781186548, 1.)))
   REPRESENTATION_ITEM ('')
   SURFACE ()
);
#156 = CARTESIAN_POINT('', (-7.93749999999994, 4.20849373234215E-15, -113.506));
#157 = CARTESIAN_POINT('', (-7.93749999999995, 7.9375, -113.506));
#158 = CARTESIAN_POINT('', (5.05123638207825E-14, 7.93750000000001, -113.506));
#159 = CARTESIAN_POINT('', (7.93750000000005, 7.93750000000001, -113.506));
#160 = CARTESIAN_POINT('', (7.93750000000006, 1.31948704289334E-14, -113.506));
#161 = CARTESIAN_POINT('', (7.93750000000006, -7.93749999999999, -113.506));
#162 = CARTESIAN_POINT('', (6.0470803914197E-14, -7.93749999999999, -113.506));
#163 = CARTESIAN_POINT('', (-7.93749999999994, -7.9375, -113.506));
#164 = CARTESIAN_POINT('', (-7.93749999999994, 4.20849373234215E-15, -113.506));
#165 = CARTESIAN_POINT('', (-7.9375, 5.54076136189231E-15, -82.55));
#166 = CARTESIAN_POINT('', (-7.9375, 7.93750000000001, -82.55));
#167 = CARTESIAN_POINT('', (-4.90952198253007E-15, 7.93750000000001, -82.55));
#168 = CARTESIAN_POINT('', (7.93749999999999, 7.93750000000001, -82.55));
#169 = CARTESIAN_POINT('', (7.9375, 1.45271380584836E-14, -82.55));
#170 = CARTESIAN_POINT('', (7.93750000000001, -7.93749999999998, -82.55));
#171 = CARTESIAN_POINT('', (5.04891811088442E-15, -7.93749999999999, -82.55));
#172 = CARTESIAN_POINT('', (-7.93749999999999, -7.9375, -82.55));
#173 = CARTESIAN_POINT('', (-7.9375, 5.54076136189231E-15, -82.55));
#174 = ADVANCED_FACE('', (#175), #195, .T.);
#175 = FACE_OUTER_BOUND('', #176, .T.);
#176 = EDGE_LOOP('', (#177, #186, #187, #188));
#177 = ORIENTED_EDGE('', *, *, #178, .F.);
#178 = EDGE_CURVE('', #141, #179, #181, .T.);
#179 = VERTEX_POINT('', #180);
#180 = CARTESIAN_POINT('', (-7.1435, 7.43626967761258E-15, -114.3));
#181 = CIRCLE('', #182, 0.794000000000051);
#182 = AXIS2_PLACEMENT_3D('', #183, #184, #185);
#183 = CARTESIAN_POINT('', (-7.14349999999996, 7.38765119968642E-15, -113.506));
#184 = DIRECTION('', (-6.12323399573701E-17, -1., -6.12323399573709E-17));
#185 = DIRECTION('', (-1., 6.12323399573733E-17, -5.36934057249416E-14));
#186 = ORIENTED_EDGE('', *, *, #148, .T.);
#187 = ORIENTED_EDGE('', *, *, #178, .T.);
#188 = ORIENTED_EDGE('', *, *, #189, .F.);
#189 = EDGE_CURVE('', #179, #179, #190, .T.);
#190 = CIRCLE('', #191, 7.1435);
#191 = AXIS2_PLACEMENT_3D('', #192, #193, #194);
#192 = CARTESIAN_POINT('', (1.94289029309402E-16, 1.08801856413265E-14, -114.3));
#193 = DIRECTION('', (0., 0., -1.));
#194 = DIRECTION('', (-1., -4.8210484548386E-16, 0.));
#195 = (
   BOUNDED_SURFACE ()
   B_SPLINE_SURFACE (2, 2, ((#196, #197, #198), (#199, #200, #201), (#202, #203, #204), (#205, #206, #207), (#208, #209, #210), (#211, #212, #213), (#214, #215, #216), (#217, #218, #219), (#220, #221, #222)), .UNSPECIFIED., .T., .F., .U.)
   B_SPLINE_SURFACE_WITH_KNOTS ((3, 2, 2, 2, 3), (3, 3), (0., 0.25, 0.5, 0.75, 1.), (0., 1.), .UNSPECIFIED.)
   GEOMETRIC_REPRESENTATION_ITEM ()
   RATIONAL_B_SPLINE_SURFACE (((1., 0.707106781186547, 1.), (0.707106781186548, 0.5, 0.707106781186548), (1., 0.707106781186547, 1.), (0.707106781186548, 0.5, 0.707106781186548), (1., 0.707106781186547, 1.), (0.707106781186548, 0.5, 0.707106781186548), (1., 0.707106781186547, 1.), (0.707106781186548, 0.5, 0.707106781186548), (1., 0.707106781186547, 1.)))
   REPRESENTATION_ITEM ('')
   SURFACE ()
);
#196 = CARTESIAN_POINT('', (-7.9375, 7.43626967761258E-15, -113.506));
#197 = CARTESIAN_POINT('', (-7.9375, 7.48488815553873E-15, -114.3));
#198 = CARTESIAN_POINT('', (-7.1435, 7.43626967761258E-15, -114.3));
#199 = CARTESIAN_POINT('', (-7.9375, 7.93750000000001, -113.506));
#200 = CARTESIAN_POINT('', (-7.9375, 7.93750000000001, -114.3));
#201 = CARTESIAN_POINT('', (-7.1435, 7.14350000000001, -114.3));
#202 = CARTESIAN_POINT('', (3.44410982681292E-16, 7.93750000000001, -113.506));
#203 = CARTESIAN_POINT('', (3.93029460607443E-16, 7.93750000000001, -114.3));
#204 = CARTESIAN_POINT('', (3.93029460607442E-16, 7.14350000000001, -114.3));
#205 = CARTESIAN_POINT('', (7.9375, 7.93750000000001, -113.506));
#206 = CARTESIAN_POINT('', (7.9375, 7.93750000000001, -114.3));
#207 = CARTESIAN_POINT('', (7.1435, 7.14350000000001, -114.3));
#208 = CARTESIAN_POINT('', (7.9375, 8.1907376442627E-15, -113.506));
#209 = CARTESIAN_POINT('', (7.9375, 8.14211916633655E-15, -114.3));
#210 = CARTESIAN_POINT('', (7.1435, 8.0935006884104E-15, -114.3));
#211 = CARTESIAN_POINT('', (7.9375, -7.93749999999999, -113.506));
#212 = CARTESIAN_POINT('', (7.9375, -7.93749999999999, -114.3));
#213 = CARTESIAN_POINT('', (7.1435, -7.14349999999999, -114.3));
#214 = CARTESIAN_POINT('', (2.07094234615462E-15, -7.93749999999999, -113.506));
#215 = CARTESIAN_POINT('', (2.02232386822847E-15, -7.93749999999999, -114.3));
#216 = CARTESIAN_POINT('', (1.92508691237617E-15, -7.14349999999999, -114.3));
#217 = CARTESIAN_POINT('', (-7.9375, -7.93749999999999, -113.506));
#218 = CARTESIAN_POINT('', (-7.9375, -7.93749999999999, -114.3));
#219 = CARTESIAN_POINT('', (-7.1435, -7.1435, -114.3));
#220 = CARTESIAN_POINT('', (-7.9375, 7.43626967761258E-15, -113.506));
#221 = CARTESIAN_POINT('', (-7.9375, 7.48488815553873E-15, -114.3));
#222 = CARTESIAN_POINT('', (-7.1435, 7.43626967761258E-15, -114.3));
#223 = ADVANCED_FACE('', (#224), #227, .T.);
#224 = FACE_OUTER_BOUND('', #225, .T.);
#225 = EDGE_LOOP('', (#226));
#226 = ORIENTED_EDGE('', *, *, #189, .T.);
#227 = B_SPLINE_SURFACE_WITH_KNOTS('', 1, 1, ((#228, #229), (#230, #231)), .UNSPECIFIED., .F., .F., .U., (2, 2), (2, 2), (3.9691780410934, 18.2561780410934), (3.96917804109341, 18.2561780410934), .UNSPECIFIED.);
#228 = CARTESIAN_POINT('', (7.1435, -7.14349999999999, -114.3));
#229 = CARTESIAN_POINT('', (7.1435, 7.14350000000001, -114.3));
#230 = CARTESIAN_POINT('', (-7.1435, -7.14349999999999, -114.3));
#231 = CARTESIAN_POINT('', (-7.1435, 7.14350000000001, -114.3));
#232 = PRESENTATION_STYLE_ASSIGNMENT((#233));
#233 = SURFACE_STYLE_USAGE(.POSITIVE., #234);
#234 = SURFACE_SIDE_STYLE('', (#235));
#235 = SURFACE_STYLE_FILL_AREA(#236);
#236 = FILL_AREA_STYLE('', (#237));
#237 = FILL_AREA_STYLE_COLOUR('', #238);
#238 = COLOUR_RGB('', 0.8, 0.8, 0.8);
#239 = STYLED_ITEM('', (#232), #116);
#240 = TRIMMED_CURVE('cutting part line', #241, (#245), (#246), .T., .CARTESIAN.);
#241 = LINE('', #242, #243);
#242 = CARTESIAN_POINT('', (-9.28538775440523E-31, -5.0547296634807E-15, -82.55));
#243 = VECTOR('', #244, 7.9375);
#244 = DIRECTION('', (7.9375, -1.45809509523482E-15, 0.));
#245 = CARTESIAN_POINT('', (-9.28538775440523E-31, -5.0547296634807E-15, -82.55));
#246 = CARTESIAN_POINT('', (7.9375, -6.51282475871552E-15, -82.55));
#247 = TRIMMED_CURVE('cutting part line', #248, (#252), (#253), .T., .CARTESIAN.);
#248 = LINE('', #249, #250);
#249 = CARTESIAN_POINT('', (7.9375, -6.51282475871552E-15, -82.55));
#250 = VECTOR('', #251, 30.956);
#251 = DIRECTION('', (0., -1.89550831572027E-15, -30.956));
#252 = CARTESIAN_POINT('', (7.9375, -6.51282475871552E-15, -82.55));
#253 = CARTESIAN_POINT('', (7.9375, -8.40833307443579E-15, -113.506));
#254 = TRIMMED_CURVE('cutting part line', #255, (#260), (#261), .T., .CARTESIAN.);
#255 = CIRCLE('', #256, 0.793999999999966);
#256 = AXIS2_PLACEMENT_3D('', #257, #258, #259);
#257 = CARTESIAN_POINT('', (7.14350000000004, -8.26247764065735E-15, -113.506));
#258 = DIRECTION('', (1.83697019872104E-16, 1., -6.12323399573693E-17));
#259 = DIRECTION('', (1., -1.83697019872103E-16, 1.78978019083157E-14));
#260 = CARTESIAN_POINT('', (7.9375, -8.40833307443579E-15, -113.506));
#261 = CARTESIAN_POINT('', (7.1435, -8.31109611858349E-15, -114.3));
#262 = TRIMMED_CURVE('cutting part line', #263, (#267), (#268), .T., .CARTESIAN.);
#263 = LINE('', #264, #265);
#264 = CARTESIAN_POINT('', (7.1435, -8.31109611858349E-15, -114.3));
#265 = VECTOR('', #266, 7.1435);
#266 = DIRECTION('', (-7.1435, 1.31223966145637E-15, 0.));
#267 = CARTESIAN_POINT('', (7.1435, -8.31109611858349E-15, -114.3));
#268 = CARTESIAN_POINT('', (-8.57112715791251E-31, -6.99885645712712E-15, -114.3));
#269 = TRIMMED_CURVE('cutting part line', #270, (#274), (#275), .T., .CARTESIAN.);
#270 = LINE('', #271, #272);
#271 = CARTESIAN_POINT('', (-1.28566907368688E-30, -6.99885645712712E-15, -114.3));
#272 = VECTOR('', #273, 31.75);
#273 = DIRECTION('', (3.57130298246354E-31, 1.94412679364642E-15, 31.75));
#274 = CARTESIAN_POINT('', (-1.28566907368688E-30, -6.99885645712712E-15, -114.3));
#275 = CARTESIAN_POINT('', (-9.28538775440523E-31, -5.0547296634807E-15, -82.55));
#276 = COMPOSITE_CURVE('cutting part line', (#277, #278, #279, #280, #281), .U.);
#277 = COMPOSITE_CURVE_SEGMENT(.CONTINUOUS., .T., #240);
#278 = COMPOSITE_CURVE_SEGMENT(.CONTINUOUS., .T., #247);
#279 = COMPOSITE_CURVE_SEGMENT(.CONTINUOUS., .T., #254);
#280 = COMPOSITE_CURVE_SEGMENT(.CONTINUOUS., .T., #262);
#281 = COMPOSITE_CURVE_SEGMENT(.CONTINUOUS., .T., #269);
#282 = GEOMETRIC_SET('', (#276, #325));
#283 = PRESENTATION_STYLE_ASSIGNMENT((#284));
#284 = CURVE_STYLE('', #286, POSITIVE_LENGTH_MEASURE(1.E-6), #285);
#285 = COLOUR_RGB('', 0., 0., 1.);
#286 = DRAUGHTING_PRE_DEFINED_CURVE_FONT('continuous');
#287 = STYLED_ITEM('', (#283), #276);
#288 = PRESENTATION_STYLE_ASSIGNMENT((#289));
#289 = CURVE_STYLE('', #291, POSITIVE_LENGTH_MEASURE(1.E-6), #290);
#290 = COLOUR_RGB('', 0., 0., 1.);
#291 = DRAUGHTING_PRE_DEFINED_CURVE_FONT('continuous');
#292 = OVER_RIDING_STYLED_ITEM('', (#288), #240, #287);
#293 = PRESENTATION_STYLE_ASSIGNMENT((#294));
#294 = CURVE_STYLE('', #296, POSITIVE_LENGTH_MEASURE(1.E-6), #295);
#295 = COLOUR_RGB('', 0., 0., 1.);
#296 = DRAUGHTING_PRE_DEFINED_CURVE_FONT('continuous');
#297 = OVER_RIDING_STYLED_ITEM('', (#293), #247, #287);
#298 = PRESENTATION_STYLE_ASSIGNMENT((#299));
#299 = CURVE_STYLE('', #301, POSITIVE_LENGTH_MEASURE(1.E-6), #300);
#300 = COLOUR_RGB('', 0., 0., 1.);
#301 = DRAUGHTING_PRE_DEFINED_CURVE_FONT('continuous');
#302 = OVER_RIDING_STYLED_ITEM('', (#298), #254, #287);
#303 = PRESENTATION_STYLE_ASSIGNMENT((#304));
#304 = CURVE_STYLE('', #306, POSITIVE_LENGTH_MEASURE(1.E-6), #305);
#305 = COLOUR_RGB('', 0., 0., 1.);
#306 = DRAUGHTING_PRE_DEFINED_CURVE_FONT('continuous');
#307 = OVER_RIDING_STYLED_ITEM('', (#303), #262, #287);
#308 = PRESENTATION_STYLE_ASSIGNMENT((#309));
#309 = CURVE_STYLE('', #311, POSITIVE_LENGTH_MEASURE(1.E-6), #310);
#310 = COLOUR_RGB('', 0., 0., 1.);
#311 = DRAUGHTING_PRE_DEFINED_CURVE_FONT('continuous');
#312 = OVER_RIDING_STYLED_ITEM('', (#308), #269, #287);
#313 = AXIS2_PLACEMENT_3D('CIP', #314, #315, #316);
#314 = CARTESIAN_POINT('', (4.28556357895626E-31, 6.99885645712712E-15, -114.3));
#315 = DIRECTION('', (-3.74939945665465E-33, -6.12323399573677E-17, 1.));
#316 = DIRECTION('', (1., -6.12323399573677E-17, 0.));
#317 = AXIS2_PLACEMENT_3D('MCS', #318, #319, #320);
#318 = CARTESIAN_POINT('', (1.69847795386455E-31, 2.77382500006875E-15, -45.3));
#319 = DIRECTION('', (-3.74939945665465E-33, -6.12323399573677E-17, 1.));
#320 = DIRECTION('', (1., -6.12323399573677E-17, 0.));
#321 = AXIS2_PLACEMENT_3D('PCS', #322, #323, #324);
#322 = CARTESIAN_POINT('', (0., 0., 0.));
#323 = DIRECTION('', (0., 0., 1.));
#324 = DIRECTION('', (1., 0., 0.));
#325 = CARTESIAN_POINT('CRP', (7.9375, 0., -114.3));
#326 = (
   GEOMETRIC_REPRESENTATION_CONTEXT (3)
   GLOBAL_UNCERTAINTY_ASSIGNED_CONTEXT ((#328))
   GLOBAL_UNIT_ASSIGNED_CONTEXT ((#327, #329, #330))
   REPRESENTATION_CONTEXT ('', '3D')
);
#327 = (
   LENGTH_UNIT ()
   NAMED_UNIT (*)
   SI_UNIT (.MILLI., .METRE.)
);
#328 = UNCERTAINTY_MEASURE_WITH_UNIT(LENGTH_MEASURE(1.E-6), #327, 'DISTANCE_ACCURACY_VALUE', '');
#329 = (
   NAMED_UNIT (*)
   SI_UNIT ($, .STERADIAN.)
   SOLID_ANGLE_UNIT ()
);
#330 = (
   NAMED_UNIT (*)
   PLANE_ANGLE_UNIT ()
   SI_UNIT ($, .RADIAN.)
);
#331 = SHAPE_REPRESENTATION('', (), #326);
#332 = PRODUCT_DEFINITION_SHAPE('', '', #333);
#333 = PRODUCT_DEFINITION('', '', #336, #340);
#334 = APPLICATION_CONTEXT('configuration controlled 3D designs of mechanical parts and assemblies');
#335 = APPLICATION_PROTOCOL_DEFINITION('International Standard', 'automotive_design', 2002, #334);
#336 = PRODUCT_DEFINITION_FORMATION_WITH_SPECIFIED_SOURCE('', '', #337, .NOT_KNOWN.);
#337 = PRODUCT('EmptyName', 'EmptyName', '', (#338));
#338 = PRODUCT_CONTEXT('', #334, 'mechanical');
#339 = PRODUCT_RELATED_PRODUCT_CATEGORY('detail', '', (#337));
#340 = PRODUCT_DEFINITION_CONTEXT('part definition', #334, 'design');
#341 = SHAPE_DEFINITION_REPRESENTATION(#332, #331);
#342 = CONSTRUCTIVE_GEOMETRY_REPRESENTATION('supplemental geometry', (#313, #317, #321), #326);
#343 = CONSTRUCTIVE_GEOMETRY_REPRESENTATION_RELATIONSHIP('', '', #331, #342);
#344 = SHAPE_REPRESENTATION_RELATIONSHIP('', '', #331, #345);
#345 = SHAPE_REPRESENTATION('', (#282), #326);
#346 = SHAPE_REPRESENTATION_RELATIONSHIP('', '', #331, #347);
#347 = ADVANCED_BREP_SHAPE_REPRESENTATION('', (#1, #116), #326);
ENDSEC;
END-ISO-10303-21;
