ISO-10303-21;
HEADER;
FILE_DESCRIPTION(('STEP'), '1');
FILE_NAME('C:\\Users\\ds2002\\OneDrive - Sandvik\\HomeShare\\Documents\\Batchrepair\\CorSRT2\\NEW_MILSQ_SLD\\Output\\MOD000000000000000020084956200000.stp', '2019-01-02T12:08:34', (''), (''), 'Express v3.0.0.0', 'Express Tool', 'Unknown');
FILE_SCHEMA(('AUTOMOTIVE_DESIGN'));
ENDSEC;

DATA;
#1 = MANIFOLD_SOLID_BREP('NOCUT', #2);
#2 = CLOSED_SHELL('', (#3, #50, #59, #98));
#3 = ADVANCED_FACE('', (#4), #31, .T.);
#4 = FACE_OUTER_BOUND('', #5, .T.);
#5 = EDGE_LOOP('', (#6, #16, #23, #24));
#6 = ORIENTED_EDGE('', *, *, #7, .T.);
#7 = EDGE_CURVE('', #8, #10, #12, .T.);
#8 = VERTEX_POINT('', #9);
#9 = CARTESIAN_POINT('', (-6.35, 4.27707894602213E-16, -0.634999999999998));
#10 = VERTEX_POINT('', #11);
#11 = CARTESIAN_POINT('', (-5.715, 3.49942822856356E-16, 0.));
#12 = LINE('', #13, #14);
#13 = CARTESIAN_POINT('', (-6.35, 4.27707894602213E-16, -0.634999999999998));
#14 = VECTOR('', #15, 0.898025612106914);
#15 = DIRECTION('', (0.635, -7.7765071745857E-17, 0.634999999999998));
#16 = ORIENTED_EDGE('', *, *, #17, .T.);
#17 = EDGE_CURVE('', #10, #10, #18, .T.);
#18 = CIRCLE('', #19, 5.715);
#19 = AXIS2_PLACEMENT_3D('', #20, #21, #22);
#20 = CARTESIAN_POINT('', (-6.93889390390723E-16, -1.33226762955019E-15, -5.54667823983524E-32));
#21 = DIRECTION('', (8.31826769960494E-33, 6.12323399573676E-17, -1.));
#22 = DIRECTION('', (-1., 2.94350035416718E-16, 9.70547373549474E-33));
#23 = ORIENTED_EDGE('', *, *, #7, .F.);
#24 = ORIENTED_EDGE('', *, *, #25, .F.);
#25 = EDGE_CURVE('', #8, #8, #26, .T.);
#26 = CIRCLE('', #27, 6.35);
#27 = AXIS2_PLACEMENT_3D('', #28, #29, #30);
#28 = CARTESIAN_POINT('', (3.21964677141295E-15, -9.99200722162641E-16, -0.634999999999998));
#29 = DIRECTION('', (1.74838271594513E-17, -5.68804246456846E-17, -1.));
#30 = DIRECTION('', (-1., 2.24710018388166E-16, -1.74838271594513E-17));
#31 = (
   BOUNDED_SURFACE ()
   B_SPLINE_SURFACE (1, 2, ((#32, #33, #34, #35, #36, #37, #38, #39, #40), (#41, #42, #43, #44, #45, #46, #47, #48, #49)), .UNSPECIFIED., .F., .T., .U.)
   B_SPLINE_SURFACE_WITH_KNOTS ((2, 2), (3, 2, 2, 2, 3), (0., 1.), (0., 0.25, 0.5, 0.75, 1.), .UNSPECIFIED.)
   GEOMETRIC_REPRESENTATION_ITEM ()
   RATIONAL_B_SPLINE_SURFACE (((1., 0.707106781186548, 1., 0.707106781186548, 1., 0.707106781186548, 1., 0.707106781186548, 1.), (1., 0.707106781186548, 1., 0.707106781186548, 1., 0.707106781186548, 1., 0.707106781186548, 1.)))
   REPRESENTATION_ITEM ('')
   SURFACE ()
);
#32 = CARTESIAN_POINT('', (-6.35, -1.37519566928624E-15, -0.634999999999996));
#33 = CARTESIAN_POINT('', (-6.35, 6.35, -0.635000000000015));
#34 = CARTESIAN_POINT('', (3.30872697993429E-15, 6.35, -0.635000000000017));
#35 = CARTESIAN_POINT('', (6.35, 6.35, -0.635000000000019));
#36 = CARTESIAN_POINT('', (6.35, -3.84235794623103E-15, -0.635));
#37 = CARTESIAN_POINT('', (6.35, -6.35, -0.634999999999981));
#38 = CARTESIAN_POINT('', (1.61921542044808E-15, -6.35, -0.634999999999979));
#39 = CARTESIAN_POINT('', (-6.35, -6.35, -0.634999999999977));
#40 = CARTESIAN_POINT('', (-6.35, -1.37519566928624E-15, -0.634999999999996));
#41 = CARTESIAN_POINT('', (-5.715, 3.49942822856355E-16, -3.94430452610506E-31));
#42 = CARTESIAN_POINT('', (-5.715, 5.715, -1.6986412276765E-14));
#43 = CARTESIAN_POINT('', (3.35842464949109E-15, 5.715, -1.85439143274014E-14));
#44 = CARTESIAN_POINT('', (5.71500000000001, 5.715, -2.01014163780378E-14));
#45 = CARTESIAN_POINT('', (5.715, -1.87050322639396E-15, -3.11500410127276E-15));
#46 = CARTESIAN_POINT('', (5.715, -5.715, 1.38714081754922E-14));
#47 = CARTESIAN_POINT('', (1.8378642459535E-15, -5.715, 1.54289102261286E-14));
#48 = CARTESIAN_POINT('', (-5.715, -5.715, 1.6986412276765E-14));
#49 = CARTESIAN_POINT('', (-5.715, 3.49942822856355E-16, -3.94430452610506E-31));
#50 = ADVANCED_FACE('', (#51), #54, .T.);
#51 = FACE_OUTER_BOUND('', #52, .T.);
#52 = EDGE_LOOP('', (#53));
#53 = ORIENTED_EDGE('', *, *, #17, .F.);
#54 = B_SPLINE_SURFACE_WITH_KNOTS('', 1, 1, ((#55, #56), (#57, #58)), .UNSPECIFIED., .F., .F., .U., (2, 2), (2, 2), (3.17545355985846, 14.6054535598585), (3.17545355985846, 14.6054535598585), .UNSPECIFIED.);
#55 = CARTESIAN_POINT('', (5.715, -5.715, -2.16662248956594E-14));
#56 = CARTESIAN_POINT('', (-5.715, -5.715, -7.4553701804574E-15));
#57 = CARTESIAN_POINT('', (5.715, 5.715, -6.75548453474466E-15));
#58 = CARTESIAN_POINT('', (-5.715, 5.715, 7.45537018045732E-15));
#59 = ADVANCED_FACE('', (#60), #79, .T.);
#60 = FACE_OUTER_BOUND('', #61, .T.);
#61 = EDGE_LOOP('', (#62, #71, #77, #78));
#62 = ORIENTED_EDGE('', *, *, #63, .F.);
#63 = EDGE_CURVE('', #64, #64, #66, .T.);
#64 = VERTEX_POINT('', #65);
#65 = CARTESIAN_POINT('', (-6.35, 4.27707894602213E-15, -63.5));
#66 = CIRCLE('', #67, 6.35);
#67 = AXIS2_PLACEMENT_3D('', #68, #69, #70);
#68 = CARTESIAN_POINT('', (9.71445146547012E-16, 5.21804821573824E-15, -63.5));
#69 = DIRECTION('', (0., 0., -1.));
#70 = DIRECTION('', (-1., -1.48184136963166E-16, 0.));
#71 = ORIENTED_EDGE('', *, *, #72, .F.);
#72 = EDGE_CURVE('', #8, #64, #73, .T.);
#73 = LINE('', #74, #75);
#74 = CARTESIAN_POINT('', (-6.35, 4.27707894602213E-16, -0.634999999999998));
#75 = VECTOR('', #76, 62.865);
#76 = DIRECTION('', (0., 3.84937105141992E-15, -62.865));
#77 = ORIENTED_EDGE('', *, *, #25, .T.);
#78 = ORIENTED_EDGE('', *, *, #72, .T.);
#79 = (
   BOUNDED_SURFACE ()
   B_SPLINE_SURFACE (1, 2, ((#80, #81, #82, #83, #84, #85, #86, #87, #88), (#89, #90, #91, #92, #93, #94, #95, #96, #97)), .UNSPECIFIED., .F., .T., .U.)
   B_SPLINE_SURFACE_WITH_KNOTS ((2, 2), (3, 2, 2, 2, 3), (-0.407477890966081, 1.), (0., 0.25, 0.5, 0.75, 1.), .UNSPECIFIED.)
   GEOMETRIC_REPRESENTATION_ITEM ()
   RATIONAL_B_SPLINE_SURFACE (((1., 0.707106781186548, 1., 0.707106781186548, 1., 0.707106781186548, 1., 0.707106781186548, 1.), (1., 0.707106781186548, 1., 0.707106781186548, 1., 0.707106781186548, 1., 0.707106781186548, 1.)))
   REPRESENTATION_ITEM ('')
   SURFACE ()
);
#80 = CARTESIAN_POINT('', (-6.35, 2.87019854877756E-15, -63.5));
#81 = CARTESIAN_POINT('', (-6.35, 6.35, -63.5));
#82 = CARTESIAN_POINT('', (-4.92936549932465E-15, 6.35, -63.5));
#83 = CARTESIAN_POINT('', (6.34999999999999, 6.35000000000001, -63.5));
#84 = CARTESIAN_POINT('', (6.35, 9.23172701985761E-15, -63.5));
#85 = CARTESIAN_POINT('', (6.35, -6.34999999999999, -63.5));
#86 = CARTESIAN_POINT('', (2.20981368921397E-15, -6.34999999999999, -63.5));
#87 = CARTESIAN_POINT('', (-6.34999999999999, -6.35, -63.5));
#88 = CARTESIAN_POINT('', (-6.35, 2.87019854877756E-15, -63.5));
#89 = CARTESIAN_POINT('', (-6.35, 4.27707894602213E-16, -0.634999999999998));
#90 = CARTESIAN_POINT('', (-6.35, 6.35, -0.634999999999998));
#91 = CARTESIAN_POINT('', (-4.92936549932465E-15, 6.35, -0.634999999999998));
#92 = CARTESIAN_POINT('', (6.34999999999999, 6.35, -0.634999999999998));
#93 = CARTESIAN_POINT('', (6.35, 6.78923636568226E-15, -0.634999999999998));
#94 = CARTESIAN_POINT('', (6.35, -6.34999999999999, -0.634999999999998));
#95 = CARTESIAN_POINT('', (2.20981368921397E-15, -6.34999999999999, -0.634999999999998));
#96 = CARTESIAN_POINT('', (-6.34999999999999, -6.35, -0.634999999999998));
#97 = CARTESIAN_POINT('', (-6.35, 4.27707894602213E-16, -0.634999999999998));
#98 = ADVANCED_FACE('', (#99), #102, .T.);
#99 = FACE_OUTER_BOUND('', #100, .T.);
#100 = EDGE_LOOP('', (#101));
#101 = ORIENTED_EDGE('', *, *, #63, .T.);
#102 = B_SPLINE_SURFACE_WITH_KNOTS('', 1, 1, ((#103, #104), (#105, #106)), .UNSPECIFIED., .F., .F., .U., (2, 2), (2, 2), (98.412793100036, 111.112793100036), (95.237792225036, 107.937792225036), .UNSPECIFIED.);
#103 = CARTESIAN_POINT('', (-6.34999999999999, 6.35000000000001, -63.5));
#104 = CARTESIAN_POINT('', (-6.34999999999999, -6.34999999999999, -63.5));
#105 = CARTESIAN_POINT('', (6.34999999999999, 6.35000000000001, -63.5));
#106 = CARTESIAN_POINT('', (6.34999999999999, -6.34999999999999, -63.5));
#107 = DRAUGHTING_MODEL('', (#115, #239, #287, #292, #297, #302, #307, #312), #326);
#108 = PRESENTATION_STYLE_ASSIGNMENT((#109));
#109 = SURFACE_STYLE_USAGE(.POSITIVE., #110);
#110 = SURFACE_SIDE_STYLE('', (#111));
#111 = SURFACE_STYLE_FILL_AREA(#112);
#112 = FILL_AREA_STYLE('', (#113));
#113 = FILL_AREA_STYLE_COLOUR('', #114);
#114 = COLOUR_RGB('', 0.50196078431373, 0.50196078431373, 0.50196078431373);
#115 = STYLED_ITEM('', (#108), #1);
#116 = MANIFOLD_SOLID_BREP('CUT', #117);
#117 = CLOSED_SHELL('', (#118, #135, #174, #223));
#118 = ADVANCED_FACE('', (#119), #130, .T.);
#119 = FACE_OUTER_BOUND('', #120, .T.);
#120 = EDGE_LOOP('', (#121));
#121 = ORIENTED_EDGE('', *, *, #122, .F.);
#122 = EDGE_CURVE('', #123, #123, #125, .T.);
#123 = VERTEX_POINT('', #124);
#124 = CARTESIAN_POINT('', (-6.35, 4.27707894602213E-15, -63.5));
#125 = CIRCLE('', #126, 6.35);
#126 = AXIS2_PLACEMENT_3D('', #127, #128, #129);
#127 = CARTESIAN_POINT('', (9.71445146547012E-16, 5.21804821573824E-15, -63.5));
#128 = DIRECTION('', (0., 0., -1.));
#129 = DIRECTION('', (-1., -1.48184136963166E-16, 0.));
#130 = B_SPLINE_SURFACE_WITH_KNOTS('', 1, 1, ((#131, #132), (#133, #134)), .UNSPECIFIED., .F., .F., .U., (2, 2), (2, 2), (95.237792225036, 107.937792225036), (98.412793100036, 111.112793100036), .UNSPECIFIED.);
#131 = CARTESIAN_POINT('', (-6.34999999999999, 6.35000000000001, -63.5));
#132 = CARTESIAN_POINT('', (6.34999999999999, 6.35000000000001, -63.5));
#133 = CARTESIAN_POINT('', (-6.34999999999999, -6.34999999999999, -63.5));
#134 = CARTESIAN_POINT('', (6.34999999999999, -6.34999999999999, -63.5));
#135 = ADVANCED_FACE('', (#136), #155, .T.);
#136 = FACE_OUTER_BOUND('', #137, .T.);
#137 = EDGE_LOOP('', (#138, #139, #147, #154));
#138 = ORIENTED_EDGE('', *, *, #122, .T.);
#139 = ORIENTED_EDGE('', *, *, #140, .T.);
#140 = EDGE_CURVE('', #123, #141, #143, .T.);
#141 = VERTEX_POINT('', #142);
#142 = CARTESIAN_POINT('', (-6.35, 6.56141262047169E-15, -100.806));
#143 = LINE('', #144, #145);
#144 = CARTESIAN_POINT('', (-6.35, 4.27707894602213E-15, -63.5));
#145 = VECTOR('', #146, 37.306);
#146 = DIRECTION('', (0., 2.28433367444956E-15, -37.306));
#147 = ORIENTED_EDGE('', *, *, #148, .F.);
#148 = EDGE_CURVE('', #141, #141, #149, .T.);
#149 = CIRCLE('', #150, 6.35000000000002);
#150 = AXIS2_PLACEMENT_3D('', #151, #152, #153);
#151 = CARTESIAN_POINT('', (2.77555756156289E-16, 7.43849426498855E-15, -100.806));
#152 = DIRECTION('', (0., 0., -1.));
#153 = DIRECTION('', (-1., -1.38123093624702E-16, 0.));
#154 = ORIENTED_EDGE('', *, *, #140, .F.);
#155 = (
   BOUNDED_SURFACE ()
   B_SPLINE_SURFACE (1, 2, ((#156, #157, #158, #159, #160, #161, #162, #163, #164), (#165, #166, #167, #168, #169, #170, #171, #172, #173)), .UNSPECIFIED., .F., .T., .U.)
   B_SPLINE_SURFACE_WITH_KNOTS ((2, 2), (3, 2, 2, 2, 3), (-1.24271801186611, -0.407477890966081), (0., 0.25, 0.5, 0.75, 1.), .UNSPECIFIED.)
   GEOMETRIC_REPRESENTATION_ITEM ()
   RATIONAL_B_SPLINE_SURFACE (((1., 0.707106781186548, 1., 0.707106781186548, 1., 0.707106781186548, 1., 0.707106781186548, 1.), (1., 0.707106781186548, 1., 0.707106781186548, 1., 0.707106781186548, 1., 0.707106781186548, 1.)))
   REPRESENTATION_ITEM ('')
   SURFACE ()
);
#156 = CARTESIAN_POINT('', (-6.35, 5.83139118049735E-15, -100.806));
#157 = CARTESIAN_POINT('', (-6.35, 6.35, -100.806));
#158 = CARTESIAN_POINT('', (-3.02288474099875E-15, 6.35000000000001, -100.806));
#159 = CARTESIAN_POINT('', (6.35, 6.35000000000001, -100.806));
#160 = CARTESIAN_POINT('', (6.35, 9.37915885708825E-15, -100.806));
#161 = CARTESIAN_POINT('', (6.35, -6.34999999999999, -100.806));
#162 = CARTESIAN_POINT('', (1.30253365305072E-15, -6.34999999999999, -100.806));
#163 = CARTESIAN_POINT('', (-6.35, -6.35, -100.806));
#164 = CARTESIAN_POINT('', (-6.35, 5.83139118049735E-15, -100.806));
#165 = CARTESIAN_POINT('', (-6.35, 4.27707894602213E-15, -63.5));
#166 = CARTESIAN_POINT('', (-6.35, 6.35, -63.5));
#167 = CARTESIAN_POINT('', (-3.02288474099875E-15, 6.35, -63.5));
#168 = CARTESIAN_POINT('', (6.35, 6.35000000000001, -63.5));
#169 = CARTESIAN_POINT('', (6.35, 7.82484662261304E-15, -63.5));
#170 = CARTESIAN_POINT('', (6.35, -6.34999999999999, -63.5));
#171 = CARTESIAN_POINT('', (1.30253365305072E-15, -6.34999999999999, -63.5));
#172 = CARTESIAN_POINT('', (-6.35, -6.35, -63.5));
#173 = CARTESIAN_POINT('', (-6.35, 4.27707894602213E-15, -63.5));
#174 = ADVANCED_FACE('', (#175), #195, .T.);
#175 = FACE_OUTER_BOUND('', #176, .T.);
#176 = EDGE_LOOP('', (#177, #186, #187, #188));
#177 = ORIENTED_EDGE('', *, *, #178, .F.);
#178 = EDGE_CURVE('', #141, #179, #181, .T.);
#179 = VERTEX_POINT('', #180);
#180 = CARTESIAN_POINT('', (-5.556, 6.56141262047169E-15, -101.6));
#181 = CIRCLE('', #182, 0.794000000000054);
#182 = AXIS2_PLACEMENT_3D('', #183, #184, #185);
#183 = CARTESIAN_POINT('', (-5.55599999999994, 6.51279414254553E-15, -100.806));
#184 = DIRECTION('', (-6.12323399573697E-17, -1., -6.12323399573685E-17));
#185 = DIRECTION('', (-1., 6.12323399573719E-17, -3.57956038166269E-14));
#186 = ORIENTED_EDGE('', *, *, #148, .T.);
#187 = ORIENTED_EDGE('', *, *, #178, .T.);
#188 = ORIENTED_EDGE('', *, *, #189, .F.);
#189 = EDGE_CURVE('', #179, #179, #190, .T.);
#190 = CIRCLE('', #191, 5.556);
#191 = AXIS2_PLACEMENT_3D('', #192, #193, #194);
#192 = CARTESIAN_POINT('', (1.5404344466674E-15, 8.32667268468867E-15, -101.6));
#193 = DIRECTION('', (0., 0., -1.));
#194 = DIRECTION('', (-1., -3.17721393847549E-16, 0.));
#195 = (
   BOUNDED_SURFACE ()
   B_SPLINE_SURFACE (2, 2, ((#196, #197, #198), (#199, #200, #201), (#202, #203, #204), (#205, #206, #207), (#208, #209, #210), (#211, #212, #213), (#214, #215, #216), (#217, #218, #219), (#220, #221, #222)), .UNSPECIFIED., .T., .F., .U.)
   B_SPLINE_SURFACE_WITH_KNOTS ((3, 2, 2, 2, 3), (3, 3), (0., 0.25, 0.5, 0.75, 1.), (0., 1.), .UNSPECIFIED.)
   GEOMETRIC_REPRESENTATION_ITEM ()
   RATIONAL_B_SPLINE_SURFACE (((1., 0.707106781186547, 1.), (0.707106781186548, 0.5, 0.707106781186548), (1., 0.707106781186547, 1.), (0.707106781186548, 0.5, 0.707106781186548), (1., 0.707106781186547, 1.), (0.707106781186548, 0.5, 0.707106781186548), (1., 0.707106781186547, 1.), (0.707106781186548, 0.5, 0.707106781186548), (1., 0.707106781186547, 1.)))
   REPRESENTATION_ITEM ('')
   SURFACE ()
);
#196 = CARTESIAN_POINT('', (-6.35, 6.56141262047169E-15, -100.806));
#197 = CARTESIAN_POINT('', (-6.35, 6.61003109839784E-15, -101.6));
#198 = CARTESIAN_POINT('', (-5.556, 6.56141262047169E-15, -101.6));
#199 = CARTESIAN_POINT('', (-6.35, 6.35000000000001, -100.806));
#200 = CARTESIAN_POINT('', (-6.35, 6.35000000000001, -101.6));
#201 = CARTESIAN_POINT('', (-5.556, 5.55600000000001, -101.6));
#202 = CARTESIAN_POINT('', (-7.94062217780452E-16, 6.35000000000001, -100.806));
#203 = CARTESIAN_POINT('', (-7.45443739854301E-16, 6.35000000000001, -101.6));
#204 = CARTESIAN_POINT('', (-7.45443739854302E-16, 5.55600000000001, -101.6));
#205 = CARTESIAN_POINT('', (6.35, 6.35000000000001, -100.806));
#206 = CARTESIAN_POINT('', (6.35, 6.35000000000001, -101.6));
#207 = CARTESIAN_POINT('', (5.556, 5.55600000000001, -101.6));
#208 = CARTESIAN_POINT('', (6.35, 9.75936044173907E-15, -100.806));
#209 = CARTESIAN_POINT('', (6.35, 9.71074196381292E-15, -101.6));
#210 = CARTESIAN_POINT('', (5.556, 9.66212348588677E-15, -101.6));
#211 = CARTESIAN_POINT('', (6.35, -6.34999999999999, -100.806));
#212 = CARTESIAN_POINT('', (6.35, -6.34999999999999, -101.6));
#213 = CARTESIAN_POINT('', (5.556, -5.55599999999999, -101.6));
#214 = CARTESIAN_POINT('', (3.1815363209455E-15, -6.34999999999999, -100.806));
#215 = CARTESIAN_POINT('', (3.13291784301935E-15, -6.34999999999999, -101.6));
#216 = CARTESIAN_POINT('', (3.03568088716705E-15, -5.55599999999999, -101.6));
#217 = CARTESIAN_POINT('', (-6.35, -6.35, -100.806));
#218 = CARTESIAN_POINT('', (-6.35, -6.35, -101.6));
#219 = CARTESIAN_POINT('', (-5.556, -5.556, -101.6));
#220 = CARTESIAN_POINT('', (-6.35, 6.56141262047169E-15, -100.806));
#221 = CARTESIAN_POINT('', (-6.35, 6.61003109839784E-15, -101.6));
#222 = CARTESIAN_POINT('', (-5.556, 6.56141262047169E-15, -101.6));
#223 = ADVANCED_FACE('', (#224), #227, .T.);
#224 = FACE_OUTER_BOUND('', #225, .T.);
#225 = EDGE_LOOP('', (#226));
#226 = ORIENTED_EDGE('', *, *, #189, .T.);
#227 = B_SPLINE_SURFACE_WITH_KNOTS('', 1, 1, ((#228, #229), (#230, #231)), .UNSPECIFIED., .F., .F., .U., (2, 2), (2, 2), (3.08710760779941, 14.1991076077994), (3.08710760779941, 14.1991076077994), .UNSPECIFIED.);
#228 = CARTESIAN_POINT('', (5.556, -5.55599999999999, -101.6));
#229 = CARTESIAN_POINT('', (5.556, 5.55600000000001, -101.6));
#230 = CARTESIAN_POINT('', (-5.556, -5.55599999999999, -101.6));
#231 = CARTESIAN_POINT('', (-5.556, 5.55600000000001, -101.6));
#232 = PRESENTATION_STYLE_ASSIGNMENT((#233));
#233 = SURFACE_STYLE_USAGE(.POSITIVE., #234);
#234 = SURFACE_SIDE_STYLE('', (#235));
#235 = SURFACE_STYLE_FILL_AREA(#236);
#236 = FILL_AREA_STYLE('', (#237));
#237 = FILL_AREA_STYLE_COLOUR('', #238);
#238 = COLOUR_RGB('', 0.8, 0.8, 0.8);
#239 = STYLED_ITEM('', (#232), #116);
#240 = TRIMMED_CURVE('cutting part line', #241, (#245), (#246), .T., .CARTESIAN.);
#241 = LINE('', #242, #243);
#242 = CARTESIAN_POINT('', (-7.1426059649271E-31, -3.88825358729285E-15, -63.5));
#243 = VECTOR('', #244, 6.35);
#244 = DIRECTION('', (6.35, -1.16647607618785E-15, 0.));
#245 = CARTESIAN_POINT('', (-7.1426059649271E-31, -3.88825358729285E-15, -63.5));
#246 = CARTESIAN_POINT('', (6.35, -5.0547296634807E-15, -63.5));
#247 = TRIMMED_CURVE('cutting part line', #248, (#252), (#253), .T., .CARTESIAN.);
#248 = LINE('', #249, #250);
#249 = CARTESIAN_POINT('', (6.35, -5.0547296634807E-15, -63.5));
#250 = VECTOR('', #251, 37.306);
#251 = DIRECTION('', (0., -2.28433367444956E-15, -37.306));
#252 = CARTESIAN_POINT('', (6.35, -5.0547296634807E-15, -63.5));
#253 = CARTESIAN_POINT('', (6.35, -7.33906333793026E-15, -100.806));
#254 = TRIMMED_CURVE('cutting part line', #255, (#260), (#261), .T., .CARTESIAN.);
#255 = CIRCLE('', #256, 0.793999999999983);
#256 = AXIS2_PLACEMENT_3D('', #257, #258, #259);
#257 = CARTESIAN_POINT('', (5.55600000000001, -7.19320790415181E-15, -100.806));
#258 = DIRECTION('', (1.83697019872102E-16, 1., -6.12323399573653E-17));
#259 = DIRECTION('', (1., -1.83697019872101E-16, 1.78978019083151E-14));
#260 = CARTESIAN_POINT('', (6.34999999999999, -7.33906333793026E-15, -100.806));
#261 = CARTESIAN_POINT('', (5.556, -7.24182638207796E-15, -101.6));
#262 = TRIMMED_CURVE('cutting part line', #263, (#267), (#268), .T., .CARTESIAN.);
#263 = LINE('', #264, #265);
#264 = CARTESIAN_POINT('', (5.556, -7.24182638207796E-15, -101.6));
#265 = VECTOR('', #266, 5.556);
#266 = DIRECTION('', (-5.556, 1.02062064240941E-15, 0.));
#267 = CARTESIAN_POINT('', (5.556, -7.24182638207796E-15, -101.6));
#268 = CARTESIAN_POINT('', (-7.61877969592223E-31, -6.22120573966855E-15, -101.6));
#269 = TRIMMED_CURVE('cutting part line', #270, (#274), (#275), .T., .CARTESIAN.);
#270 = LINE('', #271, #272);
#271 = CARTESIAN_POINT('', (-1.14281695438834E-30, -6.22120573966855E-15, -101.6));
#272 = VECTOR('', #273, 38.1);
#273 = DIRECTION('', (4.28556357895625E-31, 2.3329521523757E-15, 38.1));
#274 = CARTESIAN_POINT('', (-1.14281695438834E-30, -6.22120573966855E-15, -101.6));
#275 = CARTESIAN_POINT('', (-7.1426059649271E-31, -3.88825358729285E-15, -63.5));
#276 = COMPOSITE_CURVE('cutting part line', (#277, #278, #279, #280, #281), .U.);
#277 = COMPOSITE_CURVE_SEGMENT(.CONTINUOUS., .T., #240);
#278 = COMPOSITE_CURVE_SEGMENT(.CONTINUOUS., .T., #247);
#279 = COMPOSITE_CURVE_SEGMENT(.CONTINUOUS., .T., #254);
#280 = COMPOSITE_CURVE_SEGMENT(.CONTINUOUS., .T., #262);
#281 = COMPOSITE_CURVE_SEGMENT(.CONTINUOUS., .T., #269);
#282 = GEOMETRIC_SET('', (#276, #325));
#283 = PRESENTATION_STYLE_ASSIGNMENT((#284));
#284 = CURVE_STYLE('', #286, POSITIVE_LENGTH_MEASURE(1.E-6), #285);
#285 = COLOUR_RGB('', 0., 0., 1.);
#286 = DRAUGHTING_PRE_DEFINED_CURVE_FONT('continuous');
#287 = STYLED_ITEM('', (#283), #276);
#288 = PRESENTATION_STYLE_ASSIGNMENT((#289));
#289 = CURVE_STYLE('', #291, POSITIVE_LENGTH_MEASURE(1.E-6), #290);
#290 = COLOUR_RGB('', 0., 0., 1.);
#291 = DRAUGHTING_PRE_DEFINED_CURVE_FONT('continuous');
#292 = OVER_RIDING_STYLED_ITEM('', (#288), #240, #287);
#293 = PRESENTATION_STYLE_ASSIGNMENT((#294));
#294 = CURVE_STYLE('', #296, POSITIVE_LENGTH_MEASURE(1.E-6), #295);
#295 = COLOUR_RGB('', 0., 0., 1.);
#296 = DRAUGHTING_PRE_DEFINED_CURVE_FONT('continuous');
#297 = OVER_RIDING_STYLED_ITEM('', (#293), #247, #287);
#298 = PRESENTATION_STYLE_ASSIGNMENT((#299));
#299 = CURVE_STYLE('', #301, POSITIVE_LENGTH_MEASURE(1.E-6), #300);
#300 = COLOUR_RGB('', 0., 0., 1.);
#301 = DRAUGHTING_PRE_DEFINED_CURVE_FONT('continuous');
#302 = OVER_RIDING_STYLED_ITEM('', (#298), #254, #287);
#303 = PRESENTATION_STYLE_ASSIGNMENT((#304));
#304 = CURVE_STYLE('', #306, POSITIVE_LENGTH_MEASURE(1.E-6), #305);
#305 = COLOUR_RGB('', 0., 0., 1.);
#306 = DRAUGHTING_PRE_DEFINED_CURVE_FONT('continuous');
#307 = OVER_RIDING_STYLED_ITEM('', (#303), #262, #287);
#308 = PRESENTATION_STYLE_ASSIGNMENT((#309));
#309 = CURVE_STYLE('', #311, POSITIVE_LENGTH_MEASURE(1.E-6), #310);
#310 = COLOUR_RGB('', 0., 0., 1.);
#311 = DRAUGHTING_PRE_DEFINED_CURVE_FONT('continuous');
#312 = OVER_RIDING_STYLED_ITEM('', (#308), #269, #287);
#313 = AXIS2_PLACEMENT_3D('CIP', #314, #315, #316);
#314 = CARTESIAN_POINT('', (3.80938984796112E-31, 6.22120573966855E-15, -101.6));
#315 = DIRECTION('', (-3.74939945665465E-33, -6.12323399573677E-17, 1.));
#316 = DIRECTION('', (1., -6.12323399573677E-17, 0.));
#317 = AXIS2_PLACEMENT_3D('MCS', #318, #319, #320);
#318 = CARTESIAN_POINT('', (1.69847795386455E-31, 2.77382500006875E-15, -45.3));
#319 = DIRECTION('', (-3.74939945665465E-33, -6.12323399573677E-17, 1.));
#320 = DIRECTION('', (1., -6.12323399573677E-17, 0.));
#321 = AXIS2_PLACEMENT_3D('PCS', #322, #323, #324);
#322 = CARTESIAN_POINT('', (0., 0., 0.));
#323 = DIRECTION('', (0., 0., 1.));
#324 = DIRECTION('', (1., 0., 0.));
#325 = CARTESIAN_POINT('CRP', (6.35, 0., -101.6));
#326 = (
   GEOMETRIC_REPRESENTATION_CONTEXT (3)
   GLOBAL_UNCERTAINTY_ASSIGNED_CONTEXT ((#328))
   GLOBAL_UNIT_ASSIGNED_CONTEXT ((#327, #329, #330))
   REPRESENTATION_CONTEXT ('', '3D')
);
#327 = (
   LENGTH_UNIT ()
   NAMED_UNIT (*)
   SI_UNIT (.MILLI., .METRE.)
);
#328 = UNCERTAINTY_MEASURE_WITH_UNIT(LENGTH_MEASURE(1.E-6), #327, 'DISTANCE_ACCURACY_VALUE', '');
#329 = (
   NAMED_UNIT (*)
   SI_UNIT ($, .STERADIAN.)
   SOLID_ANGLE_UNIT ()
);
#330 = (
   NAMED_UNIT (*)
   PLANE_ANGLE_UNIT ()
   SI_UNIT ($, .RADIAN.)
);
#331 = SHAPE_REPRESENTATION('', (), #326);
#332 = PRODUCT_DEFINITION_SHAPE('', '', #333);
#333 = PRODUCT_DEFINITION('', '', #336, #340);
#334 = APPLICATION_CONTEXT('configuration controlled 3D designs of mechanical parts and assemblies');
#335 = APPLICATION_PROTOCOL_DEFINITION('International Standard', 'automotive_design', 2002, #334);
#336 = PRODUCT_DEFINITION_FORMATION_WITH_SPECIFIED_SOURCE('', '', #337, .NOT_KNOWN.);
#337 = PRODUCT('EmptyName', 'EmptyName', '', (#338));
#338 = PRODUCT_CONTEXT('', #334, 'mechanical');
#339 = PRODUCT_RELATED_PRODUCT_CATEGORY('detail', '', (#337));
#340 = PRODUCT_DEFINITION_CONTEXT('part definition', #334, 'design');
#341 = SHAPE_DEFINITION_REPRESENTATION(#332, #331);
#342 = CONSTRUCTIVE_GEOMETRY_REPRESENTATION('supplemental geometry', (#313, #317, #321), #326);
#343 = CONSTRUCTIVE_GEOMETRY_REPRESENTATION_RELATIONSHIP('', '', #331, #342);
#344 = SHAPE_REPRESENTATION_RELATIONSHIP('', '', #331, #345);
#345 = SHAPE_REPRESENTATION('', (#282), #326);
#346 = SHAPE_REPRESENTATION_RELATIONSHIP('', '', #331, #347);
#347 = ADVANCED_BREP_SHAPE_REPRESENTATION('', (#1, #116), #326);
ENDSEC;
END-ISO-10303-21;
