ISO-10303-21;
HEADER;
FILE_DESCRIPTION(('STEP'), '1');
FILE_NAME('C:\\Users\\ds2002\\OneDrive - Sandvik\\HomeShare\\Documents\\Batchrepair\\CorSRT2\\NEW_MILSQ_SLD\\Output\\MOD000000000000000020082272500000.stp', '2019-01-02T12:05:26', (''), (''), 'Express v3.0.0.0', 'Express Tool', 'Unknown');
FILE_SCHEMA(('AUTOMOTIVE_DESIGN'));
ENDSEC;

DATA;
#1 = MANIFOLD_SOLID_BREP('NOCUT', #2);
#2 = CLOSED_SHELL('', (#3, #50, #59, #98));
#3 = ADVANCED_FACE('', (#4), #31, .T.);
#4 = FACE_OUTER_BOUND('', #5, .T.);
#5 = EDGE_LOOP('', (#6, #16, #23, #24));
#6 = ORIENTED_EDGE('', *, *, #7, .T.);
#7 = EDGE_CURVE('', #8, #10, #12, .T.);
#8 = VERTEX_POINT('', #9);
#9 = CARTESIAN_POINT('', (-4.7625, 3.2078092095166E-16, -0.47625));
#10 = VERTEX_POINT('', #11);
#11 = CARTESIAN_POINT('', (-4.28625, 2.62457117142267E-16, 0.));
#12 = LINE('', #13, #14);
#13 = CARTESIAN_POINT('', (-4.7625, 3.2078092095166E-16, -0.47625));
#14 = VECTOR('', #15, 0.673519209080187);
#15 = DIRECTION('', (0.47625, -5.8323803809393E-17, 0.47625));
#16 = ORIENTED_EDGE('', *, *, #17, .T.);
#17 = EDGE_CURVE('', #10, #10, #18, .T.);
#18 = CIRCLE('', #19, 4.28625);
#19 = AXIS2_PLACEMENT_3D('', #20, #21, #22);
#20 = CARTESIAN_POINT('', (2.08166817117217E-16, 2.22044604925031E-15, 1.41748443906901E-31));
#21 = DIRECTION('', (5.09914260327735E-33, 6.12323399573676E-17, -1.));
#22 = DIRECTION('', (-1., -7.01736343115104E-16, -4.80681009253414E-32));
#23 = ORIENTED_EDGE('', *, *, #7, .F.);
#24 = ORIENTED_EDGE('', *, *, #25, .F.);
#25 = EDGE_CURVE('', #8, #8, #26, .T.);
#26 = CIRCLE('', #27, 4.7625);
#27 = AXIS2_PLACEMENT_3D('', #28, #29, #30);
#28 = CARTESIAN_POINT('', (1.11022302462516E-16, -8.88178419700125E-16, -0.47625));
#29 = DIRECTION('', (-2.3311769545935E-17, 1.55183052165052E-16, -1.));
#30 = DIRECTION('', (-1., 8.92037049111416E-18, 2.3311769545935E-17));
#31 = (
   BOUNDED_SURFACE ()
   B_SPLINE_SURFACE (1, 2, ((#32, #33, #34, #35, #36, #37, #38, #39, #40), (#41, #42, #43, #44, #45, #46, #47, #48, #49)), .UNSPECIFIED., .F., .T., .U.)
   B_SPLINE_SURFACE_WITH_KNOTS ((2, 2), (3, 2, 2, 2, 3), (0., 1.), (0., 0.25, 0.5, 0.75, 1.), .UNSPECIFIED.)
   GEOMETRIC_REPRESENTATION_ITEM ()
   RATIONAL_B_SPLINE_SURFACE (((1., 0.707106781186548, 1., 0.707106781186548, 1., 0.707106781186548, 1., 0.707106781186548, 1.), (1., 0.707106781186548, 1., 0.707106781186548, 1., 0.707106781186548, 1., 0.707106781186548, 1.)))
   REPRESENTATION_ITEM ('')
   SURFACE ()
);
#32 = CARTESIAN_POINT('', (-4.7625, 1.85826706490691E-15, -0.47625));
#33 = CARTESIAN_POINT('', (-4.7625, 4.7625, -0.476249999999988));
#34 = CARTESIAN_POINT('', (1.91359274105531E-15, 4.7625, -0.476249999999988));
#35 = CARTESIAN_POINT('', (4.7625, 4.7625, -0.476249999999988));
#36 = CARTESIAN_POINT('', (4.7625, -5.04978731053851E-15, -0.47625));
#37 = CARTESIAN_POINT('', (4.7625, -4.76250000000001, -0.476250000000012));
#38 = CARTESIAN_POINT('', (-4.41122359629619E-15, -4.7625, -0.476250000000012));
#39 = CARTESIAN_POINT('', (-4.76250000000001, -4.7625, -0.476250000000012));
#40 = CARTESIAN_POINT('', (-4.7625, 1.85826706490691E-15, -0.47625));
#41 = CARTESIAN_POINT('', (-4.28625, 2.62457117142269E-16, 1.09476442525376E-46));
#42 = CARTESIAN_POINT('', (-4.28625, 4.28625, 1.09912079437891E-14));
#43 = CARTESIAN_POINT('', (1.56819002228304E-15, 4.28625, 1.09912079437891E-14));
#44 = CARTESIAN_POINT('', (4.28625, 4.28625, 1.09912079437891E-14));
#45 = CARTESIAN_POINT('', (4.28625, -5.95479182075861E-15, 9.76256213390072E-31));
#46 = CARTESIAN_POINT('', (4.28625, -4.28625000000001, -1.09912079437891E-14));
#47 = CARTESIAN_POINT('', (-4.12414468133331E-15, -4.28625, -1.09912079437891E-14));
#48 = CARTESIAN_POINT('', (-4.28625000000001, -4.28625, -1.09912079437891E-14));
#49 = CARTESIAN_POINT('', (-4.28625, 2.62457117142269E-16, 1.09476442525376E-46));
#50 = ADVANCED_FACE('', (#51), #54, .T.);
#51 = FACE_OUTER_BOUND('', #52, .T.);
#52 = EDGE_LOOP('', (#53));
#53 = ORIENTED_EDGE('', *, *, #17, .F.);
#54 = B_SPLINE_SURFACE_WITH_KNOTS('', 1, 1, ((#55, #56), (#57, #58)), .UNSPECIFIED., .F., .F., .U., (2, 2), (2, 2), (2.38159016989385, 10.9540901698938), (2.38159016989385, 10.9540901698938), .UNSPECIFIED.);
#55 = CARTESIAN_POINT('', (4.28625, -4.28625, 1.39483975980597E-14));
#56 = CARTESIAN_POINT('', (-4.28625, -4.28625, -2.62457117142288E-16));
#57 = CARTESIAN_POINT('', (4.28625, 4.28625, 1.44733118323442E-14));
#58 = CARTESIAN_POINT('', (-4.28625, 4.28625, 2.62457117142244E-16));
#59 = ADVANCED_FACE('', (#60), #79, .T.);
#60 = FACE_OUTER_BOUND('', #61, .T.);
#61 = EDGE_LOOP('', (#62, #71, #77, #78));
#62 = ORIENTED_EDGE('', *, *, #63, .F.);
#63 = EDGE_CURVE('', #64, #64, #66, .T.);
#64 = VERTEX_POINT('', #65);
#65 = CARTESIAN_POINT('', (-4.7625, 3.06177007871828E-15, -45.24));
#66 = CIRCLE('', #67, 4.7625);
#67 = AXIS2_PLACEMENT_3D('', #68, #69, #70);
#68 = CARTESIAN_POINT('', (-1.38777878078145E-17, -5.55111512312578E-16, -45.24));
#69 = DIRECTION('', (0., 0., -1.));
#70 = DIRECTION('', (-1., 7.59450202841125E-16, 0.));
#71 = ORIENTED_EDGE('', *, *, #72, .T.);
#72 = EDGE_CURVE('', #64, #8, #73, .T.);
#73 = LINE('', #74, #75);
#74 = CARTESIAN_POINT('', (-4.7625, 3.06177007871828E-15, -45.24));
#75 = VECTOR('', #76, 44.76375);
#76 = DIRECTION('', (0., -2.74098915776662E-15, 44.76375));
#77 = ORIENTED_EDGE('', *, *, #25, .T.);
#78 = ORIENTED_EDGE('', *, *, #72, .F.);
#79 = (
   BOUNDED_SURFACE ()
   B_SPLINE_SURFACE (1, 2, ((#80, #81, #82, #83, #84, #85, #86, #87, #88), (#89, #90, #91, #92, #93, #94, #95, #96, #97)), .UNSPECIFIED., .F., .T., .U.)
   B_SPLINE_SURFACE_WITH_KNOTS ((2, 2), (3, 2, 2, 2, 3), (-0.141240957328149, 1.), (0., 0.25, 0.5, 0.75, 1.), .UNSPECIFIED.)
   GEOMETRIC_REPRESENTATION_ITEM ()
   RATIONAL_B_SPLINE_SURFACE (((1., 0.707106781186548, 1., 0.707106781186548, 1., 0.707106781186548, 1., 0.707106781186548, 1.), (1., 0.707106781186548, 1., 0.707106781186548, 1., 0.707106781186548, 1., 0.707106781186548, 1.)))
   REPRESENTATION_ITEM ('')
   SURFACE ()
);
#80 = CARTESIAN_POINT('', (-4.7625, 2.87429387758952E-15, -45.24));
#81 = CARTESIAN_POINT('', (-4.7625, 4.7625, -45.24));
#82 = CARTESIAN_POINT('', (1.72515870072332E-15, 4.7625, -45.24));
#83 = CARTESIAN_POINT('', (4.7625, 4.7625, -45.24));
#84 = CARTESIAN_POINT('', (4.7625, -7.36743605020373E-16, -45.24));
#85 = CARTESIAN_POINT('', (4.7625, -4.7625, -45.24));
#86 = CARTESIAN_POINT('', (-1.30264074379265E-15, -4.7625, -45.24));
#87 = CARTESIAN_POINT('', (-4.7625, -4.7625, -45.24));
#88 = CARTESIAN_POINT('', (-4.7625, 2.87429387758952E-15, -45.24));
#89 = CARTESIAN_POINT('', (-4.7625, 3.2078092095166E-16, -0.47625));
#90 = CARTESIAN_POINT('', (-4.7625, 4.7625, -0.47625));
#91 = CARTESIAN_POINT('', (3.29044203674109E-15, 4.7625, -0.47625));
#92 = CARTESIAN_POINT('', (4.7625, 4.7625, -0.47625));
#93 = CARTESIAN_POINT('', (4.7625, -3.29025656165823E-15, -0.47625));
#94 = CARTESIAN_POINT('', (4.7625, -4.7625, -0.476250000000001));
#95 = CARTESIAN_POINT('', (2.62642592225128E-16, -4.7625, -0.47625));
#96 = CARTESIAN_POINT('', (-4.7625, -4.7625, -0.47625));
#97 = CARTESIAN_POINT('', (-4.7625, 3.2078092095166E-16, -0.47625));
#98 = ADVANCED_FACE('', (#99), #102, .T.);
#99 = FACE_OUTER_BOUND('', #100, .T.);
#100 = EDGE_LOOP('', (#101));
#101 = ORIENTED_EDGE('', *, *, #63, .T.);
#102 = B_SPLINE_SURFACE_WITH_KNOTS('', 1, 1, ((#103, #104), (#105, #106)), .UNSPECIFIED., .F., .F., .U., (2, 2), (2, 2), (62.1740341624339, 71.6990341624339), (58.1270327178356, 67.6520327178356), .UNSPECIFIED.);
#103 = CARTESIAN_POINT('', (-4.76250000000001, 4.7625, -45.24));
#104 = CARTESIAN_POINT('', (-4.76250000000001, -4.7625, -45.24));
#105 = CARTESIAN_POINT('', (4.7625, 4.7625, -45.24));
#106 = CARTESIAN_POINT('', (4.7625, -4.7625, -45.24));
#107 = DRAUGHTING_MODEL('', (#115, #229, #276, #281, #286, #291, #296, #301), #315);
#108 = PRESENTATION_STYLE_ASSIGNMENT((#109));
#109 = SURFACE_STYLE_USAGE(.POSITIVE., #110);
#110 = SURFACE_SIDE_STYLE('', (#111));
#111 = SURFACE_STYLE_FILL_AREA(#112);
#112 = FILL_AREA_STYLE('', (#113));
#113 = FILL_AREA_STYLE_COLOUR('', #114);
#114 = COLOUR_RGB('', 0.50196078431373, 0.50196078431373, 0.50196078431373);
#115 = STYLED_ITEM('', (#108), #1);
#116 = MANIFOLD_SOLID_BREP('CUT', #117);
#117 = CLOSED_SHELL('', (#118, #135, #174, #213));
#118 = ADVANCED_FACE('', (#119), #130, .T.);
#119 = FACE_OUTER_BOUND('', #120, .T.);
#120 = EDGE_LOOP('', (#121));
#121 = ORIENTED_EDGE('', *, *, #122, .F.);
#122 = EDGE_CURVE('', #123, #123, #125, .T.);
#123 = VERTEX_POINT('', #124);
#124 = CARTESIAN_POINT('', (-4.7625, 3.06177007871828E-15, -45.24));
#125 = CIRCLE('', #126, 4.7625);
#126 = AXIS2_PLACEMENT_3D('', #127, #128, #129);
#127 = CARTESIAN_POINT('', (-1.38777878078145E-17, -5.55111512312578E-16, -45.24));
#128 = DIRECTION('', (0., 0., -1.));
#129 = DIRECTION('', (-1., 7.59450202841125E-16, 0.));
#130 = B_SPLINE_SURFACE_WITH_KNOTS('', 1, 1, ((#131, #132), (#133, #134)), .UNSPECIFIED., .F., .F., .U., (2, 2), (2, 2), (58.1270327178356, 67.6520327178356), (62.1740341624339, 71.6990341624339), .UNSPECIFIED.);
#131 = CARTESIAN_POINT('', (-4.7625, 4.7625, -45.24));
#132 = CARTESIAN_POINT('', (4.7625, 4.7625, -45.24));
#133 = CARTESIAN_POINT('', (-4.7625, -4.7625, -45.24));
#134 = CARTESIAN_POINT('', (4.7625, -4.7625, -45.24));
#135 = ADVANCED_FACE('', (#136), #155, .T.);
#136 = FACE_OUTER_BOUND('', #137, .T.);
#137 = EDGE_LOOP('', (#138, #139, #147, #154));
#138 = ORIENTED_EDGE('', *, *, #122, .T.);
#139 = ORIENTED_EDGE('', *, *, #140, .F.);
#140 = EDGE_CURVE('', #141, #123, #143, .T.);
#141 = VERTEX_POINT('', #142);
#142 = CARTESIAN_POINT('', (-4.7625, 4.17362690766416E-15, -63.398));
#143 = LINE('', #144, #145);
#144 = CARTESIAN_POINT('', (-4.7625, 4.17362690766416E-15, -63.398));
#145 = VECTOR('', #146, 18.158);
#146 = DIRECTION('', (0., -1.11185682894588E-15, 18.158));
#147 = ORIENTED_EDGE('', *, *, #148, .F.);
#148 = EDGE_CURVE('', #141, #141, #149, .T.);
#149 = CIRCLE('', #150, 4.7625);
#150 = AXIS2_PLACEMENT_3D('', #151, #152, #153);
#151 = CARTESIAN_POINT('', (-1.38777878078145E-17, 1.11022302462516E-16, -63.398));
#152 = DIRECTION('', (0., 0., -1.));
#153 = DIRECTION('', (-1., 8.53040337050214E-16, 0.));
#154 = ORIENTED_EDGE('', *, *, #140, .T.);
#155 = (
   BOUNDED_SURFACE ()
   B_SPLINE_SURFACE (1, 2, ((#156, #157, #158, #159, #160, #161, #162, #163, #164), (#165, #166, #167, #168, #169, #170, #171, #172, #173)), .UNSPECIFIED., .F., .T., .U.)
   B_SPLINE_SURFACE_WITH_KNOTS ((2, 2), (3, 2, 2, 2, 3), (-0.604174766563625, -0.141240957328149), (0., 0.25, 0.5, 0.75, 1.), .UNSPECIFIED.)
   GEOMETRIC_REPRESENTATION_ITEM ()
   RATIONAL_B_SPLINE_SURFACE (((1., 0.707106781186548, 1., 0.707106781186548, 1., 0.707106781186548, 1., 0.707106781186548, 1.), (1., 0.707106781186548, 1., 0.707106781186548, 1., 0.707106781186548, 1., 0.707106781186548, 1.)))
   REPRESENTATION_ITEM ('')
   SURFACE ()
);
#156 = CARTESIAN_POINT('', (-4.7625, 4.17199310334344E-15, -63.398));
#157 = CARTESIAN_POINT('', (-4.7625, 4.7625, -63.398));
#158 = CARTESIAN_POINT('', (3.35301814759952E-15, 4.7625, -63.398));
#159 = CARTESIAN_POINT('', (4.7625, 4.7625, -63.398));
#160 = CARTESIAN_POINT('', (4.7625, 1.86003218476023E-16, -63.398));
#161 = CARTESIAN_POINT('', (4.7625, -4.7625, -63.398));
#162 = CARTESIAN_POINT('', (-4.97336991739619E-17, -4.7625, -63.398));
#163 = CARTESIAN_POINT('', (-4.7625, -4.7625, -63.398));
#164 = CARTESIAN_POINT('', (-4.7625, 4.17199310334344E-15, -63.398));
#165 = CARTESIAN_POINT('', (-4.7625, 3.06177007871828E-15, -45.24));
#166 = CARTESIAN_POINT('', (-4.7625, 4.7625, -45.24));
#167 = CARTESIAN_POINT('', (3.35301814759952E-15, 4.7625, -45.24));
#168 = CARTESIAN_POINT('', (4.7625, 4.7625, -45.24));
#169 = CARTESIAN_POINT('', (4.7625, -9.24219806149133E-16, -45.24));
#170 = CARTESIAN_POINT('', (4.7625, -4.7625, -45.24));
#171 = CARTESIAN_POINT('', (-4.97336991739627E-17, -4.7625, -45.24));
#172 = CARTESIAN_POINT('', (-4.7625, -4.7625, -45.24));
#173 = CARTESIAN_POINT('', (-4.7625, 3.06177007871828E-15, -45.24));
#174 = ADVANCED_FACE('', (#175), #194, .T.);
#175 = FACE_OUTER_BOUND('', #176, .T.);
#176 = EDGE_LOOP('', (#177, #185, #186, #187));
#177 = ORIENTED_EDGE('', *, *, #178, .F.);
#178 = EDGE_CURVE('', #141, #179, #181, .T.);
#179 = VERTEX_POINT('', #180);
#180 = CARTESIAN_POINT('', (-4.6605, 4.17362690766416E-15, -63.5));
#181 = LINE('', #182, #183);
#182 = CARTESIAN_POINT('', (-4.7625, 4.17362690766416E-15, -63.398));
#183 = VECTOR('', #184, 0.144249783362054);
#184 = DIRECTION('', (0.102, 0., -0.101999999999997));
#185 = ORIENTED_EDGE('', *, *, #148, .T.);
#186 = ORIENTED_EDGE('', *, *, #178, .T.);
#187 = ORIENTED_EDGE('', *, *, #188, .F.);
#188 = EDGE_CURVE('', #179, #179, #189, .T.);
#189 = CIRCLE('', #190, 4.6605);
#190 = AXIS2_PLACEMENT_3D('', #191, #192, #193);
#191 = CARTESIAN_POINT('', (1.55431223447522E-15, 8.88178419700125E-16, -63.5));
#192 = DIRECTION('', (0., 0., -1.));
#193 = DIRECTION('', (-1., 7.04956225289998E-16, 0.));
#194 = (
   BOUNDED_SURFACE ()
   B_SPLINE_SURFACE (2, 1, ((#195, #196), (#197, #198), (#199, #200), (#201, #202), (#203, #204), (#205, #206), (#207, #208), (#209, #210), (#211, #212)), .UNSPECIFIED., .T., .F., .U.)
   B_SPLINE_SURFACE_WITH_KNOTS ((3, 2, 2, 2, 3), (2, 2), (0., 0.25, 0.5, 0.75, 1.), (0., 1.), .UNSPECIFIED.)
   GEOMETRIC_REPRESENTATION_ITEM ()
   RATIONAL_B_SPLINE_SURFACE (((1., 1.), (0.707106781186548, 0.707106781186548), (1., 1.), (0.707106781186548, 0.707106781186548), (1., 1.), (0.707106781186548, 0.707106781186548), (1., 1.), (0.707106781186548, 0.707106781186548), (1., 1.)))
   REPRESENTATION_ITEM ('')
   SURFACE ()
);
#195 = CARTESIAN_POINT('', (-4.7625, 4.17362690766416E-15, -63.398));
#196 = CARTESIAN_POINT('', (-4.6605, 1.34672623912743E-15, -63.5));
#197 = CARTESIAN_POINT('', (-4.7625, 4.7625, -63.3980000000001));
#198 = CARTESIAN_POINT('', (-4.6605, 4.6605, -63.5000000000001));
#199 = CARTESIAN_POINT('', (3.4101631031515E-15, 4.7625, -63.3980000000001));
#200 = CARTESIAN_POINT('', (3.36506569485331E-15, 4.6605, -63.5000000000001));
#201 = CARTESIAN_POINT('', (4.7625, 4.7625, -63.3980000000001));
#202 = CARTESIAN_POINT('', (4.6605, 4.6605, -63.5000000000001));
#203 = CARTESIAN_POINT('', (4.7625, -3.7675190769731E-17, -63.398));
#204 = CARTESIAN_POINT('', (4.6605, -2.77438104271008E-15, -63.5));
#205 = CARTESIAN_POINT('', (4.7625, -4.7625, -63.3979999999999));
#206 = CARTESIAN_POINT('', (4.6605, -4.6605, -63.4999999999999));
#207 = CARTESIAN_POINT('', (-2.17900957188459E-16, -4.7625, -63.3979999999999));
#208 = CARTESIAN_POINT('', (-1.85294946241573E-16, -4.6605, -63.4999999999999));
#209 = CARTESIAN_POINT('', (-4.7625, -4.7625, -63.3979999999999));
#210 = CARTESIAN_POINT('', (-4.6605, -4.6605, -63.4999999999999));
#211 = CARTESIAN_POINT('', (-4.7625, 4.17362690766416E-15, -63.398));
#212 = CARTESIAN_POINT('', (-4.6605, 1.34672623912743E-15, -63.5));
#213 = ADVANCED_FACE('', (#214), #217, .T.);
#214 = FACE_OUTER_BOUND('', #215, .T.);
#215 = EDGE_LOOP('', (#216));
#216 = ORIENTED_EDGE('', *, *, #188, .T.);
#217 = B_SPLINE_SURFACE_WITH_KNOTS('', 1, 1, ((#218, #219), (#220, #221)), .UNSPECIFIED., .F., .F., .U., (2, 2), (2, 2), (2.58953653818379, 11.9105365381838), (2.58953653818379, 11.9105365381838), .UNSPECIFIED.);
#218 = CARTESIAN_POINT('', (4.6605, -4.6605, -63.5));
#219 = CARTESIAN_POINT('', (4.6605, 4.6605, -63.5));
#220 = CARTESIAN_POINT('', (-4.6605, -4.6605, -63.5));
#221 = CARTESIAN_POINT('', (-4.6605, 4.6605, -63.5));
#222 = PRESENTATION_STYLE_ASSIGNMENT((#223));
#223 = SURFACE_STYLE_USAGE(.POSITIVE., #224);
#224 = SURFACE_SIDE_STYLE('', (#225));
#225 = SURFACE_STYLE_FILL_AREA(#226);
#226 = FILL_AREA_STYLE('', (#227));
#227 = FILL_AREA_STYLE_COLOUR('', #228);
#228 = COLOUR_RGB('', 0.8, 0.8, 0.8);
#229 = STYLED_ITEM('', (#222), #116);
#230 = TRIMMED_CURVE('cutting part line', #231, (#235), (#236), .T., .CARTESIAN.);
#231 = LINE('', #232, #233);
#232 = CARTESIAN_POINT('', (-5.08868494257168E-31, -2.77015105967131E-15, -45.24));
#233 = VECTOR('', #234, 4.7625);
#234 = DIRECTION('', (4.7625, -8.74857057140897E-16, 0.));
#235 = CARTESIAN_POINT('', (-5.08868494257168E-31, -2.77015105967131E-15, -45.24));
#236 = CARTESIAN_POINT('', (4.7625, -3.64500811681221E-15, -45.24));
#237 = TRIMMED_CURVE('cutting part line', #238, (#242), (#243), .T., .CARTESIAN.);
#238 = LINE('', #239, #240);
#239 = CARTESIAN_POINT('', (4.7625, -3.64500811681221E-15, -45.24));
#240 = VECTOR('', #241, 18.158);
#241 = DIRECTION('', (0., -1.11185682894588E-15, -18.158));
#242 = CARTESIAN_POINT('', (4.7625, -3.64500811681221E-15, -45.24));
#243 = CARTESIAN_POINT('', (4.7625, -4.75686494575809E-15, -63.398));
#244 = TRIMMED_CURVE('cutting part line', #245, (#249), (#250), .T., .CARTESIAN.);
#245 = LINE('', #246, #247);
#246 = CARTESIAN_POINT('', (4.7625, -4.75686494575809E-15, -63.398));
#247 = VECTOR('', #248, 0.144249783362054);
#248 = DIRECTION('', (-0.102, 1.24913973513026E-17, -0.101999999999997));
#249 = CARTESIAN_POINT('', (4.7625, -4.75686494575809E-15, -63.398));
#250 = CARTESIAN_POINT('', (4.6605, -4.74437354840678E-15, -63.5));
#251 = TRIMMED_CURVE('cutting part line', #252, (#256), (#257), .T., .CARTESIAN.);
#252 = LINE('', #253, #254);
#253 = CARTESIAN_POINT('', (4.6605, -4.74437354840678E-15, -63.5));
#254 = VECTOR('', #255, 4.6605);
#255 = DIRECTION('', (-4.6605, 8.56119961113934E-16, 0.));
#256 = CARTESIAN_POINT('', (4.6605, -4.74437354840678E-15, -63.5));
#257 = CARTESIAN_POINT('', (-4.7617373099514E-31, -3.88825358729285E-15, -63.5));
#258 = TRIMMED_CURVE('cutting part line', #259, (#263), (#264), .T., .CARTESIAN.);
#259 = LINE('', #260, #261);
#260 = CARTESIAN_POINT('', (-7.1426059649271E-31, -3.88825358729285E-15, -63.5));
#261 = VECTOR('', #262, 18.26);
#262 = DIRECTION('', (2.05392102235542E-31, 1.11810252762154E-15, 18.26));
#263 = CARTESIAN_POINT('', (-7.1426059649271E-31, -3.88825358729285E-15, -63.5));
#264 = CARTESIAN_POINT('', (-5.08868494257168E-31, -2.77015105967131E-15, -45.24));
#265 = COMPOSITE_CURVE('cutting part line', (#266, #267, #268, #269, #270), .U.);
#266 = COMPOSITE_CURVE_SEGMENT(.CONTINUOUS., .T., #230);
#267 = COMPOSITE_CURVE_SEGMENT(.CONTINUOUS., .T., #237);
#268 = COMPOSITE_CURVE_SEGMENT(.CONTINUOUS., .T., #244);
#269 = COMPOSITE_CURVE_SEGMENT(.CONTINUOUS., .T., #251);
#270 = COMPOSITE_CURVE_SEGMENT(.CONTINUOUS., .T., #258);
#271 = GEOMETRIC_SET('', (#265, #314));
#272 = PRESENTATION_STYLE_ASSIGNMENT((#273));
#273 = CURVE_STYLE('', #275, POSITIVE_LENGTH_MEASURE(1.E-6), #274);
#274 = COLOUR_RGB('', 0., 0., 1.);
#275 = DRAUGHTING_PRE_DEFINED_CURVE_FONT('continuous');
#276 = STYLED_ITEM('', (#272), #265);
#277 = PRESENTATION_STYLE_ASSIGNMENT((#278));
#278 = CURVE_STYLE('', #280, POSITIVE_LENGTH_MEASURE(1.E-6), #279);
#279 = COLOUR_RGB('', 0., 0., 1.);
#280 = DRAUGHTING_PRE_DEFINED_CURVE_FONT('continuous');
#281 = OVER_RIDING_STYLED_ITEM('', (#277), #230, #276);
#282 = PRESENTATION_STYLE_ASSIGNMENT((#283));
#283 = CURVE_STYLE('', #285, POSITIVE_LENGTH_MEASURE(1.E-6), #284);
#284 = COLOUR_RGB('', 0., 0., 1.);
#285 = DRAUGHTING_PRE_DEFINED_CURVE_FONT('continuous');
#286 = OVER_RIDING_STYLED_ITEM('', (#282), #237, #276);
#287 = PRESENTATION_STYLE_ASSIGNMENT((#288));
#288 = CURVE_STYLE('', #290, POSITIVE_LENGTH_MEASURE(1.E-6), #289);
#289 = COLOUR_RGB('', 0., 0., 1.);
#290 = DRAUGHTING_PRE_DEFINED_CURVE_FONT('continuous');
#291 = OVER_RIDING_STYLED_ITEM('', (#287), #244, #276);
#292 = PRESENTATION_STYLE_ASSIGNMENT((#293));
#293 = CURVE_STYLE('', #295, POSITIVE_LENGTH_MEASURE(1.E-6), #294);
#294 = COLOUR_RGB('', 0., 0., 1.);
#295 = DRAUGHTING_PRE_DEFINED_CURVE_FONT('continuous');
#296 = OVER_RIDING_STYLED_ITEM('', (#292), #251, #276);
#297 = PRESENTATION_STYLE_ASSIGNMENT((#298));
#298 = CURVE_STYLE('', #300, POSITIVE_LENGTH_MEASURE(1.E-6), #299);
#299 = COLOUR_RGB('', 0., 0., 1.);
#300 = DRAUGHTING_PRE_DEFINED_CURVE_FONT('continuous');
#301 = OVER_RIDING_STYLED_ITEM('', (#297), #258, #276);
#302 = AXIS2_PLACEMENT_3D('CIP', #303, #304, #305);
#303 = CARTESIAN_POINT('', (2.3808686549757E-31, 3.88825358729285E-15, -63.5));
#304 = DIRECTION('', (-3.74939945665465E-33, -6.12323399573677E-17, 1.));
#305 = DIRECTION('', (1., -6.12323399573677E-17, 0.));
#306 = AXIS2_PLACEMENT_3D('MCS', #307, #308, #309);
#307 = CARTESIAN_POINT('', (1.48851158429189E-31, 2.4309238963075E-15, -39.7));
#308 = DIRECTION('', (-3.74939945665465E-33, -6.12323399573677E-17, 1.));
#309 = DIRECTION('', (1., -6.12323399573677E-17, 0.));
#310 = AXIS2_PLACEMENT_3D('PCS', #311, #312, #313);
#311 = CARTESIAN_POINT('', (0., 0., 0.));
#312 = DIRECTION('', (0., 0., 1.));
#313 = DIRECTION('', (1., 0., 0.));
#314 = CARTESIAN_POINT('CRP', (4.7625, 0., -63.5));
#315 = (
   GEOMETRIC_REPRESENTATION_CONTEXT (3)
   GLOBAL_UNCERTAINTY_ASSIGNED_CONTEXT ((#317))
   GLOBAL_UNIT_ASSIGNED_CONTEXT ((#316, #318, #319))
   REPRESENTATION_CONTEXT ('', '3D')
);
#316 = (
   LENGTH_UNIT ()
   NAMED_UNIT (*)
   SI_UNIT (.MILLI., .METRE.)
);
#317 = UNCERTAINTY_MEASURE_WITH_UNIT(LENGTH_MEASURE(1.E-6), #316, 'DISTANCE_ACCURACY_VALUE', '');
#318 = (
   NAMED_UNIT (*)
   SI_UNIT ($, .STERADIAN.)
   SOLID_ANGLE_UNIT ()
);
#319 = (
   NAMED_UNIT (*)
   PLANE_ANGLE_UNIT ()
   SI_UNIT ($, .RADIAN.)
);
#320 = SHAPE_REPRESENTATION('', (), #315);
#321 = PRODUCT_DEFINITION_SHAPE('', '', #322);
#322 = PRODUCT_DEFINITION('', '', #325, #329);
#323 = APPLICATION_CONTEXT('configuration controlled 3D designs of mechanical parts and assemblies');
#324 = APPLICATION_PROTOCOL_DEFINITION('International Standard', 'automotive_design', 2002, #323);
#325 = PRODUCT_DEFINITION_FORMATION_WITH_SPECIFIED_SOURCE('', '', #326, .NOT_KNOWN.);
#326 = PRODUCT('NONE', '1P330-0953-XA       1620', '', (#327));
#327 = PRODUCT_CONTEXT('', #323, 'mechanical');
#328 = PRODUCT_RELATED_PRODUCT_CATEGORY('detail', '', (#326));
#329 = PRODUCT_DEFINITION_CONTEXT('part definition', #323, 'design');
#330 = SHAPE_DEFINITION_REPRESENTATION(#321, #320);
#331 = CONSTRUCTIVE_GEOMETRY_REPRESENTATION('supplemental geometry', (#302, #306, #310), #315);
#332 = CONSTRUCTIVE_GEOMETRY_REPRESENTATION_RELATIONSHIP('', '', #320, #331);
#333 = SHAPE_REPRESENTATION_RELATIONSHIP('', '', #320, #334);
#334 = SHAPE_REPRESENTATION('', (#271), #315);
#335 = SHAPE_REPRESENTATION_RELATIONSHIP('', '', #320, #336);
#336 = ADVANCED_BREP_SHAPE_REPRESENTATION('', (#1, #116), #315);
ENDSEC;
END-ISO-10303-21;
