ISO-10303-21;
HEADER;
FILE_DESCRIPTION(('STEP'), '1');
FILE_NAME('C:\\Users\\ds2002\\OneDrive - Sandvik\\HomeShare\\Documents\\Batchrepair\\CorSRT2\\NEW_MILSQ_SLD\\Output\\MOD000000000000000020084955100000.stp', '2019-01-02T12:07:26', (''), (''), 'Express v3.0.0.0', 'Express Tool', 'Unknown');
FILE_SCHEMA(('AUTOMOTIVE_DESIGN'));
ENDSEC;

DATA;
#1 = MANIFOLD_SOLID_BREP('NOCUT', #2);
#2 = CLOSED_SHELL('', (#3, #50, #97, #106, #137, #176));
#3 = ADVANCED_FACE('', (#4), #31, .T.);
#4 = FACE_OUTER_BOUND('', #5, .T.);
#5 = EDGE_LOOP('', (#6, #16, #23, #24));
#6 = ORIENTED_EDGE('', *, *, #7, .F.);
#7 = EDGE_CURVE('', #8, #10, #12, .T.);
#8 = VERTEX_POINT('', #9);
#9 = CARTESIAN_POINT('', (-4.7625, 3.71634379286254E-15, -55.93));
#10 = VERTEX_POINT('', #11);
#11 = CARTESIAN_POINT('', (-3.97, 3.74252061819431E-15, -57.15));
#12 = LINE('', #13, #14);
#13 = CARTESIAN_POINT('', (-4.7625, 3.71634379286254E-15, -55.93));
#14 = VECTOR('', #15, 1.45480454013589);
#15 = DIRECTION('', (0.7925, 2.61768253317702E-17, -1.22));
#16 = ORIENTED_EDGE('', *, *, #17, .T.);
#17 = EDGE_CURVE('', #8, #8, #18, .T.);
#18 = CIRCLE('', #19, 4.7625);
#19 = AXIS2_PLACEMENT_3D('', #20, #21, #22);
#20 = CARTESIAN_POINT('', (0., -3.33066907387547E-16, -55.93));
#21 = DIRECTION('', (0., 0., -1.));
#22 = DIRECTION('', (-1., 8.50269963307105E-16, 0.));
#23 = ORIENTED_EDGE('', *, *, #7, .T.);
#24 = ORIENTED_EDGE('', *, *, #25, .F.);
#25 = EDGE_CURVE('', #10, #10, #26, .T.);
#26 = CIRCLE('', #27, 3.97);
#27 = AXIS2_PLACEMENT_3D('', #28, #29, #30);
#28 = CARTESIAN_POINT('', (1.346145417358E-15, 1.11022302462516E-15, -57.15));
#29 = DIRECTION('', (1.78978019083148E-15, -5.82272155566929E-15, -1.));
#30 = DIRECTION('', (-1., 4.18117892958729E-16, -1.78978019083149E-15));
#31 = (
   BOUNDED_SURFACE ()
   B_SPLINE_SURFACE (2, 1, ((#32, #33), (#34, #35), (#36, #37), (#38, #39), (#40, #41), (#42, #43), (#44, #45), (#46, #47), (#48, #49)), .UNSPECIFIED., .T., .F., .U.)
   B_SPLINE_SURFACE_WITH_KNOTS ((3, 2, 2, 2, 3), (2, 2), (0., 0.25, 0.5, 0.75, 1.), (0., 1.), .UNSPECIFIED.)
   GEOMETRIC_REPRESENTATION_ITEM ()
   RATIONAL_B_SPLINE_SURFACE (((1., 1.), (0.707106781186548, 0.707106781186548), (1., 1.), (0.707106781186548, 0.707106781186548), (1., 1.), (0.707106781186548, 0.707106781186548), (1., 1.), (0.707106781186548, 0.707106781186548), (1., 1.)))
   REPRESENTATION_ITEM ('')
   SURFACE ()
);
#32 = CARTESIAN_POINT('', (-4.7625, 3.71634379286254E-15, -55.93));
#33 = CARTESIAN_POINT('', (-3.97, 2.30194820789117E-15, -57.15));
#34 = CARTESIAN_POINT('', (-4.7625, 4.7625, -55.93));
#35 = CARTESIAN_POINT('', (-3.97, 3.97, -57.15));
#36 = CARTESIAN_POINT('', (3.53574707627809E-15, 4.7625, -55.93));
#37 = CARTESIAN_POINT('', (3.16907884288557E-15, 3.97, -57.15));
#38 = CARTESIAN_POINT('', (4.7625, 4.7625, -55.93));
#39 = CARTESIAN_POINT('', (3.97, 3.97, -57.15));
#40 = CARTESIAN_POINT('', (4.7625, -6.90615100593267E-16, -55.93));
#41 = CARTESIAN_POINT('', (3.97, -1.37167421877961E-15, -57.15));
#42 = CARTESIAN_POINT('', (4.7625, -4.7625, -55.93));
#43 = CARTESIAN_POINT('', (3.97, -3.97, -57.15));
#44 = CARTESIAN_POINT('', (-2.87973779083788E-16, -4.7625, -55.93));
#45 = CARTESIAN_POINT('', (-1.83588045236996E-17, -3.97, -57.15));
#46 = CARTESIAN_POINT('', (-4.7625, -4.7625, -55.93));
#47 = CARTESIAN_POINT('', (-3.97, -3.97, -57.15));
#48 = CARTESIAN_POINT('', (-4.7625, 3.71634379286254E-15, -55.93));
#49 = CARTESIAN_POINT('', (-3.97, 2.30194820789117E-15, -57.15));
#50 = ADVANCED_FACE('', (#51), #78, .T.);
#51 = FACE_OUTER_BOUND('', #52, .T.);
#52 = EDGE_LOOP('', (#53, #63, #70, #71));
#53 = ORIENTED_EDGE('', *, *, #54, .T.);
#54 = EDGE_CURVE('', #55, #57, #59, .T.);
#55 = VERTEX_POINT('', #56);
#56 = CARTESIAN_POINT('', (-4.7625, 3.2078092095166E-16, -0.47625));
#57 = VERTEX_POINT('', #58);
#58 = CARTESIAN_POINT('', (-4.28625, 2.62457117142267E-16, 0.));
#59 = LINE('', #60, #61);
#60 = CARTESIAN_POINT('', (-4.7625, 3.2078092095166E-16, -0.47625));
#61 = VECTOR('', #62, 0.673519209080187);
#62 = DIRECTION('', (0.47625, -5.8323803809393E-17, 0.47625));
#63 = ORIENTED_EDGE('', *, *, #64, .T.);
#64 = EDGE_CURVE('', #57, #57, #65, .T.);
#65 = CIRCLE('', #66, 4.28625);
#66 = AXIS2_PLACEMENT_3D('', #67, #68, #69);
#67 = CARTESIAN_POINT('', (2.08166817117217E-16, 2.22044604925031E-15, 1.41748443906901E-31));
#68 = DIRECTION('', (5.09914260327735E-33, 6.12323399573676E-17, -1.));
#69 = DIRECTION('', (-1., -7.01736343115104E-16, -4.80681009253414E-32));
#70 = ORIENTED_EDGE('', *, *, #54, .F.);
#71 = ORIENTED_EDGE('', *, *, #72, .F.);
#72 = EDGE_CURVE('', #55, #55, #73, .T.);
#73 = CIRCLE('', #74, 4.76249999999998);
#74 = AXIS2_PLACEMENT_3D('', #75, #76, #77);
#75 = CARTESIAN_POINT('', (-8.74300631892311E-16, 2.1094237467878E-15, -0.47625));
#76 = DIRECTION('', (-2.33117695459352E-17, 1.55183052165054E-16, -1.));
#77 = DIRECTION('', (-1., -6.20497407249134E-16, 2.33117695459351E-17));
#78 = (
   BOUNDED_SURFACE ()
   B_SPLINE_SURFACE (1, 2, ((#79, #80, #81, #82, #83, #84, #85, #86, #87), (#88, #89, #90, #91, #92, #93, #94, #95, #96)), .UNSPECIFIED., .F., .T., .U.)
   B_SPLINE_SURFACE_WITH_KNOTS ((2, 2), (3, 2, 2, 2, 3), (0., 1.), (0., 0.25, 0.5, 0.75, 1.), .UNSPECIFIED.)
   GEOMETRIC_REPRESENTATION_ITEM ()
   RATIONAL_B_SPLINE_SURFACE (((1., 0.707106781186548, 1., 0.707106781186548, 1., 0.707106781186548, 1., 0.707106781186548, 1.), (1., 0.707106781186548, 1., 0.707106781186548, 1., 0.707106781186548, 1., 0.707106781186548, 1.)))
   REPRESENTATION_ITEM ('')
   SURFACE ()
);
#79 = CARTESIAN_POINT('', (-4.7625, 1.85826706490691E-15, -0.47625));
#80 = CARTESIAN_POINT('', (-4.7625, 4.7625, -0.476249999999988));
#81 = CARTESIAN_POINT('', (1.91359274105531E-15, 4.7625, -0.476249999999988));
#82 = CARTESIAN_POINT('', (4.7625, 4.7625, -0.476249999999988));
#83 = CARTESIAN_POINT('', (4.7625, -5.04978731053851E-15, -0.47625));
#84 = CARTESIAN_POINT('', (4.7625, -4.76250000000001, -0.476250000000012));
#85 = CARTESIAN_POINT('', (-4.41122359629619E-15, -4.7625, -0.476250000000012));
#86 = CARTESIAN_POINT('', (-4.76250000000001, -4.7625, -0.476250000000012));
#87 = CARTESIAN_POINT('', (-4.7625, 1.85826706490691E-15, -0.47625));
#88 = CARTESIAN_POINT('', (-4.28625, 2.62457117142269E-16, 1.09476442525376E-46));
#89 = CARTESIAN_POINT('', (-4.28625, 4.28625, 1.09912079437891E-14));
#90 = CARTESIAN_POINT('', (1.56819002228304E-15, 4.28625, 1.09912079437891E-14));
#91 = CARTESIAN_POINT('', (4.28625, 4.28625, 1.09912079437891E-14));
#92 = CARTESIAN_POINT('', (4.28625, -5.95479182075861E-15, 9.76256213390072E-31));
#93 = CARTESIAN_POINT('', (4.28625, -4.28625000000001, -1.09912079437891E-14));
#94 = CARTESIAN_POINT('', (-4.12414468133331E-15, -4.28625, -1.09912079437891E-14));
#95 = CARTESIAN_POINT('', (-4.28625000000001, -4.28625, -1.09912079437891E-14));
#96 = CARTESIAN_POINT('', (-4.28625, 2.62457117142269E-16, 1.09476442525376E-46));
#97 = ADVANCED_FACE('', (#98), #101, .T.);
#98 = FACE_OUTER_BOUND('', #99, .T.);
#99 = EDGE_LOOP('', (#100));
#100 = ORIENTED_EDGE('', *, *, #64, .F.);
#101 = B_SPLINE_SURFACE_WITH_KNOTS('', 1, 1, ((#102, #103), (#104, #105)), .UNSPECIFIED., .F., .F., .U., (2, 2), (2, 2), (2.38159016989385, 10.9540901698938), (2.38159016989385, 10.9540901698938), .UNSPECIFIED.);
#102 = CARTESIAN_POINT('', (4.28625, -4.28625, -2.62457117142263E-16));
#103 = CARTESIAN_POINT('', (-4.28625, -4.28625, -1.44733118323442E-14));
#104 = CARTESIAN_POINT('', (4.28625, 4.28625, 1.44733118323443E-14));
#105 = CARTESIAN_POINT('', (-4.28625, 4.28625, 2.62457117142297E-16));
#106 = ADVANCED_FACE('', (#107), #118, .T.);
#107 = FACE_OUTER_BOUND('', #108, .T.);
#108 = EDGE_LOOP('', (#109, #115, #116, #117));
#109 = ORIENTED_EDGE('', *, *, #110, .T.);
#110 = EDGE_CURVE('', #8, #55, #111, .T.);
#111 = LINE('', #112, #113);
#112 = CARTESIAN_POINT('', (-4.7625, 3.71634379286254E-15, -55.93));
#113 = VECTOR('', #114, 55.45375);
#114 = DIRECTION('', (0., -3.39556287191088E-15, 55.45375));
#115 = ORIENTED_EDGE('', *, *, #72, .T.);
#116 = ORIENTED_EDGE('', *, *, #110, .F.);
#117 = ORIENTED_EDGE('', *, *, #17, .F.);
#118 = (
   BOUNDED_SURFACE ()
   B_SPLINE_SURFACE (1, 2, ((#119, #120, #121, #122, #123, #124, #125, #126, #127), (#128, #129, #130, #131, #132, #133, #134, #135, #136)), .UNSPECIFIED., .F., .T., .U.)
   B_SPLINE_SURFACE_WITH_KNOTS ((2, 2), (3, 2, 2, 2, 3), (0., 1.), (0., 7.4809175063607, 14.9618350127214, 22.4427525190821, 29.9236700254428), .UNSPECIFIED.)
   GEOMETRIC_REPRESENTATION_ITEM ()
   RATIONAL_B_SPLINE_SURFACE (((1., 0.707106781186548, 1., 0.707106781186548, 1., 0.707106781186548, 1., 0.707106781186548, 1.), (1., 0.707106781186548, 1., 0.707106781186548, 1., 0.707106781186548, 1., 0.707106781186548, 1.)))
   REPRESENTATION_ITEM ('')
   SURFACE ()
);
#119 = CARTESIAN_POINT('', (-4.7625, 1.20895934065179E-15, -55.93));
#120 = CARTESIAN_POINT('', (-4.7625, 4.7625, -55.93));
#121 = CARTESIAN_POINT('', (3.24398178275982E-16, 4.7625, -55.93));
#122 = CARTESIAN_POINT('', (4.7625, 4.7625, -55.93));
#123 = CARTESIAN_POINT('', (4.7625, -4.03676697632826E-16, -55.93));
#124 = CARTESIAN_POINT('', (4.7625, -4.7625, -55.93));
#125 = CARTESIAN_POINT('', (-7.04999821914703E-16, -4.7625, -55.93));
#126 = CARTESIAN_POINT('', (-4.7625, -4.7625, -55.93));
#127 = CARTESIAN_POINT('', (-4.7625, 1.20895934065179E-15, -55.93));
#128 = CARTESIAN_POINT('', (-4.7625, 3.2078092095166E-16, -0.47625));
#129 = CARTESIAN_POINT('', (-4.7625, 4.7625, -0.47625));
#130 = CARTESIAN_POINT('', (2.26348573896282E-15, 4.7625, -0.47625));
#131 = CARTESIAN_POINT('', (4.7625, 4.7625, -0.47625));
#132 = CARTESIAN_POINT('', (4.7625, -1.29185511733295E-15, -0.47625));
#133 = CARTESIAN_POINT('', (4.7625, -4.7625, -0.47625));
#134 = CARTESIAN_POINT('', (1.23408773877214E-15, -4.7625, -0.47625));
#135 = CARTESIAN_POINT('', (-4.7625, -4.7625, -0.47625));
#136 = CARTESIAN_POINT('', (-4.7625, 3.2078092095166E-16, -0.47625));
#137 = ADVANCED_FACE('', (#138), #157, .T.);
#138 = FACE_OUTER_BOUND('', #139, .T.);
#139 = EDGE_LOOP('', (#140, #149, #155, #156));
#140 = ORIENTED_EDGE('', *, *, #141, .F.);
#141 = EDGE_CURVE('', #142, #142, #144, .T.);
#142 = VERTEX_POINT('', #143);
#143 = CARTESIAN_POINT('', (-3.97, 4.1313459769236E-15, -63.5));
#144 = CIRCLE('', #145, 3.97);
#145 = AXIS2_PLACEMENT_3D('', #146, #147, #148);
#146 = CARTESIAN_POINT('', (5.55111512312578E-16, 1.77635683940025E-15, -63.5));
#147 = DIRECTION('', (0., 0., -1.));
#148 = DIRECTION('', (-1., 5.93196256303111E-16, 0.));
#149 = ORIENTED_EDGE('', *, *, #150, .F.);
#150 = EDGE_CURVE('', #10, #142, #151, .T.);
#151 = LINE('', #152, #153);
#152 = CARTESIAN_POINT('', (-3.97, 3.74252061819431E-15, -57.15));
#153 = VECTOR('', #154, 6.35);
#154 = DIRECTION('', (0., 3.8882535872929E-16, -6.35));
#155 = ORIENTED_EDGE('', *, *, #25, .T.);
#156 = ORIENTED_EDGE('', *, *, #150, .T.);
#157 = (
   BOUNDED_SURFACE ()
   B_SPLINE_SURFACE (2, 1, ((#158, #159), (#160, #161), (#162, #163), (#164, #165), (#166, #167), (#168, #169), (#170, #171), (#172, #173), (#174, #175)), .UNSPECIFIED., .T., .F., .U.)
   B_SPLINE_SURFACE_WITH_KNOTS ((3, 2, 2, 2, 3), (2, 2), (0., 6.23606141737575, 12.4721228347515, 18.7081842521273, 24.944245669503), (0., 0.205129861739243), .UNSPECIFIED.)
   GEOMETRIC_REPRESENTATION_ITEM ()
   RATIONAL_B_SPLINE_SURFACE (((1., 1.), (0.707106781186548, 0.707106781186548), (1., 1.), (0.707106781186548, 0.707106781186548), (1., 1.), (0.707106781186548, 0.707106781186548), (1., 1.), (0.707106781186548, 0.707106781186548), (1., 1.)))
   REPRESENTATION_ITEM ('')
   SURFACE ()
);
#158 = CARTESIAN_POINT('', (-3.97, 3.74252061819431E-15, -57.15));
#159 = CARTESIAN_POINT('', (-3.96999999999999, 4.07558752558185E-15, -63.5));
#160 = CARTESIAN_POINT('', (-3.97, 3.97, -57.15));
#161 = CARTESIAN_POINT('', (-3.96999999999999, 3.97, -63.5));
#162 = CARTESIAN_POINT('', (2.34757184051496E-15, 3.97, -57.15));
#163 = CARTESIAN_POINT('', (1.37126760522949E-14, 3.97, -63.5));
#164 = CARTESIAN_POINT('', (3.97, 3.97, -57.15));
#165 = CARTESIAN_POINT('', (3.97000000000001, 3.97, -63.5));
#166 = CARTESIAN_POINT('', (3.97, -5.91800579832435E-16, -57.15));
#167 = CARTESIAN_POINT('', (3.97000000000001, -2.58733672444895E-16, -63.5));
#168 = CARTESIAN_POINT('', (3.97, -3.97, -57.15));
#169 = CARTESIAN_POINT('', (3.97000000000001, -3.97, -63.5));
#170 = CARTESIAN_POINT('', (-1.50056457825028E-15, -3.97, -57.15));
#171 = CARTESIAN_POINT('', (9.86453963352967E-15, -3.97, -63.5));
#172 = CARTESIAN_POINT('', (-3.97, -3.97, -57.15));
#173 = CARTESIAN_POINT('', (-3.96999999999999, -3.97, -63.5));
#174 = CARTESIAN_POINT('', (-3.97, 3.74252061819431E-15, -57.15));
#175 = CARTESIAN_POINT('', (-3.96999999999999, 4.07558752558185E-15, -63.5));
#176 = ADVANCED_FACE('', (#177), #180, .T.);
#177 = FACE_OUTER_BOUND('', #178, .T.);
#178 = EDGE_LOOP('', (#179));
#179 = ORIENTED_EDGE('', *, *, #141, .T.);
#180 = B_SPLINE_SURFACE_WITH_KNOTS('', 1, 1, ((#181, #182), (#183, #184)), .UNSPECIFIED., .F., .F., .U., (2, 2), (2, 2), (87.9858213377196, 95.9258213377196), (83.9036769499645, 91.8436769499645), .UNSPECIFIED.);
#181 = CARTESIAN_POINT('', (-3.97, 3.97, -63.5));
#182 = CARTESIAN_POINT('', (-3.97, -3.97, -63.5));
#183 = CARTESIAN_POINT('', (3.97, 3.97, -63.5));
#184 = CARTESIAN_POINT('', (3.97, -3.97, -63.5));
#185 = DRAUGHTING_MODEL('', (#193, #317, #365, #370, #375, #380, #385, #390), #404);
#186 = PRESENTATION_STYLE_ASSIGNMENT((#187));
#187 = SURFACE_STYLE_USAGE(.POSITIVE., #188);
#188 = SURFACE_SIDE_STYLE('', (#189));
#189 = SURFACE_STYLE_FILL_AREA(#190);
#190 = FILL_AREA_STYLE('', (#191));
#191 = FILL_AREA_STYLE_COLOUR('', #192);
#192 = COLOUR_RGB('', 0.50196078431373, 0.50196078431373, 0.50196078431373);
#193 = STYLED_ITEM('', (#186), #1);
#194 = MANIFOLD_SOLID_BREP('CUT', #195);
#195 = CLOSED_SHELL('', (#196, #213, #252, #301));
#196 = ADVANCED_FACE('', (#197), #208, .T.);
#197 = FACE_OUTER_BOUND('', #198, .T.);
#198 = EDGE_LOOP('', (#199));
#199 = ORIENTED_EDGE('', *, *, #200, .F.);
#200 = EDGE_CURVE('', #201, #201, #203, .T.);
#201 = VERTEX_POINT('', #202);
#202 = CARTESIAN_POINT('', (-3.97, 4.1313459769236E-15, -63.5));
#203 = CIRCLE('', #204, 3.97);
#204 = AXIS2_PLACEMENT_3D('', #205, #206, #207);
#205 = CARTESIAN_POINT('', (5.55111512312578E-16, 1.77635683940025E-15, -63.5));
#206 = DIRECTION('', (0., 0., -1.));
#207 = DIRECTION('', (-1., 5.93196256303111E-16, 0.));
#208 = B_SPLINE_SURFACE_WITH_KNOTS('', 1, 1, ((#209, #210), (#211, #212)), .UNSPECIFIED., .F., .F., .U., (2, 2), (2, 2), (83.9036769499646, 91.8436769499646), (87.9858213377196, 95.9258213377196), .UNSPECIFIED.);
#209 = CARTESIAN_POINT('', (-3.97, 3.96999999999999, -63.5));
#210 = CARTESIAN_POINT('', (3.97, 3.96999999999999, -63.5));
#211 = CARTESIAN_POINT('', (-3.97, -3.97, -63.5));
#212 = CARTESIAN_POINT('', (3.97, -3.97, -63.5));
#213 = ADVANCED_FACE('', (#214), #233, .T.);
#214 = FACE_OUTER_BOUND('', #215, .T.);
#215 = EDGE_LOOP('', (#216, #217, #225, #232));
#216 = ORIENTED_EDGE('', *, *, #200, .T.);
#217 = ORIENTED_EDGE('', *, *, #218, .T.);
#218 = EDGE_CURVE('', #201, #219, #221, .T.);
#219 = VERTEX_POINT('', #220);
#220 = CARTESIAN_POINT('', (-3.97, 5.63802893391459E-15, -88.106));
#221 = LINE('', #222, #223);
#222 = CARTESIAN_POINT('', (-3.97, 4.1313459769236E-15, -63.5));
#223 = VECTOR('', #224, 24.606);
#224 = DIRECTION('', (0., 1.50668295699099E-15, -24.606));
#225 = ORIENTED_EDGE('', *, *, #226, .F.);
#226 = EDGE_CURVE('', #219, #219, #227, .T.);
#227 = CIRCLE('', #228, 3.97);
#228 = AXIS2_PLACEMENT_3D('', #229, #230, #231);
#229 = CARTESIAN_POINT('', (-1.09634523681734E-15, 7.88258347483861E-15, -88.106));
#230 = DIRECTION('', (0., 0., -1.));
#231 = DIRECTION('', (-1., -5.65378977562726E-16, 0.));
#232 = ORIENTED_EDGE('', *, *, #218, .F.);
#233 = (
   BOUNDED_SURFACE ()
   B_SPLINE_SURFACE (2, 1, ((#234, #235), (#236, #237), (#238, #239), (#240, #241), (#242, #243), (#244, #245), (#246, #247), (#248, #249), (#250, #251)), .UNSPECIFIED., .T., .F., .U.)
   B_SPLINE_SURFACE_WITH_KNOTS ((3, 2, 2, 2, 3), (2, 2), (0., 6.23606141737575, 12.4721228347515, 18.7081842521273, 24.944245669503), (0.205129861739243, 1.), .UNSPECIFIED.)
   GEOMETRIC_REPRESENTATION_ITEM ()
   RATIONAL_B_SPLINE_SURFACE (((1., 1.), (0.707106781186548, 0.707106781186548), (1., 1.), (0.707106781186548, 0.707106781186548), (1., 1.), (0.707106781186548, 0.707106781186548), (1., 1.), (0.707106781186548, 0.707106781186548), (1., 1.)))
   REPRESENTATION_ITEM ('')
   SURFACE ()
);
#234 = CARTESIAN_POINT('', (-3.97, 4.1313459769236E-15, -63.5));
#235 = CARTESIAN_POINT('', (-3.97, 5.35259130401127E-15, -88.106));
#236 = CARTESIAN_POINT('', (-3.97, 3.97, -63.5));
#237 = CARTESIAN_POINT('', (-3.97, 3.97000000000001, -88.106));
#238 = CARTESIAN_POINT('', (2.36169692843326E-15, 3.97, -63.5));
#239 = CARTESIAN_POINT('', (2.36169692843326E-15, 3.97, -88.106));
#240 = CARTESIAN_POINT('', (3.97, 3.97, -63.5));
#241 = CARTESIAN_POINT('', (3.97, 3.97, -88.106));
#242 = CARTESIAN_POINT('', (3.97, -3.14492123786631E-16, -63.5));
#243 = CARTESIAN_POINT('', (3.97, 9.06753203301041E-16, -88.106));
#244 = CARTESIAN_POINT('', (3.97, -3.97, -63.5));
#245 = CARTESIAN_POINT('', (3.97, -3.97, -88.106));
#246 = CARTESIAN_POINT('', (-1.59795639301547E-15, -3.97, -63.5));
#247 = CARTESIAN_POINT('', (-1.59795639301547E-15, -3.97, -88.106));
#248 = CARTESIAN_POINT('', (-3.97, -3.97, -63.5));
#249 = CARTESIAN_POINT('', (-3.97, -3.97, -88.106));
#250 = CARTESIAN_POINT('', (-3.97, 4.1313459769236E-15, -63.5));
#251 = CARTESIAN_POINT('', (-3.97, 5.35259130401127E-15, -88.106));
#252 = ADVANCED_FACE('', (#253), #273, .T.);
#253 = FACE_OUTER_BOUND('', #254, .T.);
#254 = EDGE_LOOP('', (#255, #264, #265, #266));
#255 = ORIENTED_EDGE('', *, *, #256, .F.);
#256 = EDGE_CURVE('', #219, #257, #259, .T.);
#257 = VERTEX_POINT('', #258);
#258 = CARTESIAN_POINT('', (-3.176, 5.63802893391459E-15, -88.9));
#259 = CIRCLE('', #260, 0.794000000000016);
#260 = AXIS2_PLACEMENT_3D('', #261, #262, #263);
#261 = CARTESIAN_POINT('', (-3.17599999999998, 5.58941045598842E-15, -88.106));
#262 = DIRECTION('', (-6.12323399573852E-17, -1., -6.12323399573702E-17));
#263 = DIRECTION('', (-1., 6.12323399573852E-17, 0.));
#264 = ORIENTED_EDGE('', *, *, #226, .T.);
#265 = ORIENTED_EDGE('', *, *, #256, .T.);
#266 = ORIENTED_EDGE('', *, *, #267, .F.);
#267 = EDGE_CURVE('', #257, #257, #268, .T.);
#268 = CIRCLE('', #269, 3.176);
#269 = AXIS2_PLACEMENT_3D('', #270, #271, #272);
#270 = CARTESIAN_POINT('', (1.56819002228303E-15, 3.49720252756924E-15, -88.9));
#271 = DIRECTION('', (0., 0., -1.));
#272 = DIRECTION('', (-1., 4.29134370128132E-16, 0.));
#273 = (
   BOUNDED_SURFACE ()
   B_SPLINE_SURFACE (2, 2, ((#274, #275, #276), (#277, #278, #279), (#280, #281, #282), (#283, #284, #285), (#286, #287, #288), (#289, #290, #291), (#292, #293, #294), (#295, #296, #297), (#298, #299, #300)), .UNSPECIFIED., .T., .F., .U.)
   B_SPLINE_SURFACE_WITH_KNOTS ((3, 2, 2, 2, 3), (3, 3), (0., 0.25, 0.5, 0.75, 1.), (0., 1.), .UNSPECIFIED.)
   GEOMETRIC_REPRESENTATION_ITEM ()
   RATIONAL_B_SPLINE_SURFACE (((1., 0.707106781186547, 1.), (0.707106781186548, 0.5, 0.707106781186548), (1., 0.707106781186547, 1.), (0.707106781186548, 0.5, 0.707106781186548), (1., 0.707106781186547, 1.), (0.707106781186548, 0.5, 0.707106781186548), (1., 0.707106781186547, 1.), (0.707106781186548, 0.5, 0.707106781186548), (1., 0.707106781186547, 1.)))
   REPRESENTATION_ITEM ('')
   SURFACE ()
);
#274 = CARTESIAN_POINT('', (-3.97, 5.63802893391459E-15, -88.106));
#275 = CARTESIAN_POINT('', (-3.97, 5.68664741184073E-15, -88.9));
#276 = CARTESIAN_POINT('', (-3.176, 5.63802893391459E-15, -88.9));
#277 = CARTESIAN_POINT('', (-3.97, 3.97000000000001, -88.106));
#278 = CARTESIAN_POINT('', (-3.97, 3.97000000000001, -88.9));
#279 = CARTESIAN_POINT('', (-3.176, 3.17600000000001, -88.9));
#280 = CARTESIAN_POINT('', (4.72880272950875E-15, 3.97, -88.106));
#281 = CARTESIAN_POINT('', (4.77742120743489E-15, 3.97, -88.9));
#282 = CARTESIAN_POINT('', (4.7774212074349E-15, 3.176, -88.9));
#283 = CARTESIAN_POINT('', (3.97000000000001, 3.97, -88.106));
#284 = CARTESIAN_POINT('', (3.97000000000001, 3.97, -88.9));
#285 = CARTESIAN_POINT('', (3.176, 3.176, -88.9));
#286 = CARTESIAN_POINT('', (3.97, -3.37548731525284E-15, -88.106));
#287 = CARTESIAN_POINT('', (3.97, -3.42410579317898E-15, -88.9));
#288 = CARTESIAN_POINT('', (3.176, -3.47272427110514E-15, -88.9));
#289 = CARTESIAN_POINT('', (3.97, -3.97, -88.106));
#290 = CARTESIAN_POINT('', (3.97, -3.97, -88.9));
#291 = CARTESIAN_POINT('', (3.176, -3.176, -88.9));
#292 = CARTESIAN_POINT('', (-3.79852874039718E-15, -3.97, -88.106));
#293 = CARTESIAN_POINT('', (-3.84714721832332E-15, -3.97, -88.9));
#294 = CARTESIAN_POINT('', (-3.94438417417563E-15, -3.176, -88.9));
#295 = CARTESIAN_POINT('', (-3.97, -3.97, -88.106));
#296 = CARTESIAN_POINT('', (-3.97, -3.97, -88.9));
#297 = CARTESIAN_POINT('', (-3.176, -3.176, -88.9));
#298 = CARTESIAN_POINT('', (-3.97, 5.63802893391459E-15, -88.106));
#299 = CARTESIAN_POINT('', (-3.97, 5.68664741184073E-15, -88.9));
#300 = CARTESIAN_POINT('', (-3.176, 5.63802893391459E-15, -88.9));
#301 = ADVANCED_FACE('', (#302), #305, .T.);
#302 = FACE_OUTER_BOUND('', #303, .T.);
#303 = EDGE_LOOP('', (#304));
#304 = ORIENTED_EDGE('', *, *, #267, .T.);
#305 = B_SPLINE_SURFACE_WITH_KNOTS('', 1, 1, ((#306, #307), (#308, #309)), .UNSPECIFIED., .F., .F., .U., (2, 2), (2, 2), (1.76469650150665, 8.11669650150665), (1.76469650150664, 8.11669650150665), .UNSPECIFIED.);
#306 = CARTESIAN_POINT('', (3.176, -3.176, -88.9));
#307 = CARTESIAN_POINT('', (3.176, 3.17600000000001, -88.9));
#308 = CARTESIAN_POINT('', (-3.176, -3.176, -88.9));
#309 = CARTESIAN_POINT('', (-3.176, 3.17600000000001, -88.9000000000001));
#310 = PRESENTATION_STYLE_ASSIGNMENT((#311));
#311 = SURFACE_STYLE_USAGE(.POSITIVE., #312);
#312 = SURFACE_SIDE_STYLE('', (#313));
#313 = SURFACE_STYLE_FILL_AREA(#314);
#314 = FILL_AREA_STYLE('', (#315));
#315 = FILL_AREA_STYLE_COLOUR('', #316);
#316 = COLOUR_RGB('', 0.8, 0.8, 0.8);
#317 = STYLED_ITEM('', (#310), #194);
#318 = TRIMMED_CURVE('cutting part line', #319, (#323), (#324), .T., .CARTESIAN.);
#319 = LINE('', #320, #321);
#320 = CARTESIAN_POINT('', (-7.1426059649271E-31, -3.88825358729285E-15, -63.5));
#321 = VECTOR('', #322, 3.97);
#322 = DIRECTION('', (3.97, -7.2927716889225E-16, 0.));
#323 = CARTESIAN_POINT('', (-7.1426059649271E-31, -3.88825358729285E-15, -63.5));
#324 = CARTESIAN_POINT('', (3.97, -4.6175307561851E-15, -63.5));
#325 = TRIMMED_CURVE('cutting part line', #326, (#330), (#331), .T., .CARTESIAN.);
#326 = LINE('', #327, #328);
#327 = CARTESIAN_POINT('', (3.97, -4.6175307561851E-15, -63.5));
#328 = VECTOR('', #329, 24.606);
#329 = DIRECTION('', (0., -1.50668295699099E-15, -24.606));
#330 = CARTESIAN_POINT('', (3.97, -4.6175307561851E-15, -63.5));
#331 = CARTESIAN_POINT('', (3.97, -6.12421371317609E-15, -88.106));
#332 = TRIMMED_CURVE('cutting part line', #333, (#338), (#339), .T., .CARTESIAN.);
#333 = CIRCLE('', #334, 0.794000000000012);
#334 = AXIS2_PLACEMENT_3D('', #335, #336, #337);
#335 = CARTESIAN_POINT('', (3.17599999999998, -5.97835827939764E-15, -88.106));
#336 = DIRECTION('', (1.83697019872103E-16, 1., -6.12323399573671E-17));
#337 = DIRECTION('', (1., -1.83697019872103E-16, 0.));
#338 = CARTESIAN_POINT('', (3.96999999999999, -6.12421371317609E-15, -88.106));
#339 = CARTESIAN_POINT('', (3.176, -6.02697675732379E-15, -88.9));
#340 = TRIMMED_CURVE('cutting part line', #341, (#345), (#346), .T., .CARTESIAN.);
#341 = LINE('', #342, #343);
#342 = CARTESIAN_POINT('', (3.176, -6.02697675732379E-15, -88.9));
#343 = VECTOR('', #344, 3.176);
#344 = DIRECTION('', (-3.176, 5.834217351138E-16, 0.));
#345 = CARTESIAN_POINT('', (3.176, -6.02697675732379E-15, -88.9));
#346 = CARTESIAN_POINT('', (-6.66643223393196E-31, -5.44355502220999E-15, -88.9));
#347 = TRIMMED_CURVE('cutting part line', #348, (#352), (#353), .T., .CARTESIAN.);
#348 = LINE('', #349, #350);
#349 = CARTESIAN_POINT('', (-9.99964835089794E-31, -5.44355502220999E-15, -88.9));
#350 = VECTOR('', #351, 25.4);
#351 = DIRECTION('', (2.85704238597084E-31, 1.55530143491714E-15, 25.4));
#352 = CARTESIAN_POINT('', (-9.99964835089794E-31, -5.44355502220999E-15, -88.9));
#353 = CARTESIAN_POINT('', (-7.1426059649271E-31, -3.88825358729285E-15, -63.5));
#354 = COMPOSITE_CURVE('cutting part line', (#355, #356, #357, #358, #359), .U.);
#355 = COMPOSITE_CURVE_SEGMENT(.CONTINUOUS., .T., #318);
#356 = COMPOSITE_CURVE_SEGMENT(.CONTINUOUS., .T., #325);
#357 = COMPOSITE_CURVE_SEGMENT(.CONTINUOUS., .T., #332);
#358 = COMPOSITE_CURVE_SEGMENT(.CONTINUOUS., .T., #340);
#359 = COMPOSITE_CURVE_SEGMENT(.CONTINUOUS., .T., #347);
#360 = GEOMETRIC_SET('', (#354, #403));
#361 = PRESENTATION_STYLE_ASSIGNMENT((#362));
#362 = CURVE_STYLE('', #364, POSITIVE_LENGTH_MEASURE(1.E-6), #363);
#363 = COLOUR_RGB('', 0., 0., 1.);
#364 = DRAUGHTING_PRE_DEFINED_CURVE_FONT('continuous');
#365 = STYLED_ITEM('', (#361), #354);
#366 = PRESENTATION_STYLE_ASSIGNMENT((#367));
#367 = CURVE_STYLE('', #369, POSITIVE_LENGTH_MEASURE(1.E-6), #368);
#368 = COLOUR_RGB('', 0., 0., 1.);
#369 = DRAUGHTING_PRE_DEFINED_CURVE_FONT('continuous');
#370 = OVER_RIDING_STYLED_ITEM('', (#366), #318, #365);
#371 = PRESENTATION_STYLE_ASSIGNMENT((#372));
#372 = CURVE_STYLE('', #374, POSITIVE_LENGTH_MEASURE(1.E-6), #373);
#373 = COLOUR_RGB('', 0., 0., 1.);
#374 = DRAUGHTING_PRE_DEFINED_CURVE_FONT('continuous');
#375 = OVER_RIDING_STYLED_ITEM('', (#371), #325, #365);
#376 = PRESENTATION_STYLE_ASSIGNMENT((#377));
#377 = CURVE_STYLE('', #379, POSITIVE_LENGTH_MEASURE(1.E-6), #378);
#378 = COLOUR_RGB('', 0., 0., 1.);
#379 = DRAUGHTING_PRE_DEFINED_CURVE_FONT('continuous');
#380 = OVER_RIDING_STYLED_ITEM('', (#376), #332, #365);
#381 = PRESENTATION_STYLE_ASSIGNMENT((#382));
#382 = CURVE_STYLE('', #384, POSITIVE_LENGTH_MEASURE(1.E-6), #383);
#383 = COLOUR_RGB('', 0., 0., 1.);
#384 = DRAUGHTING_PRE_DEFINED_CURVE_FONT('continuous');
#385 = OVER_RIDING_STYLED_ITEM('', (#381), #340, #365);
#386 = PRESENTATION_STYLE_ASSIGNMENT((#387));
#387 = CURVE_STYLE('', #389, POSITIVE_LENGTH_MEASURE(1.E-6), #388);
#388 = COLOUR_RGB('', 0., 0., 1.);
#389 = DRAUGHTING_PRE_DEFINED_CURVE_FONT('continuous');
#390 = OVER_RIDING_STYLED_ITEM('', (#386), #347, #365);
#391 = AXIS2_PLACEMENT_3D('CIP', #392, #393, #394);
#392 = CARTESIAN_POINT('', (3.33321611696598E-31, 5.44355502220998E-15, -88.9));
#393 = DIRECTION('', (-3.74939945665465E-33, -6.12323399573677E-17, 1.));
#394 = DIRECTION('', (1., -6.12323399573677E-17, 0.));
#395 = AXIS2_PLACEMENT_3D('MCS', #396, #397, #398);
#396 = CARTESIAN_POINT('', (1.34978380439567E-31, 2.20436423846524E-15, -36.));
#397 = DIRECTION('', (-3.74939945665465E-33, -6.12323399573677E-17, 1.));
#398 = DIRECTION('', (1., -6.12323399573677E-17, 0.));
#399 = AXIS2_PLACEMENT_3D('PCS', #400, #401, #402);
#400 = CARTESIAN_POINT('', (0., 0., 0.));
#401 = DIRECTION('', (0., 0., 1.));
#402 = DIRECTION('', (1., 0., 0.));
#403 = CARTESIAN_POINT('CRP', (3.97, 0., -88.9));
#404 = (
   GEOMETRIC_REPRESENTATION_CONTEXT (3)
   GLOBAL_UNCERTAINTY_ASSIGNED_CONTEXT ((#406))
   GLOBAL_UNIT_ASSIGNED_CONTEXT ((#405, #407, #408))
   REPRESENTATION_CONTEXT ('', '3D')
);
#405 = (
   LENGTH_UNIT ()
   NAMED_UNIT (*)
   SI_UNIT (.MILLI., .METRE.)
);
#406 = UNCERTAINTY_MEASURE_WITH_UNIT(LENGTH_MEASURE(1.E-6), #405, 'DISTANCE_ACCURACY_VALUE', '');
#407 = (
   NAMED_UNIT (*)
   SI_UNIT ($, .STERADIAN.)
   SOLID_ANGLE_UNIT ()
);
#408 = (
   NAMED_UNIT (*)
   PLANE_ANGLE_UNIT ()
   SI_UNIT ($, .RADIAN.)
);
#409 = SHAPE_REPRESENTATION('', (), #404);
#410 = PRODUCT_DEFINITION_SHAPE('', '', #411);
#411 = PRODUCT_DEFINITION('', '', #414, #418);
#412 = APPLICATION_CONTEXT('configuration controlled 3D designs of mechanical parts and assemblies');
#413 = APPLICATION_PROTOCOL_DEFINITION('International Standard', 'automotive_design', 2002, #412);
#414 = PRODUCT_DEFINITION_FORMATION_WITH_SPECIFIED_SOURCE('', '', #415, .NOT_KNOWN.);
#415 = PRODUCT('EmptyName', 'EmptyName', '', (#416));
#416 = PRODUCT_CONTEXT('', #412, 'mechanical');
#417 = PRODUCT_RELATED_PRODUCT_CATEGORY('detail', '', (#415));
#418 = PRODUCT_DEFINITION_CONTEXT('part definition', #412, 'design');
#419 = SHAPE_DEFINITION_REPRESENTATION(#410, #409);
#420 = CONSTRUCTIVE_GEOMETRY_REPRESENTATION('supplemental geometry', (#391, #395, #399), #404);
#421 = CONSTRUCTIVE_GEOMETRY_REPRESENTATION_RELATIONSHIP('', '', #409, #420);
#422 = SHAPE_REPRESENTATION_RELATIONSHIP('', '', #409, #423);
#423 = SHAPE_REPRESENTATION('', (#360), #404);
#424 = SHAPE_REPRESENTATION_RELATIONSHIP('', '', #409, #425);
#425 = ADVANCED_BREP_SHAPE_REPRESENTATION('', (#1, #194), #404);
ENDSEC;
END-ISO-10303-21;
