ISO-10303-21;
HEADER;
FILE_DESCRIPTION(('STEP'), '1');
FILE_NAME('C:\\Users\\ds2002\\OneDrive - Sandvik\\HomeShare\\Documents\\Batchrepair\\CorSRT2\\NEW_MILSQ_SLD\\Output\\MOD000000000000000020084594200000.stp', '2019-01-02T12:08:34', (''), (''), 'Express v3.0.0.0', 'Express Tool', 'Unknown');
FILE_SCHEMA(('AUTOMOTIVE_DESIGN'));
ENDSEC;

DATA;
#1 = MANIFOLD_SOLID_BREP('NOCUT', #2);
#2 = CLOSED_SHELL('', (#3, #20, #37, #76));
#3 = ADVANCED_FACE('', (#4), #15, .T.);
#4 = FACE_OUTER_BOUND('', #5, .T.);
#5 = EDGE_LOOP('', (#6));
#6 = ORIENTED_EDGE('', *, *, #7, .T.);
#7 = EDGE_CURVE('', #8, #8, #10, .T.);
#8 = VERTEX_POINT('', #9);
#9 = CARTESIAN_POINT('', (-7., -8.88178419700125E-16, -57.));
#10 = CIRCLE('', #11, 7.);
#11 = AXIS2_PLACEMENT_3D('', #12, #13, #14);
#12 = CARTESIAN_POINT('', (3.33066907387547E-16, 2.22044604925031E-16, -57.));
#13 = DIRECTION('', (0., 0., -1.));
#14 = DIRECTION('', (-1., -1.58603289232165E-16, 0.));
#15 = B_SPLINE_SURFACE_WITH_KNOTS('', 1, 1, ((#16, #17), (#18, #19)), .UNSPECIFIED., .F., .F., .U., (2, 2), (2, 2), (-7.001, 7.001), (-14.001, 0.000999999999999446), .UNSPECIFIED.);
#16 = CARTESIAN_POINT('', (7.001, -7.001, -57.));
#17 = CARTESIAN_POINT('', (7.001, 7.001, -57.));
#18 = CARTESIAN_POINT('', (-7.001, -7.001, -57.));
#19 = CARTESIAN_POINT('', (-7.001, 7.001, -57.));
#20 = ADVANCED_FACE('', (#21), #32, .T.);
#21 = FACE_OUTER_BOUND('', #22, .T.);
#22 = EDGE_LOOP('', (#23));
#23 = ORIENTED_EDGE('', *, *, #24, .T.);
#24 = EDGE_CURVE('', #25, #25, #27, .T.);
#25 = VERTEX_POINT('', #26);
#26 = CARTESIAN_POINT('', (-6.4, -8.88178419700125E-16, 0.));
#27 = CIRCLE('', #28, 6.4);
#28 = AXIS2_PLACEMENT_3D('', #29, #30, #31);
#29 = CARTESIAN_POINT('', (-4.44089209850063E-16, -1.11022302462516E-16, 0.));
#30 = DIRECTION('', (0., 0., 1.));
#31 = DIRECTION('', (-1., -1.21430643318376E-16, 0.));
#32 = B_SPLINE_SURFACE_WITH_KNOTS('', 1, 1, ((#33, #34), (#35, #36)), .UNSPECIFIED., .F., .F., .U., (2, 2), (2, 2), (-6.401, 6.401), (-6.401, 6.401), .UNSPECIFIED.);
#33 = CARTESIAN_POINT('', (-6.401, -6.401, 0.));
#34 = CARTESIAN_POINT('', (-6.401, 6.401, 0.));
#35 = CARTESIAN_POINT('', (6.401, -6.401, 0.));
#36 = CARTESIAN_POINT('', (6.401, 6.401, 0.));
#37 = ADVANCED_FACE('', (#38), #57, .T.);
#38 = FACE_OUTER_BOUND('', #39, .T.);
#39 = EDGE_LOOP('', (#40, #48, #55, #56));
#40 = ORIENTED_EDGE('', *, *, #41, .T.);
#41 = EDGE_CURVE('', #8, #42, #44, .T.);
#42 = VERTEX_POINT('', #43);
#43 = CARTESIAN_POINT('', (-7., -8.88178419700125E-16, -0.6));
#44 = LINE('', #45, #46);
#45 = CARTESIAN_POINT('', (-6.99999999999999, -8.88178419700124E-16, -57.));
#46 = VECTOR('', #47, 56.4);
#47 = DIRECTION('', (-7.105427357601E-15, -4.93038065763132E-31, 56.4));
#48 = ORIENTED_EDGE('', *, *, #49, .T.);
#49 = EDGE_CURVE('', #42, #42, #50, .T.);
#50 = CIRCLE('', #51, 7.);
#51 = AXIS2_PLACEMENT_3D('', #52, #53, #54);
#52 = CARTESIAN_POINT('', (3.33066907387547E-16, 2.22044604925031E-16, -0.6));
#53 = DIRECTION('', (0., 0., -1.));
#54 = DIRECTION('', (-1., -1.58603289232165E-16, 0.));
#55 = ORIENTED_EDGE('', *, *, #41, .F.);
#56 = ORIENTED_EDGE('', *, *, #7, .F.);
#57 = (
   BOUNDED_SURFACE ()
   B_SPLINE_SURFACE (2, 1, ((#58, #59), (#60, #61), (#62, #63), (#64, #65), (#66, #67), (#68, #69), (#70, #71), (#72, #73), (#74, #75)), .UNSPECIFIED., .T., .F., .U.)
   B_SPLINE_SURFACE_WITH_KNOTS ((3, 2, 2, 2, 3), (2, 2), (0., 0.25, 0.5, 0.75, 1.), (0., 1.), .UNSPECIFIED.)
   GEOMETRIC_REPRESENTATION_ITEM ()
   RATIONAL_B_SPLINE_SURFACE (((1., 1.), (0.707106781186548, 0.707106781186548), (1., 1.), (0.707106781186548, 0.707106781186548), (1., 1.), (0.707106781186548, 0.707106781186548), (1., 1.), (0.707106781186548, 0.707106781186548), (1., 1.)))
   REPRESENTATION_ITEM ('')
   SURFACE ()
);
#58 = CARTESIAN_POINT('', (-7., -8.88178419700125E-16, 5.0412));
#59 = CARTESIAN_POINT('', (-6.99999999999999, -8.88178419700124E-16, -62.6412));
#60 = CARTESIAN_POINT('', (-7., 7., 5.0412));
#61 = CARTESIAN_POINT('', (-6.99999999999999, 7., -62.6412));
#62 = CARTESIAN_POINT('', (3.76285313151665E-16, 7., 5.0412));
#63 = CARTESIAN_POINT('', (8.96400632365335E-15, 7., -62.6412));
#64 = CARTESIAN_POINT('', (7., 7., 5.0412));
#65 = CARTESIAN_POINT('', (7.00000000000001, 7., -62.6412));
#66 = CARTESIAN_POINT('', (7., 8.57252759403147E-16, 5.0412));
#67 = CARTESIAN_POINT('', (7.00000000000001, 8.57252759403147E-16, -62.6412));
#68 = CARTESIAN_POINT('', (7., -7., 5.0412));
#69 = CARTESIAN_POINT('', (7.00000000000001, -7., -62.6412));
#70 = CARTESIAN_POINT('', (2.97896925165808E-15, -7., 5.0412));
#71 = CARTESIAN_POINT('', (1.15666902621598E-14, -7., -62.6412));
#72 = CARTESIAN_POINT('', (-7., -7., 5.0412));
#73 = CARTESIAN_POINT('', (-6.99999999999999, -7., -62.6412));
#74 = CARTESIAN_POINT('', (-7., -8.88178419700125E-16, 5.0412));
#75 = CARTESIAN_POINT('', (-6.99999999999999, -8.88178419700124E-16, -62.6412));
#76 = ADVANCED_FACE('', (#77), #88, .T.);
#77 = FACE_OUTER_BOUND('', #78, .T.);
#78 = EDGE_LOOP('', (#79, #85, #86, #87));
#79 = ORIENTED_EDGE('', *, *, #80, .T.);
#80 = EDGE_CURVE('', #42, #25, #81, .T.);
#81 = LINE('', #82, #83);
#82 = CARTESIAN_POINT('', (-7., -6.5799174752997E-15, -0.600000000000001));
#83 = VECTOR('', #84, 0.848528137423856);
#84 = DIRECTION('', (0.6, 5.6822686079197E-15, 0.599999999999999));
#85 = ORIENTED_EDGE('', *, *, #24, .F.);
#86 = ORIENTED_EDGE('', *, *, #80, .F.);
#87 = ORIENTED_EDGE('', *, *, #49, .F.);
#88 = (
   BOUNDED_SURFACE ()
   B_SPLINE_SURFACE (2, 1, ((#89, #90), (#91, #92), (#93, #94), (#95, #96), (#97, #98), (#99, #100), (#101, #102), (#103, #104), (#105, #106)), .UNSPECIFIED., .T., .F., .U.)
   B_SPLINE_SURFACE_WITH_KNOTS ((3, 2, 2, 2, 3), (2, 2), (0., 0.25, 0.5, 0.75, 1.), (0., 1.), .UNSPECIFIED.)
   GEOMETRIC_REPRESENTATION_ITEM ()
   RATIONAL_B_SPLINE_SURFACE (((1., 1.), (0.707106781186548, 0.707106781186548), (1., 1.), (0.707106781186548, 0.707106781186548), (1., 1.), (0.707106781186548, 0.707106781186548), (1., 1.), (0.707106781186548, 0.707106781186548), (1., 1.)))
   REPRESENTATION_ITEM ('')
   SURFACE ()
);
#89 = CARTESIAN_POINT('', (-6.399, -8.88178419700124E-16, 0.00100000000000042));
#90 = CARTESIAN_POINT('', (-7.001, -6.58938792297956E-15, -0.601));
#91 = CARTESIAN_POINT('', (-6.399, 6.399, 0.000999999999942595));
#92 = CARTESIAN_POINT('', (-7.001, 7.00099999999999, -0.601000000000063));
#93 = CARTESIAN_POINT('', (-1.69633779732176E-15, 6.399, 0.000999999999942175));
#94 = CARTESIAN_POINT('', (-2.03381024683795E-15, 7.001, -0.601000000000063));
#95 = CARTESIAN_POINT('', (6.399, 6.399, 0.000999999999941755));
#96 = CARTESIAN_POINT('', (7.001, 7.001, -0.601000000000064));
#97 = CARTESIAN_POINT('', (6.399, 5.44658819020005E-15, 0.000999999999999581));
#98 = CARTESIAN_POINT('', (7.001, 3.41335789461619E-16, -0.601));
#99 = CARTESIAN_POINT('', (6.399, -6.39899999999999, 0.00100000000005741));
#100 = CARTESIAN_POINT('', (7.00100000000001, -7.001, -0.600999999999937));
#101 = CARTESIAN_POINT('', (5.42208029935281E-15, -6.399, 0.00100000000005783));
#102 = CARTESIAN_POINT('', (5.7542886896863E-15, -7.001, -0.600999999999937));
#103 = CARTESIAN_POINT('', (-6.39899999999999, -6.399, 0.00100000000005825));
#104 = CARTESIAN_POINT('', (-7.00099999999999, -7.00100000000001, -0.600999999999936));
#105 = CARTESIAN_POINT('', (-6.399, -8.88178419700124E-16, 0.00100000000000042));
#106 = CARTESIAN_POINT('', (-7.001, -6.58938792297956E-15, -0.601));
#107 = DRAUGHTING_MODEL('', (#115, #293, #341, #346, #351, #356, #361, #366), #380);
#108 = PRESENTATION_STYLE_ASSIGNMENT((#109));
#109 = SURFACE_STYLE_USAGE(.POSITIVE., #110);
#110 = SURFACE_SIDE_STYLE('', (#111));
#111 = SURFACE_STYLE_FILL_AREA(#112);
#112 = FILL_AREA_STYLE('', (#113));
#113 = FILL_AREA_STYLE_COLOUR('', #114);
#114 = COLOUR_RGB('', 0.50196078431373, 0.50196078431373, 0.50196078431373);
#115 = STYLED_ITEM('', (#108), #1);
#116 = MANIFOLD_SOLID_BREP('CUT', #117);
#117 = CLOSED_SHELL('', (#118, #135, #152, #191));
#118 = ADVANCED_FACE('', (#119), #130, .T.);
#119 = FACE_OUTER_BOUND('', #120, .T.);
#120 = EDGE_LOOP('', (#121));
#121 = ORIENTED_EDGE('', *, *, #122, .F.);
#122 = EDGE_CURVE('', #123, #123, #125, .T.);
#123 = VERTEX_POINT('', #124);
#124 = CARTESIAN_POINT('', (-7., -8.88178419700125E-16, -57.));
#125 = CIRCLE('', #126, 7.);
#126 = AXIS2_PLACEMENT_3D('', #127, #128, #129);
#127 = CARTESIAN_POINT('', (3.33066907387547E-16, 2.22044604925031E-16, -57.));
#128 = DIRECTION('', (0., 0., -1.));
#129 = DIRECTION('', (-1., -1.58603289232165E-16, 0.));
#130 = B_SPLINE_SURFACE_WITH_KNOTS('', 1, 1, ((#131, #132), (#133, #134)), .UNSPECIFIED., .F., .F., .U., (2, 2), (2, 2), (-7.001, 7.001), (-14.001, 0.000999999999999446), .UNSPECIFIED.);
#131 = CARTESIAN_POINT('', (-7.001, -7.001, -57.));
#132 = CARTESIAN_POINT('', (-7.001, 7.001, -57.));
#133 = CARTESIAN_POINT('', (7.001, -7.001, -57.));
#134 = CARTESIAN_POINT('', (7.001, 7.001, -57.));
#135 = ADVANCED_FACE('', (#136), #147, .T.);
#136 = FACE_OUTER_BOUND('', #137, .T.);
#137 = EDGE_LOOP('', (#138));
#138 = ORIENTED_EDGE('', *, *, #139, .T.);
#139 = EDGE_CURVE('', #140, #140, #142, .T.);
#140 = VERTEX_POINT('', #141);
#141 = CARTESIAN_POINT('', (-4., -8.88178419700125E-16, -83.));
#142 = CIRCLE('', #143, 4.);
#143 = AXIS2_PLACEMENT_3D('', #144, #145, #146);
#144 = CARTESIAN_POINT('', (2.91433543964104E-16, -2.1094237467878E-15, -83.));
#145 = DIRECTION('', (0., 0., -1.));
#146 = DIRECTION('', (-1., 3.05311331771918E-16, 0.));
#147 = B_SPLINE_SURFACE_WITH_KNOTS('', 1, 1, ((#148, #149), (#150, #151)), .UNSPECIFIED., .F., .F., .U., (2, 2), (2, 2), (-4.001, 4.001), (-4.001, 4.001), .UNSPECIFIED.);
#148 = CARTESIAN_POINT('', (4.001, -4.001, -83.));
#149 = CARTESIAN_POINT('', (4.001, 4.001, -83.));
#150 = CARTESIAN_POINT('', (-4.001, -4.001, -83.));
#151 = CARTESIAN_POINT('', (-4.001, 4.001, -83.));
#152 = ADVANCED_FACE('', (#153), #172, .T.);
#153 = FACE_OUTER_BOUND('', #154, .T.);
#154 = EDGE_LOOP('', (#155, #163, #164, #165));
#155 = ORIENTED_EDGE('', *, *, #156, .T.);
#156 = EDGE_CURVE('', #157, #123, #159, .T.);
#157 = VERTEX_POINT('', #158);
#158 = CARTESIAN_POINT('', (-7., -8.88178419700125E-16, -80.));
#159 = LINE('', #160, #161);
#160 = CARTESIAN_POINT('', (-7., -8.88178419700125E-16, -80.));
#161 = VECTOR('', #162, 23.);
#162 = DIRECTION('', (0., 0., 23.));
#163 = ORIENTED_EDGE('', *, *, #122, .T.);
#164 = ORIENTED_EDGE('', *, *, #156, .F.);
#165 = ORIENTED_EDGE('', *, *, #166, .T.);
#166 = EDGE_CURVE('', #157, #157, #167, .T.);
#167 = CIRCLE('', #168, 7.);
#168 = AXIS2_PLACEMENT_3D('', #169, #170, #171);
#169 = CARTESIAN_POINT('', (3.05311331771918E-16, -1.77635683940025E-15, -80.));
#170 = DIRECTION('', (8.76707857291812E-31, 6.90959706397133E-15, 1.));
#171 = DIRECTION('', (-1., 1.26882631385732E-16, 0.));
#172 = (
   BOUNDED_SURFACE ()
   B_SPLINE_SURFACE (2, 1, ((#173, #174), (#175, #176), (#177, #178), (#179, #180), (#181, #182), (#183, #184), (#185, #186), (#187, #188), (#189, #190)), .UNSPECIFIED., .T., .F., .U.)
   B_SPLINE_SURFACE_WITH_KNOTS ((3, 2, 2, 2, 3), (2, 2), (0., 0.25, 0.5, 0.75, 1.), (0., 1.), .UNSPECIFIED.)
   GEOMETRIC_REPRESENTATION_ITEM ()
   RATIONAL_B_SPLINE_SURFACE (((1., 1.), (0.707106781186548, 0.707106781186548), (1., 1.), (0.707106781186548, 0.707106781186548), (1., 1.), (0.707106781186548, 0.707106781186548), (1., 1.), (0.707106781186548, 0.707106781186548), (1., 1.)))
   REPRESENTATION_ITEM ('')
   SURFACE ()
);
#173 = CARTESIAN_POINT('', (-7., -8.88178419700125E-16, -54.6988));
#174 = CARTESIAN_POINT('', (-7., -8.88178419700125E-16, -82.3012));
#175 = CARTESIAN_POINT('', (-7., 7., -54.6988));
#176 = CARTESIAN_POINT('', (-7., 7., -82.3012));
#177 = CARTESIAN_POINT('', (3.76285313151665E-16, 7., -54.6988));
#178 = CARTESIAN_POINT('', (3.76285313151665E-16, 7., -82.3012));
#179 = CARTESIAN_POINT('', (7., 7., -54.6988));
#180 = CARTESIAN_POINT('', (7., 7., -82.3012));
#181 = CARTESIAN_POINT('', (7., 8.57252759403147E-16, -54.6988));
#182 = CARTESIAN_POINT('', (7., 8.57252759403147E-16, -82.3012));
#183 = CARTESIAN_POINT('', (7., -7., -54.6988));
#184 = CARTESIAN_POINT('', (7., -7., -82.3012));
#185 = CARTESIAN_POINT('', (2.97896925165808E-15, -7., -54.6988));
#186 = CARTESIAN_POINT('', (2.97896925165808E-15, -7., -82.3012));
#187 = CARTESIAN_POINT('', (-7., -7., -54.6988));
#188 = CARTESIAN_POINT('', (-7., -7., -82.3012));
#189 = CARTESIAN_POINT('', (-7., -8.88178419700125E-16, -54.6988));
#190 = CARTESIAN_POINT('', (-7., -8.88178419700125E-16, -82.3012));
#191 = ADVANCED_FACE('', (#192), #204, .T.);
#192 = FACE_OUTER_BOUND('', #193, .T.);
#193 = EDGE_LOOP('', (#194, #201, #202, #203));
#194 = ORIENTED_EDGE('', *, *, #195, .T.);
#195 = EDGE_CURVE('', #140, #157, #196, .T.);
#196 = CIRCLE('', #197, 2.99999999999996);
#197 = AXIS2_PLACEMENT_3D('', #198, #199, #200);
#198 = CARTESIAN_POINT('', (-4.00000000000003, -8.88178419700124E-16, -80.));
#199 = DIRECTION('', (-1.74009935661552E-31, 1., -1.97215226305257E-31));
#200 = DIRECTION('', (8.73375446038469E-15, -1.97215226305256E-31, -1.));
#201 = ORIENTED_EDGE('', *, *, #166, .F.);
#202 = ORIENTED_EDGE('', *, *, #195, .F.);
#203 = ORIENTED_EDGE('', *, *, #139, .F.);
#204 = (
   BOUNDED_SURFACE ()
   B_SPLINE_SURFACE (2, 2, ((#205, #206, #207, #208, #209, #210, #211, #212, #213), (#214, #215, #216, #217, #218, #219, #220, #221, #222), (#223, #224, #225, #226, #227, #228, #229, #230, #231), (#232, #233, #234, #235, #236, #237, #238, #239, #240), (#241, #242, #243, #244, #245, #246, #247, #248, #249), (#250, #251, #252, #253, #254, #255, #256, #257, #258), (#259, #260, #261, #262, #263, #264, #265, #266, #267), (#268, #269, #270, #271, #272, #273, #274, #275, #276), (#277, #278, #279, #280, #281, #282, #283, #284, #285)), .UNSPECIFIED., .T., .T., .U.)
   B_SPLINE_SURFACE_WITH_KNOTS ((3, 2, 2, 2, 3), (3, 2, 2, 2, 3), (0., 0.25, 0.5, 0.75, 1.), (0., 0.25, 0.5, 0.75, 1.), .UNSPECIFIED.)
   GEOMETRIC_REPRESENTATION_ITEM ()
   RATIONAL_B_SPLINE_SURFACE (((1., 0.707106781186548, 1., 0.707106781186548, 1., 0.707106781186548, 1., 0.707106781186548, 1.), (0.707106781186548, 0.5, 0.707106781186548, 0.5, 0.707106781186548, 0.5, 0.707106781186548, 0.5, 0.707106781186548), (1., 0.707106781186548, 1., 0.707106781186548, 1., 0.707106781186548, 1., 0.707106781186548, 1.), (0.707106781186548, 0.5, 0.707106781186548, 0.5, 0.707106781186548, 0.5, 0.707106781186548, 0.5, 0.707106781186548), (1., 0.707106781186548, 1., 0.707106781186548, 1., 0.707106781186548, 1., 0.707106781186548, 1.), (0.707106781186548, 0.5, 0.707106781186548, 0.5, 0.707106781186548, 0.5, 0.707106781186548, 0.5, 0.707106781186548), (1., 0.707106781186548, 1., 0.707106781186548, 1., 0.707106781186548, 1., 0.707106781186548, 1.), (0.707106781186548, 0.5, 0.707106781186548, 0.5, 0.707106781186548, 0.5, 0.707106781186548, 0.5, 0.707106781186548), (1., 0.707106781186548, 1., 0.707106781186548, 1., 0.707106781186548, 1., 0.707106781186548, 1.)))
   REPRESENTATION_ITEM ('')
   SURFACE ()
);
#205 = CARTESIAN_POINT('', (-7., -8.88178419700125E-16, -80.));
#206 = CARTESIAN_POINT('', (-7., -8.88178419700125E-16, -83.));
#207 = CARTESIAN_POINT('', (-4., -8.88178419700125E-16, -83.));
#208 = CARTESIAN_POINT('', (-1., -8.88178419700125E-16, -83.));
#209 = CARTESIAN_POINT('', (-1., -8.88178419700125E-16, -80.));
#210 = CARTESIAN_POINT('', (-1., -8.88178419700125E-16, -77.));
#211 = CARTESIAN_POINT('', (-4., -8.88178419700125E-16, -77.));
#212 = CARTESIAN_POINT('', (-7., -8.88178419700125E-16, -77.));
#213 = CARTESIAN_POINT('', (-7., -8.88178419700125E-16, -80.));
#214 = CARTESIAN_POINT('', (-7., 7., -80.));
#215 = CARTESIAN_POINT('', (-7., 7., -83.));
#216 = CARTESIAN_POINT('', (-4., 4., -83.));
#217 = CARTESIAN_POINT('', (-1., 1., -83.));
#218 = CARTESIAN_POINT('', (-1., 1., -80.));
#219 = CARTESIAN_POINT('', (-1., 1., -77.));
#220 = CARTESIAN_POINT('', (-4., 4., -77.));
#221 = CARTESIAN_POINT('', (-7., 7., -77.));
#222 = CARTESIAN_POINT('', (-7., 7., -80.));
#223 = CARTESIAN_POINT('', (3.76285313151665E-16, 7., -80.));
#224 = CARTESIAN_POINT('', (3.76285313151665E-16, 7., -83.));
#225 = CARTESIAN_POINT('', (5.59982333023768E-16, 4., -83.));
#226 = CARTESIAN_POINT('', (7.43679352895871E-16, 1., -83.));
#227 = CARTESIAN_POINT('', (7.43679352895871E-16, 1., -80.));
#228 = CARTESIAN_POINT('', (7.43679352895871E-16, 1., -77.));
#229 = CARTESIAN_POINT('', (5.59982333023768E-16, 4., -77.));
#230 = CARTESIAN_POINT('', (3.76285313151665E-16, 7., -77.));
#231 = CARTESIAN_POINT('', (3.76285313151665E-16, 7., -80.));
#232 = CARTESIAN_POINT('', (7., 7., -80.));
#233 = CARTESIAN_POINT('', (7., 7., -83.));
#234 = CARTESIAN_POINT('', (4., 4., -83.));
#235 = CARTESIAN_POINT('', (1., 1., -83.));
#236 = CARTESIAN_POINT('', (1., 1., -80.));
#237 = CARTESIAN_POINT('', (1., 1., -77.));
#238 = CARTESIAN_POINT('', (4., 4., -77.));
#239 = CARTESIAN_POINT('', (7., 7., -77.));
#240 = CARTESIAN_POINT('', (7., 7., -80.));
#241 = CARTESIAN_POINT('', (7., 8.57252759403147E-16, -80.));
#242 = CARTESIAN_POINT('', (7., 8.57252759403147E-16, -83.));
#243 = CARTESIAN_POINT('', (4., 4.89858719658941E-16, -83.));
#244 = CARTESIAN_POINT('', (1., 1.22464679914735E-16, -83.));
#245 = CARTESIAN_POINT('', (1., 1.22464679914735E-16, -80.));
#246 = CARTESIAN_POINT('', (1., 1.22464679914735E-16, -77.));
#247 = CARTESIAN_POINT('', (4., 4.89858719658941E-16, -77.));
#248 = CARTESIAN_POINT('', (7., 8.57252759403147E-16, -77.));
#249 = CARTESIAN_POINT('', (7., 8.57252759403147E-16, -80.));
#250 = CARTESIAN_POINT('', (7., -7., -80.));
#251 = CARTESIAN_POINT('', (7., -7., -83.));
#252 = CARTESIAN_POINT('', (4., -4., -83.));
#253 = CARTESIAN_POINT('', (1., -1., -83.));
#254 = CARTESIAN_POINT('', (1., -1., -80.));
#255 = CARTESIAN_POINT('', (1., -1., -77.));
#256 = CARTESIAN_POINT('', (4., -4., -77.));
#257 = CARTESIAN_POINT('', (7., -7., -77.));
#258 = CARTESIAN_POINT('', (7., -7., -80.));
#259 = CARTESIAN_POINT('', (2.97896925165808E-15, -7., -80.));
#260 = CARTESIAN_POINT('', (2.97896925165808E-15, -7., -83.));
#261 = CARTESIAN_POINT('', (2.42787819204178E-15, -4., -83.));
#262 = CARTESIAN_POINT('', (1.87678713242547E-15, -1., -83.));
#263 = CARTESIAN_POINT('', (1.87678713242547E-15, -1., -80.));
#264 = CARTESIAN_POINT('', (1.87678713242547E-15, -1., -77.));
#265 = CARTESIAN_POINT('', (2.42787819204178E-15, -4., -77.));
#266 = CARTESIAN_POINT('', (2.97896925165808E-15, -7., -77.));
#267 = CARTESIAN_POINT('', (2.97896925165808E-15, -7., -80.));
#268 = CARTESIAN_POINT('', (-7., -7., -80.));
#269 = CARTESIAN_POINT('', (-7., -7., -83.));
#270 = CARTESIAN_POINT('', (-4., -4., -83.));
#271 = CARTESIAN_POINT('', (-1., -1., -83.));
#272 = CARTESIAN_POINT('', (-0.999999999999999, -1., -80.));
#273 = CARTESIAN_POINT('', (-0.999999999999999, -1., -77.));
#274 = CARTESIAN_POINT('', (-4., -4., -77.));
#275 = CARTESIAN_POINT('', (-7., -7., -77.));
#276 = CARTESIAN_POINT('', (-7., -7., -80.));
#277 = CARTESIAN_POINT('', (-7., -8.88178419700125E-16, -80.));
#278 = CARTESIAN_POINT('', (-7., -8.88178419700125E-16, -83.));
#279 = CARTESIAN_POINT('', (-4., -8.88178419700125E-16, -83.));
#280 = CARTESIAN_POINT('', (-1., -8.88178419700125E-16, -83.));
#281 = CARTESIAN_POINT('', (-1., -8.88178419700125E-16, -80.));
#282 = CARTESIAN_POINT('', (-1., -8.88178419700125E-16, -77.));
#283 = CARTESIAN_POINT('', (-4., -8.88178419700125E-16, -77.));
#284 = CARTESIAN_POINT('', (-7., -8.88178419700125E-16, -77.));
#285 = CARTESIAN_POINT('', (-7., -8.88178419700125E-16, -80.));
#286 = PRESENTATION_STYLE_ASSIGNMENT((#287));
#287 = SURFACE_STYLE_USAGE(.POSITIVE., #288);
#288 = SURFACE_SIDE_STYLE('', (#289));
#289 = SURFACE_STYLE_FILL_AREA(#290);
#290 = FILL_AREA_STYLE('', (#291));
#291 = FILL_AREA_STYLE_COLOUR('', #292);
#292 = COLOUR_RGB('', 0.8, 0.8, 0.8);
#293 = STYLED_ITEM('', (#286), #116);
#294 = TRIMMED_CURVE('cutting part line', #295, (#300), (#301), .T., .CARTESIAN.);
#295 = CIRCLE('', #296, 2.99999999999997);
#296 = AXIS2_PLACEMENT_3D('', #297, #298, #299);
#297 = CARTESIAN_POINT('', (4.00000000000002, -4.77734652749157E-16, -80.));
#298 = DIRECTION('', (-1.29526019539602E-16, -1., -6.02602080377172E-32));
#299 = DIRECTION('', (-7.40148683083445E-15, 1.01894533591048E-30, -1.));
#300 = CARTESIAN_POINT('', (4., -4.77734652749154E-16, -83.));
#301 = CARTESIAN_POINT('', (6.99999999999999, -8.66312711367958E-16, -80.));
#302 = TRIMMED_CURVE('cutting part line', #303, (#307), (#308), .T., .CARTESIAN.);
#303 = LINE('', #304, #305);
#304 = CARTESIAN_POINT('', (7., 0., -80.));
#305 = VECTOR('', #306, 23.);
#306 = DIRECTION('', (0., 0., 23.));
#307 = CARTESIAN_POINT('', (7., 0., -80.));
#308 = CARTESIAN_POINT('', (7., 0., -57.));
#309 = TRIMMED_CURVE('cutting part line', #310, (#314), (#315), .T., .CARTESIAN.);
#310 = LINE('', #311, #312);
#311 = CARTESIAN_POINT('', (7., 0., -57.));
#312 = VECTOR('', #313, 7.);
#313 = DIRECTION('', (-7., 0., 0.));
#314 = CARTESIAN_POINT('', (7., 0., -57.));
#315 = CARTESIAN_POINT('', (1.38777878078145E-17, 0., -57.));
#316 = TRIMMED_CURVE('cutting part line', #317, (#321), (#322), .T., .CARTESIAN.);
#317 = LINE('', #318, #319);
#318 = CARTESIAN_POINT('', (0., 0., -57.));
#319 = VECTOR('', #320, 26.);
#320 = DIRECTION('', (0., 0., -26.));
#321 = CARTESIAN_POINT('', (0., 0., -57.));
#322 = CARTESIAN_POINT('', (0., 0., -83.));
#323 = TRIMMED_CURVE('cutting part line', #324, (#328), (#329), .T., .CARTESIAN.);
#324 = LINE('', #325, #326);
#325 = CARTESIAN_POINT('', (5.13478148889135E-16, 0., -83.));
#326 = VECTOR('', #327, 4.);
#327 = DIRECTION('', (4., 0., 0.));
#328 = CARTESIAN_POINT('', (5.13478148889135E-16, 0., -83.));
#329 = CARTESIAN_POINT('', (4., 0., -83.));
#330 = COMPOSITE_CURVE('cutting part line', (#331, #332, #333, #334, #335), .U.);
#331 = COMPOSITE_CURVE_SEGMENT(.CONTINUOUS., .T., #294);
#332 = COMPOSITE_CURVE_SEGMENT(.CONTINUOUS., .T., #302);
#333 = COMPOSITE_CURVE_SEGMENT(.CONTINUOUS., .T., #309);
#334 = COMPOSITE_CURVE_SEGMENT(.CONTINUOUS., .T., #316);
#335 = COMPOSITE_CURVE_SEGMENT(.CONTINUOUS., .T., #323);
#336 = GEOMETRIC_SET('', (#330, #379));
#337 = PRESENTATION_STYLE_ASSIGNMENT((#338));
#338 = CURVE_STYLE('', #340, POSITIVE_LENGTH_MEASURE(1.E-6), #339);
#339 = COLOUR_RGB('', 0., 0., 1.);
#340 = DRAUGHTING_PRE_DEFINED_CURVE_FONT('continuous');
#341 = STYLED_ITEM('', (#337), #330);
#342 = PRESENTATION_STYLE_ASSIGNMENT((#343));
#343 = CURVE_STYLE('', #345, POSITIVE_LENGTH_MEASURE(1.E-6), #344);
#344 = COLOUR_RGB('', 0., 0., 1.);
#345 = DRAUGHTING_PRE_DEFINED_CURVE_FONT('continuous');
#346 = OVER_RIDING_STYLED_ITEM('', (#342), #294, #341);
#347 = PRESENTATION_STYLE_ASSIGNMENT((#348));
#348 = CURVE_STYLE('', #350, POSITIVE_LENGTH_MEASURE(1.E-6), #349);
#349 = COLOUR_RGB('', 0., 0., 1.);
#350 = DRAUGHTING_PRE_DEFINED_CURVE_FONT('continuous');
#351 = OVER_RIDING_STYLED_ITEM('', (#347), #302, #341);
#352 = PRESENTATION_STYLE_ASSIGNMENT((#353));
#353 = CURVE_STYLE('', #355, POSITIVE_LENGTH_MEASURE(1.E-6), #354);
#354 = COLOUR_RGB('', 0., 0., 1.);
#355 = DRAUGHTING_PRE_DEFINED_CURVE_FONT('continuous');
#356 = OVER_RIDING_STYLED_ITEM('', (#352), #309, #341);
#357 = PRESENTATION_STYLE_ASSIGNMENT((#358));
#358 = CURVE_STYLE('', #360, POSITIVE_LENGTH_MEASURE(1.E-6), #359);
#359 = COLOUR_RGB('', 0., 0., 1.);
#360 = DRAUGHTING_PRE_DEFINED_CURVE_FONT('continuous');
#361 = OVER_RIDING_STYLED_ITEM('', (#357), #316, #341);
#362 = PRESENTATION_STYLE_ASSIGNMENT((#363));
#363 = CURVE_STYLE('', #365, POSITIVE_LENGTH_MEASURE(1.E-6), #364);
#364 = COLOUR_RGB('', 0., 0., 1.);
#365 = DRAUGHTING_PRE_DEFINED_CURVE_FONT('continuous');
#366 = OVER_RIDING_STYLED_ITEM('', (#362), #323, #341);
#367 = AXIS2_PLACEMENT_3D('MCS', #368, #369, #370);
#368 = CARTESIAN_POINT('', (0., 0., -45.));
#369 = DIRECTION('', (0., 0., 1.));
#370 = DIRECTION('', (1., 0., 0.));
#371 = AXIS2_PLACEMENT_3D('PCS', #372, #373, #374);
#372 = CARTESIAN_POINT('', (0., 0., 0.));
#373 = DIRECTION('', (0., 0., 1.));
#374 = DIRECTION('', (1., 0., 0.));
#375 = AXIS2_PLACEMENT_3D('CIP', #376, #377, #378);
#376 = CARTESIAN_POINT('', (0., 0., -83.));
#377 = DIRECTION('', (0., 0., 1.));
#378 = DIRECTION('', (1., 0., 0.));
#379 = CARTESIAN_POINT('CRP', (7., 0., -83.));
#380 = (
   GEOMETRIC_REPRESENTATION_CONTEXT (3)
   GLOBAL_UNCERTAINTY_ASSIGNED_CONTEXT ((#382))
   GLOBAL_UNIT_ASSIGNED_CONTEXT ((#381, #383, #384))
   REPRESENTATION_CONTEXT ('', '3D')
);
#381 = (
   LENGTH_UNIT ()
   NAMED_UNIT (*)
   SI_UNIT (.MILLI., .METRE.)
);
#382 = UNCERTAINTY_MEASURE_WITH_UNIT(LENGTH_MEASURE(1.E-6), #381, 'DISTANCE_ACCURACY_VALUE', '');
#383 = (
   NAMED_UNIT (*)
   SI_UNIT ($, .STERADIAN.)
   SOLID_ANGLE_UNIT ()
);
#384 = (
   NAMED_UNIT (*)
   PLANE_ANGLE_UNIT ()
   SI_UNIT ($, .RADIAN.)
);
#385 = SHAPE_REPRESENTATION('', (), #380);
#386 = PRODUCT_DEFINITION_SHAPE('', '', #387);
#387 = PRODUCT_DEFINITION('', '', #390, #394);
#388 = APPLICATION_CONTEXT('configuration controlled 3D designs of mechanical parts and assemblies');
#389 = APPLICATION_PROTOCOL_DEFINITION('International Standard', 'automotive_design', 2002, #388);
#390 = PRODUCT_DEFINITION_FORMATION_WITH_SPECIFIED_SOURCE('', '', #391, .NOT_KNOWN.);
#391 = PRODUCT('titg8CA3tn0j', 'R216.24-14050GBC26P 1630', '', (#392));
#392 = PRODUCT_CONTEXT('', #388, 'mechanical');
#393 = PRODUCT_RELATED_PRODUCT_CATEGORY('detail', '', (#391));
#394 = PRODUCT_DEFINITION_CONTEXT('part definition', #388, 'design');
#395 = SHAPE_DEFINITION_REPRESENTATION(#386, #385);
#396 = CONSTRUCTIVE_GEOMETRY_REPRESENTATION('supplemental geometry', (#367, #371, #375), #380);
#397 = CONSTRUCTIVE_GEOMETRY_REPRESENTATION_RELATIONSHIP('', '', #385, #396);
#398 = SHAPE_REPRESENTATION_RELATIONSHIP('', '', #385, #399);
#399 = SHAPE_REPRESENTATION('', (#336), #380);
#400 = SHAPE_REPRESENTATION_RELATIONSHIP('', '', #385, #401);
#401 = ADVANCED_BREP_SHAPE_REPRESENTATION('', (#1, #116), #380);
ENDSEC;
END-ISO-10303-21;
