ISO-10303-21;
HEADER;
FILE_DESCRIPTION(('STEP'), '1');
FILE_NAME('C:\\Users\\ds2002\\OneDrive - Sandvik\\HomeShare\\Documents\\Batchrepair\\CorSRT2\\NEW_MILSQ_SLD\\Output\\MOD000000000000000020082338300000.stp', '2019-01-02T12:07:07', (''), (''), 'Express v3.0.0.0', 'Express Tool', 'Unknown');
FILE_SCHEMA(('AUTOMOTIVE_DESIGN'));
ENDSEC;

DATA;
#1 = MANIFOLD_SOLID_BREP('NOCUT', #2);
#2 = CLOSED_SHELL('', (#3, #50, #59, #98));
#3 = ADVANCED_FACE('', (#4), #31, .T.);
#4 = FACE_OUTER_BOUND('', #5, .T.);
#5 = EDGE_LOOP('', (#6, #16, #23, #24));
#6 = ORIENTED_EDGE('', *, *, #7, .T.);
#7 = EDGE_CURVE('', #8, #10, #12, .T.);
#8 = VERTEX_POINT('', #9);
#9 = CARTESIAN_POINT('', (-9.525, 6.4156184190332E-16, -0.952500000000001));
#10 = VERTEX_POINT('', #11);
#11 = CARTESIAN_POINT('', (-8.5725, 5.24914234284534E-16, 0.));
#12 = LINE('', #13, #14);
#13 = CARTESIAN_POINT('', (-9.525, 6.4156184190332E-16, -0.952500000000001));
#14 = VECTOR('', #15, 1.34703841816037);
#15 = DIRECTION('', (0.952500000000001, -1.16647607618786E-16, 0.952500000000001));
#16 = ORIENTED_EDGE('', *, *, #17, .T.);
#17 = EDGE_CURVE('', #10, #10, #18, .T.);
#18 = CIRCLE('', #19, 8.5725);
#19 = AXIS2_PLACEMENT_3D('', #20, #21, #22);
#20 = CARTESIAN_POINT('', (8.32667268468867E-17, 2.88657986402541E-15, 1.84889274661175E-31));
#21 = DIRECTION('', (4.69862490000009E-33, 6.12323399573676E-17, -1.));
#22 = DIRECTION('', (-1., -2.75493220150583E-16, -2.15677194122105E-32));
#23 = ORIENTED_EDGE('', *, *, #7, .F.);
#24 = ORIENTED_EDGE('', *, *, #25, .F.);
#25 = EDGE_CURVE('', #8, #8, #26, .T.);
#26 = CIRCLE('', #27, 9.525);
#27 = AXIS2_PLACEMENT_3D('', #28, #29, #30);
#28 = CARTESIAN_POINT('', (-3.60822483003176E-16, -2.66453525910038E-15, -0.952500000000001));
#29 = DIRECTION('', (2.3311769545935E-17, -3.61693232088461E-17, -1.));
#30 = DIRECTION('', (-1., 3.47096808504325E-16, -2.3311769545935E-17));
#31 = (
   BOUNDED_SURFACE ()
   B_SPLINE_SURFACE (1, 2, ((#32, #33, #34, #35, #36, #37, #38, #39, #40), (#41, #42, #43, #44, #45, #46, #47, #48, #49)), .UNSPECIFIED., .F., .T., .U.)
   B_SPLINE_SURFACE_WITH_KNOTS ((2, 2), (3, 2, 2, 2, 3), (0., 1.), (0., 0.25, 0.5, 0.75, 1.), .UNSPECIFIED.)
   GEOMETRIC_REPRESENTATION_ITEM ()
   RATIONAL_B_SPLINE_SURFACE (((1., 0.707106781186548, 1., 0.707106781186548, 1., 0.707106781186548, 1., 0.707106781186548, 1.), (1., 0.707106781186548, 1., 0.707106781186548, 1., 0.707106781186548, 1., 0.707106781186548, 1.)))
   REPRESENTATION_ITEM ('')
   SURFACE ()
);
#32 = CARTESIAN_POINT('', (-9.52500000000001, 3.71653412981382E-15, -0.952500000000001));
#33 = CARTESIAN_POINT('', (-9.525, 9.52500000000001, -0.952499999999976));
#34 = CARTESIAN_POINT('', (3.82718548211062E-15, 9.525, -0.952499999999976));
#35 = CARTESIAN_POINT('', (9.52500000000001, 9.52499999999999, -0.952499999999976));
#36 = CARTESIAN_POINT('', (9.525, -1.0099574621077E-14, -0.952500000000001));
#37 = CARTESIAN_POINT('', (9.52499999999999, -9.52500000000001, -0.952500000000025));
#38 = CARTESIAN_POINT('', (-8.82244719259238E-15, -9.52500000000001, -0.952500000000025));
#39 = CARTESIAN_POINT('', (-9.52500000000001, -9.525, -0.952500000000025));
#40 = CARTESIAN_POINT('', (-9.52500000000001, 3.71653412981382E-15, -0.952500000000001));
#41 = CARTESIAN_POINT('', (-8.57250000000001, 5.24914234284538E-16, 2.18952885050753E-46));
#42 = CARTESIAN_POINT('', (-8.5725, 8.5725, 2.19824158875781E-14));
#43 = CARTESIAN_POINT('', (3.13638004456607E-15, 8.5725, 2.19824158875781E-14));
#44 = CARTESIAN_POINT('', (8.57250000000001, 8.57249999999999, 2.19824158875781E-14));
#45 = CARTESIAN_POINT('', (8.5725, -1.19095836415172E-14, 1.95251242678015E-30));
#46 = CARTESIAN_POINT('', (8.57249999999999, -8.57250000000001, -2.19824158875781E-14));
#47 = CARTESIAN_POINT('', (-8.24828936266662E-15, -8.57250000000001, -2.19824158875781E-14));
#48 = CARTESIAN_POINT('', (-8.57250000000001, -8.5725, -2.19824158875781E-14));
#49 = CARTESIAN_POINT('', (-8.57250000000001, 5.24914234284538E-16, 2.18952885050753E-46));
#50 = ADVANCED_FACE('', (#51), #54, .T.);
#51 = FACE_OUTER_BOUND('', #52, .T.);
#52 = EDGE_LOOP('', (#53));
#53 = ORIENTED_EDGE('', *, *, #17, .F.);
#54 = B_SPLINE_SURFACE_WITH_KNOTS('', 1, 1, ((#55, #56), (#57, #58)), .UNSPECIFIED., .F., .F., .U., (2, 2), (2, 2), (4.7631803397877, 21.9081803397877), (4.7631803397877, 21.9081803397877), .UNSPECIFIED.);
#55 = CARTESIAN_POINT('', (8.5725, -8.5725, -7.63034159188549E-15));
#56 = CARTESIAN_POINT('', (-8.5725, -8.5725, -7.63034159188549E-15));
#57 = CARTESIAN_POINT('', (8.5725, 8.5725, 7.63034159188558E-15));
#58 = CARTESIAN_POINT('', (-8.5725, 8.5725, 7.63034159188557E-15));
#59 = ADVANCED_FACE('', (#60), #79, .T.);
#60 = FACE_OUTER_BOUND('', #61, .T.);
#61 = EDGE_LOOP('', (#62, #71, #77, #78));
#62 = ORIENTED_EDGE('', *, *, #63, .F.);
#63 = EDGE_CURVE('', #64, #64, #66, .T.);
#64 = VERTEX_POINT('', #65);
#65 = CARTESIAN_POINT('', (-9.525, 4.2755481375232E-15, -60.3));
#66 = CIRCLE('', #67, 9.525);
#67 = AXIS2_PLACEMENT_3D('', #68, #69, #70);
#68 = CARTESIAN_POINT('', (1.94289029309402E-16, 3.33066907387547E-15, -60.3));
#69 = DIRECTION('', (-3.70001199601383E-31, 2.5389595510657E-15, -1.));
#70 = DIRECTION('', (-1., -1.45729458134171E-16, 0.));
#71 = ORIENTED_EDGE('', *, *, #72, .T.);
#72 = EDGE_CURVE('', #64, #8, #73, .T.);
#73 = LINE('', #74, #75);
#74 = CARTESIAN_POINT('', (-9.525, 4.2755481375232E-15, -60.3));
#75 = VECTOR('', #76, 59.3475);
#76 = DIRECTION('', (0., -3.63398629561988E-15, 59.3475));
#77 = ORIENTED_EDGE('', *, *, #25, .T.);
#78 = ORIENTED_EDGE('', *, *, #72, .F.);
#79 = (
   BOUNDED_SURFACE ()
   B_SPLINE_SURFACE (1, 2, ((#80, #81, #82, #83, #84, #85, #86, #87, #88), (#89, #90, #91, #92, #93, #94, #95, #96, #97)), .UNSPECIFIED., .F., .T., .U.)
   B_SPLINE_SURFACE_WITH_KNOTS ((2, 2), (3, 2, 2, 2, 3), (0.117476486114725, 1.), (0., 0.25, 0.5, 0.75, 1.), .UNSPECIFIED.)
   GEOMETRIC_REPRESENTATION_ITEM ()
   RATIONAL_B_SPLINE_SURFACE (((1., 0.707106781186548, 1., 0.707106781186548, 1., 0.707106781186548, 1., 0.707106781186548, 1.), (1., 0.707106781186548, 1., 0.707106781186548, 1., 0.707106781186548, 1., 0.707106781186548, 1.)))
   REPRESENTATION_ITEM ('')
   SURFACE ()
);
#80 = CARTESIAN_POINT('', (-9.525, 1.15217474832299E-14, -60.3));
#81 = CARTESIAN_POINT('', (-9.52499999999999, 9.52500000000001, -60.3));
#82 = CARTESIAN_POINT('', (7.96437931660957E-15, 9.52500000000001, -60.3));
#83 = CARTESIAN_POINT('', (9.52500000000001, 9.525, -60.3));
#84 = CARTESIAN_POINT('', (9.525, 4.29967251801007E-15, -60.3));
#85 = CARTESIAN_POINT('', (9.525, -9.525, -60.3));
#86 = CARTESIAN_POINT('', (1.90878042757764E-15, -9.52499999999999, -60.3));
#87 = CARTESIAN_POINT('', (-9.525, -9.52499999999999, -60.3));
#88 = CARTESIAN_POINT('', (-9.525, 1.15217474832299E-14, -60.3));
#89 = CARTESIAN_POINT('', (-9.525, 6.41561841903319E-16, -0.952500000000001));
#90 = CARTESIAN_POINT('', (-9.525, 9.525, -0.952499999999999));
#91 = CARTESIAN_POINT('', (6.58088407348219E-15, 9.525, -0.952499999999999));
#92 = CARTESIAN_POINT('', (9.52500000000001, 9.525, -0.952499999999999));
#93 = CARTESIAN_POINT('', (9.52500000000001, -6.58051312331647E-15, -0.952500000000001));
#94 = CARTESIAN_POINT('', (9.525, -9.52500000000001, -0.952500000000002));
#95 = CARTESIAN_POINT('', (5.25285184450255E-16, -9.52500000000001, -0.952500000000003));
#96 = CARTESIAN_POINT('', (-9.525, -9.525, -0.952500000000003));
#97 = CARTESIAN_POINT('', (-9.525, 6.41561841903319E-16, -0.952500000000001));
#98 = ADVANCED_FACE('', (#99), #102, .T.);
#99 = FACE_OUTER_BOUND('', #100, .T.);
#100 = EDGE_LOOP('', (#101));
#101 = ORIENTED_EDGE('', *, *, #63, .T.);
#102 = B_SPLINE_SURFACE_WITH_KNOTS('', 1, 1, ((#103, #104), (#105, #106)), .UNSPECIFIED., .F., .F., .U., (2, 2), (2, 2), (97.36745863868, 116.41745863868), (93.804958030904, 112.854958030904), .UNSPECIFIED.);
#103 = CARTESIAN_POINT('', (-9.525, 9.52500000000001, -60.3));
#104 = CARTESIAN_POINT('', (-9.525, -9.52500000000001, -60.3));
#105 = CARTESIAN_POINT('', (9.52500000000001, 9.52500000000001, -60.3));
#106 = CARTESIAN_POINT('', (9.52500000000001, -9.52500000000001, -60.3));
#107 = DRAUGHTING_MODEL('', (#115, #239, #295, #300, #305, #310, #315, #320, #325), #339);
#108 = PRESENTATION_STYLE_ASSIGNMENT((#109));
#109 = SURFACE_STYLE_USAGE(.POSITIVE., #110);
#110 = SURFACE_SIDE_STYLE('', (#111));
#111 = SURFACE_STYLE_FILL_AREA(#112);
#112 = FILL_AREA_STYLE('', (#113));
#113 = FILL_AREA_STYLE_COLOUR('', #114);
#114 = COLOUR_RGB('', 0.50196078431373, 0.50196078431373, 0.50196078431373);
#115 = STYLED_ITEM('', (#108), #1);
#116 = MANIFOLD_SOLID_BREP('CUT', #117);
#117 = CLOSED_SHELL('', (#118, #135, #174, #223));
#118 = ADVANCED_FACE('', (#119), #130, .T.);
#119 = FACE_OUTER_BOUND('', #120, .T.);
#120 = EDGE_LOOP('', (#121));
#121 = ORIENTED_EDGE('', *, *, #122, .F.);
#122 = EDGE_CURVE('', #123, #123, #125, .T.);
#123 = VERTEX_POINT('', #124);
#124 = CARTESIAN_POINT('', (-9.525, 4.2755481375232E-15, -60.3));
#125 = CIRCLE('', #126, 9.525);
#126 = AXIS2_PLACEMENT_3D('', #127, #128, #129);
#127 = CARTESIAN_POINT('', (1.94289029309402E-16, 3.33066907387547E-15, -60.3));
#128 = DIRECTION('', (-3.70001199601383E-31, 2.5389595510657E-15, -1.));
#129 = DIRECTION('', (-1., -1.45729458134171E-16, 0.));
#130 = B_SPLINE_SURFACE_WITH_KNOTS('', 1, 1, ((#131, #132), (#133, #134)), .UNSPECIFIED., .F., .F., .U., (2, 2), (2, 2), (93.804958030904, 112.854958030904), (97.36745863868, 116.41745863868), .UNSPECIFIED.);
#131 = CARTESIAN_POINT('', (-9.52500000000001, 9.52500000000001, -60.3));
#132 = CARTESIAN_POINT('', (9.52500000000001, 9.52500000000001, -60.3));
#133 = CARTESIAN_POINT('', (-9.52500000000001, -9.52500000000001, -60.3));
#134 = CARTESIAN_POINT('', (9.52500000000001, -9.52500000000001, -60.3));
#135 = ADVANCED_FACE('', (#136), #155, .T.);
#136 = FACE_OUTER_BOUND('', #137, .T.);
#137 = EDGE_LOOP('', (#138, #139, #147, #154));
#138 = ORIENTED_EDGE('', *, *, #122, .T.);
#139 = ORIENTED_EDGE('', *, *, #140, .F.);
#140 = EDGE_CURVE('', #141, #123, #143, .T.);
#141 = VERTEX_POINT('', #142);
#142 = CARTESIAN_POINT('', (-9.525, 6.75778473471497E-15, -100.838));
#143 = LINE('', #144, #145);
#144 = CARTESIAN_POINT('', (-9.525, 6.75778473471497E-15, -100.838));
#145 = VECTOR('', #146, 40.538);
#146 = DIRECTION('', (0., -2.48223659719177E-15, 40.538));
#147 = ORIENTED_EDGE('', *, *, #148, .F.);
#148 = EDGE_CURVE('', #141, #141, #149, .T.);
#149 = CIRCLE('', #150, 9.52500000000001);
#150 = AXIS2_PLACEMENT_3D('', #151, #152, #153);
#151 = CARTESIAN_POINT('', (2.4980018054066E-16, 6.66133814775094E-16, -100.838));
#152 = DIRECTION('', (0., 0., -1.));
#153 = DIRECTION('', (-1., 6.39543403668228E-16, 0.));
#154 = ORIENTED_EDGE('', *, *, #140, .T.);
#155 = (
   BOUNDED_SURFACE ()
   B_SPLINE_SURFACE (1, 2, ((#156, #157, #158, #159, #160, #161, #162, #163, #164), (#165, #166, #167, #168, #169, #170, #171, #172, #173)), .UNSPECIFIED., .F., .T., .U.)
   B_SPLINE_SURFACE_WITH_KNOTS ((2, 2), (3, 2, 2, 2, 3), (-0.4853414625079, 0.117476486114726), (0., 0.25, 0.5, 0.75, 1.), .UNSPECIFIED.)
   GEOMETRIC_REPRESENTATION_ITEM ()
   RATIONAL_B_SPLINE_SURFACE (((1., 0.707106781186548, 1., 0.707106781186548, 1., 0.707106781186548, 1., 0.707106781186548, 1.), (1., 0.707106781186548, 1., 0.707106781186548, 1., 0.707106781186548, 1., 0.707106781186548, 1.)))
   REPRESENTATION_ITEM ('')
   SURFACE ()
);
#156 = CARTESIAN_POINT('', (-9.52499999999996, 6.27394958184847E-15, -100.838));
#157 = CARTESIAN_POINT('', (-9.52499999999996, 9.52500000000001, -100.838));
#158 = CARTESIAN_POINT('', (3.84846249436921E-14, 9.525, -100.838));
#159 = CARTESIAN_POINT('', (9.52500000000004, 9.525, -100.838));
#160 = CARTESIAN_POINT('', (9.52500000000004, -1.11067061701008E-15, -100.838));
#161 = CARTESIAN_POINT('', (9.52500000000003, -9.525, -100.838));
#162 = CARTESIAN_POINT('', (3.22664808210214E-14, -9.525, -100.838));
#163 = CARTESIAN_POINT('', (-9.52499999999997, -9.525, -100.838));
#164 = CARTESIAN_POINT('', (-9.52499999999996, 6.27394958184847E-15, -100.838));
#165 = CARTESIAN_POINT('', (-9.525, 4.2755481375232E-15, -60.3));
#166 = CARTESIAN_POINT('', (-9.52499999999999, 9.525, -60.3));
#167 = CARTESIAN_POINT('', (8.24422450039241E-15, 9.525, -60.3));
#168 = CARTESIAN_POINT('', (9.52500000000001, 9.525, -60.3));
#169 = CARTESIAN_POINT('', (9.52500000000001, -3.10907206133534E-15, -60.3));
#170 = CARTESIAN_POINT('', (9.525, -9.525, -60.3));
#171 = CARTESIAN_POINT('', (2.02608037772172E-15, -9.525, -60.3));
#172 = CARTESIAN_POINT('', (-9.525, -9.525, -60.3));
#173 = CARTESIAN_POINT('', (-9.525, 4.2755481375232E-15, -60.3));
#174 = ADVANCED_FACE('', (#175), #195, .T.);
#175 = FACE_OUTER_BOUND('', #176, .T.);
#176 = EDGE_LOOP('', (#177, #186, #187, #188));
#177 = ORIENTED_EDGE('', *, *, #178, .F.);
#178 = EDGE_CURVE('', #141, #179, #181, .T.);
#179 = VERTEX_POINT('', #180);
#180 = CARTESIAN_POINT('', (-8.763, 6.75778473471497E-15, -101.6));
#181 = CIRCLE('', #182, 0.76200000000004);
#182 = AXIS2_PLACEMENT_3D('', #183, #184, #185);
#183 = CARTESIAN_POINT('', (-8.76299999999997, 6.71112569166746E-15, -100.838));
#184 = DIRECTION('', (-6.12323399573606E-17, -1., -6.12323399573613E-17));
#185 = DIRECTION('', (-1., 6.12323399573629E-17, -3.72988312734945E-14));
#186 = ORIENTED_EDGE('', *, *, #148, .T.);
#187 = ORIENTED_EDGE('', *, *, #178, .T.);
#188 = ORIENTED_EDGE('', *, *, #189, .F.);
#189 = EDGE_CURVE('', #179, #179, #190, .T.);
#190 = CIRCLE('', #191, 8.763);
#191 = AXIS2_PLACEMENT_3D('', #192, #193, #194);
#192 = CARTESIAN_POINT('', (1.41553435639707E-15, 6.88338275267597E-15, -101.6));
#193 = DIRECTION('', (0., 0., -1.));
#194 = DIRECTION('', (-1., -1.43327648021226E-17, 0.));
#195 = (
   BOUNDED_SURFACE ()
   B_SPLINE_SURFACE (2, 2, ((#196, #197, #198), (#199, #200, #201), (#202, #203, #204), (#205, #206, #207), (#208, #209, #210), (#211, #212, #213), (#214, #215, #216), (#217, #218, #219), (#220, #221, #222)), .UNSPECIFIED., .T., .F., .U.)
   B_SPLINE_SURFACE_WITH_KNOTS ((3, 2, 2, 2, 3), (3, 3), (0., 0.25, 0.5, 0.75, 1.), (0., 1.), .UNSPECIFIED.)
   GEOMETRIC_REPRESENTATION_ITEM ()
   RATIONAL_B_SPLINE_SURFACE (((1., 0.707106781186548, 1.), (0.707106781186548, 0.5, 0.707106781186548), (1., 0.707106781186548, 1.), (0.707106781186548, 0.5, 0.707106781186548), (1., 0.707106781186548, 1.), (0.707106781186548, 0.5, 0.707106781186548), (1., 0.707106781186548, 1.), (0.707106781186548, 0.5, 0.707106781186548), (1., 0.707106781186548, 1.)))
   REPRESENTATION_ITEM ('')
   SURFACE ()
);
#196 = CARTESIAN_POINT('', (-9.525, 6.75778473471497E-15, -100.838));
#197 = CARTESIAN_POINT('', (-9.525, 6.80444377776248E-15, -101.6));
#198 = CARTESIAN_POINT('', (-8.763, 6.75778473471497E-15, -101.6));
#199 = CARTESIAN_POINT('', (-9.525, 9.52500000000001, -100.838));
#200 = CARTESIAN_POINT('', (-9.525, 9.52500000000001, -101.6));
#201 = CARTESIAN_POINT('', (-8.763, 8.76300000000001, -101.6));
#202 = CARTESIAN_POINT('', (5.92474651608038E-15, 9.52500000000001, -100.838));
#203 = CARTESIAN_POINT('', (5.97140555912789E-15, 9.52500000000001, -101.6));
#204 = CARTESIAN_POINT('', (5.9714055591279E-15, 8.76300000000001, -101.6));
#205 = CARTESIAN_POINT('', (9.52500000000001, 9.52500000000001, -100.838));
#206 = CARTESIAN_POINT('', (9.52500000000001, 9.52500000000001, -101.6));
#207 = CARTESIAN_POINT('', (8.76300000000001, 8.76300000000001, -101.6));
#208 = CARTESIAN_POINT('', (9.52500000000001, 6.25940279373761E-16, -100.838));
#209 = CARTESIAN_POINT('', (9.52500000000001, 5.79281236326251E-16, -101.6));
#210 = CARTESIAN_POINT('', (8.76300000000001, 5.32622193278732E-16, -101.6));
#211 = CARTESIAN_POINT('', (9.52500000000001, -9.525, -100.838));
#212 = CARTESIAN_POINT('', (9.52500000000001, -9.525, -101.6));
#213 = CARTESIAN_POINT('', (8.76300000000001, -8.763, -101.6));
#214 = CARTESIAN_POINT('', (9.59378136927028E-16, -9.525, -100.838));
#215 = CARTESIAN_POINT('', (9.12719093879517E-16, -9.525, -101.6));
#216 = CARTESIAN_POINT('', (8.19401007784485E-16, -8.763, -101.6));
#217 = CARTESIAN_POINT('', (-9.525, -9.525, -100.838));
#218 = CARTESIAN_POINT('', (-9.525, -9.525, -101.6));
#219 = CARTESIAN_POINT('', (-8.763, -8.763, -101.6));
#220 = CARTESIAN_POINT('', (-9.525, 6.75778473471497E-15, -100.838));
#221 = CARTESIAN_POINT('', (-9.525, 6.80444377776248E-15, -101.6));
#222 = CARTESIAN_POINT('', (-8.763, 6.75778473471497E-15, -101.6));
#223 = ADVANCED_FACE('', (#224), #227, .T.);
#224 = FACE_OUTER_BOUND('', #225, .T.);
#225 = EDGE_LOOP('', (#226));
#226 = ORIENTED_EDGE('', *, *, #189, .T.);
#227 = B_SPLINE_SURFACE_WITH_KNOTS('', 1, 1, ((#228, #229), (#230, #231)), .UNSPECIFIED., .F., .F., .U., (2, 2), (2, 2), (4.869028791783, 22.395028791783), (4.86902879178301, 22.395028791783), .UNSPECIFIED.);
#228 = CARTESIAN_POINT('', (8.763, -8.76299999999999, -101.6));
#229 = CARTESIAN_POINT('', (8.763, 8.76300000000001, -101.6));
#230 = CARTESIAN_POINT('', (-8.763, -8.76299999999999, -101.6));
#231 = CARTESIAN_POINT('', (-8.763, 8.76300000000001, -101.6));
#232 = PRESENTATION_STYLE_ASSIGNMENT((#233));
#233 = SURFACE_STYLE_USAGE(.POSITIVE., #234);
#234 = SURFACE_SIDE_STYLE('', (#235));
#235 = SURFACE_STYLE_FILL_AREA(#236);
#236 = FILL_AREA_STYLE('', (#237));
#237 = FILL_AREA_STYLE_COLOUR('', #238);
#238 = COLOUR_RGB('', 0.8, 0.8, 0.8);
#239 = STYLED_ITEM('', (#232), #116);
#240 = TRIMMED_CURVE('cutting part line', #241, (#245), (#246), .T., .CARTESIAN.);
#241 = LINE('', #242, #243);
#242 = CARTESIAN_POINT('', (-6.78266361708825E-31, -3.69231009942927E-15, -60.3));
#243 = VECTOR('', #244, 9.525);
#244 = DIRECTION('', (9.525, -1.74971411428178E-15, 0.));
#245 = CARTESIAN_POINT('', (-6.78266361708825E-31, -3.69231009942927E-15, -60.3));
#246 = CARTESIAN_POINT('', (9.525, -5.44202421371105E-15, -60.3));
#247 = TRIMMED_CURVE('cutting part line', #248, (#252), (#253), .T., .CARTESIAN.);
#248 = LINE('', #249, #250);
#249 = CARTESIAN_POINT('', (9.525, -5.44202421371105E-15, -60.3));
#250 = VECTOR('', #251, 7.90000000000001);
#251 = DIRECTION('', (0., -4.837354856632E-16, -7.90000000000001));
#252 = CARTESIAN_POINT('', (9.525, -5.44202421371105E-15, -60.3));
#253 = CARTESIAN_POINT('', (9.525, -5.92575969937425E-15, -68.2));
#254 = TRIMMED_CURVE('cutting part line', #255, (#259), (#260), .T., .CARTESIAN.);
#255 = LINE('', #256, #257);
#256 = CARTESIAN_POINT('', (9.525, -5.92575969937425E-15, -68.2));
#257 = VECTOR('', #258, 32.638);
#258 = DIRECTION('', (0., -1.99850111152857E-15, -32.638));
#259 = CARTESIAN_POINT('', (9.525, -5.92575969937425E-15, -68.2));
#260 = CARTESIAN_POINT('', (9.525, -7.92426081090282E-15, -100.838));
#261 = TRIMMED_CURVE('cutting part line', #262, (#267), (#268), .T., .CARTESIAN.);
#262 = CIRCLE('', #263, 0.761999999999973);
#263 = AXIS2_PLACEMENT_3D('', #264, #265, #266);
#264 = CARTESIAN_POINT('', (8.76300000000003, -7.78428368176029E-15, -100.838));
#265 = DIRECTION('', (1.83697019872101E-16, 1., -6.12323399573662E-17));
#266 = DIRECTION('', (1., -1.836970198721E-16, 1.86494156367488E-14));
#267 = CARTESIAN_POINT('', (9.52500000000001, -7.92426081090283E-15, -100.838));
#268 = CARTESIAN_POINT('', (8.763, -7.8309427248078E-15, -101.6));
#269 = TRIMMED_CURVE('cutting part line', #270, (#274), (#275), .T., .CARTESIAN.);
#270 = LINE('', #271, #272);
#271 = CARTESIAN_POINT('', (8.763, -7.8309427248078E-15, -101.6));
#272 = VECTOR('', #273, 8.763);
#273 = DIRECTION('', (-8.763, 1.60973698513925E-15, 0.));
#274 = CARTESIAN_POINT('', (8.763, -7.8309427248078E-15, -101.6));
#275 = CARTESIAN_POINT('', (-7.61877969592223E-31, -6.22120573966855E-15, -101.6));
#276 = TRIMMED_CURVE('cutting part line', #277, (#281), (#282), .T., .CARTESIAN.);
#277 = LINE('', #278, #279);
#278 = CARTESIAN_POINT('', (-1.14281695438834E-30, -6.22120573966855E-15, -101.6));
#279 = VECTOR('', #280, 41.3);
#280 = DIRECTION('', (4.6455059267951E-31, 2.52889564023928E-15, 41.3));
#281 = CARTESIAN_POINT('', (-1.14281695438834E-30, -6.22120573966855E-15, -101.6));
#282 = CARTESIAN_POINT('', (-6.78266361708825E-31, -3.69231009942927E-15, -60.3));
#283 = COMPOSITE_CURVE('cutting part line', (#284, #285, #286, #287, #288, #289), .U.);
#284 = COMPOSITE_CURVE_SEGMENT(.CONTINUOUS., .T., #240);
#285 = COMPOSITE_CURVE_SEGMENT(.CONTINUOUS., .T., #247);
#286 = COMPOSITE_CURVE_SEGMENT(.CONTINUOUS., .T., #254);
#287 = COMPOSITE_CURVE_SEGMENT(.CONTINUOUS., .T., #261);
#288 = COMPOSITE_CURVE_SEGMENT(.CONTINUOUS., .T., #269);
#289 = COMPOSITE_CURVE_SEGMENT(.CONTINUOUS., .T., #276);
#290 = GEOMETRIC_SET('', (#283, #338));
#291 = PRESENTATION_STYLE_ASSIGNMENT((#292));
#292 = CURVE_STYLE('', #294, POSITIVE_LENGTH_MEASURE(1.E-6), #293);
#293 = COLOUR_RGB('', 0., 0., 1.);
#294 = DRAUGHTING_PRE_DEFINED_CURVE_FONT('continuous');
#295 = STYLED_ITEM('', (#291), #283);
#296 = PRESENTATION_STYLE_ASSIGNMENT((#297));
#297 = CURVE_STYLE('', #299, POSITIVE_LENGTH_MEASURE(1.E-6), #298);
#298 = COLOUR_RGB('', 0., 0., 1.);
#299 = DRAUGHTING_PRE_DEFINED_CURVE_FONT('continuous');
#300 = OVER_RIDING_STYLED_ITEM('', (#296), #240, #295);
#301 = PRESENTATION_STYLE_ASSIGNMENT((#302));
#302 = CURVE_STYLE('', #304, POSITIVE_LENGTH_MEASURE(1.E-6), #303);
#303 = COLOUR_RGB('', 0., 0., 1.);
#304 = DRAUGHTING_PRE_DEFINED_CURVE_FONT('continuous');
#305 = OVER_RIDING_STYLED_ITEM('', (#301), #247, #295);
#306 = PRESENTATION_STYLE_ASSIGNMENT((#307));
#307 = CURVE_STYLE('', #309, POSITIVE_LENGTH_MEASURE(1.E-6), #308);
#308 = COLOUR_RGB('', 0., 0., 1.);
#309 = DRAUGHTING_PRE_DEFINED_CURVE_FONT('continuous');
#310 = OVER_RIDING_STYLED_ITEM('', (#306), #254, #295);
#311 = PRESENTATION_STYLE_ASSIGNMENT((#312));
#312 = CURVE_STYLE('', #314, POSITIVE_LENGTH_MEASURE(1.E-6), #313);
#313 = COLOUR_RGB('', 0., 0., 1.);
#314 = DRAUGHTING_PRE_DEFINED_CURVE_FONT('continuous');
#315 = OVER_RIDING_STYLED_ITEM('', (#311), #261, #295);
#316 = PRESENTATION_STYLE_ASSIGNMENT((#317));
#317 = CURVE_STYLE('', #319, POSITIVE_LENGTH_MEASURE(1.E-6), #318);
#318 = COLOUR_RGB('', 0., 0., 1.);
#319 = DRAUGHTING_PRE_DEFINED_CURVE_FONT('continuous');
#320 = OVER_RIDING_STYLED_ITEM('', (#316), #269, #295);
#321 = PRESENTATION_STYLE_ASSIGNMENT((#322));
#322 = CURVE_STYLE('', #324, POSITIVE_LENGTH_MEASURE(1.E-6), #323);
#323 = COLOUR_RGB('', 0., 0., 1.);
#324 = DRAUGHTING_PRE_DEFINED_CURVE_FONT('continuous');
#325 = OVER_RIDING_STYLED_ITEM('', (#321), #276, #295);
#326 = AXIS2_PLACEMENT_3D('CIP', #327, #328, #329);
#327 = CARTESIAN_POINT('', (3.80938984796112E-31, 6.22120573966855E-15, -101.6));
#328 = DIRECTION('', (-3.74939945665465E-33, -6.12323399573677E-17, 1.));
#329 = DIRECTION('', (1., -6.12323399573677E-17, 0.));
#330 = AXIS2_PLACEMENT_3D('MCS', #331, #332, #333);
#331 = CARTESIAN_POINT('', (1.9346901196338E-31, 3.15958874180017E-15, -51.6));
#332 = DIRECTION('', (-3.74939945665465E-33, -6.12323399573677E-17, 1.));
#333 = DIRECTION('', (1., -6.12323399573677E-17, 0.));
#334 = AXIS2_PLACEMENT_3D('PCS', #335, #336, #337);
#335 = CARTESIAN_POINT('', (0., 0., 0.));
#336 = DIRECTION('', (0., 0., 1.));
#337 = DIRECTION('', (1., 0., 0.));
#338 = CARTESIAN_POINT('CRP', (9.525, 0., -101.6));
#339 = (
   GEOMETRIC_REPRESENTATION_CONTEXT (3)
   GLOBAL_UNCERTAINTY_ASSIGNED_CONTEXT ((#341))
   GLOBAL_UNIT_ASSIGNED_CONTEXT ((#340, #342, #343))
   REPRESENTATION_CONTEXT ('', '3D')
);
#340 = (
   LENGTH_UNIT ()
   NAMED_UNIT (*)
   SI_UNIT (.MILLI., .METRE.)
);
#341 = UNCERTAINTY_MEASURE_WITH_UNIT(LENGTH_MEASURE(1.E-6), #340, 'DISTANCE_ACCURACY_VALUE', '');
#342 = (
   NAMED_UNIT (*)
   SI_UNIT ($, .STERADIAN.)
   SOLID_ANGLE_UNIT ()
);
#343 = (
   NAMED_UNIT (*)
   PLANE_ANGLE_UNIT ()
   SI_UNIT ($, .RADIAN.)
);
#344 = SHAPE_REPRESENTATION('', (), #339);
#345 = PRODUCT_DEFINITION_SHAPE('', '', #346);
#346 = PRODUCT_DEFINITION('', '', #349, #353);
#347 = APPLICATION_CONTEXT('configuration controlled 3D designs of mechanical parts and assemblies');
#348 = APPLICATION_PROTOCOL_DEFINITION('International Standard', 'automotive_design', 2002, #347);
#349 = PRODUCT_DEFINITION_FORMATION_WITH_SPECIFIED_SOURCE('', '', #350, .NOT_KNOWN.);
#350 = PRODUCT('NONE', '2S342-1905-076-PA   1730', '', (#351));
#351 = PRODUCT_CONTEXT('', #347, 'mechanical');
#352 = PRODUCT_RELATED_PRODUCT_CATEGORY('detail', '', (#350));
#353 = PRODUCT_DEFINITION_CONTEXT('part definition', #347, 'design');
#354 = SHAPE_DEFINITION_REPRESENTATION(#345, #344);
#355 = CONSTRUCTIVE_GEOMETRY_REPRESENTATION('supplemental geometry', (#326, #330, #334), #339);
#356 = CONSTRUCTIVE_GEOMETRY_REPRESENTATION_RELATIONSHIP('', '', #344, #355);
#357 = SHAPE_REPRESENTATION_RELATIONSHIP('', '', #344, #358);
#358 = SHAPE_REPRESENTATION('', (#290), #339);
#359 = SHAPE_REPRESENTATION_RELATIONSHIP('', '', #344, #360);
#360 = ADVANCED_BREP_SHAPE_REPRESENTATION('', (#1, #116), #339);
ENDSEC;
END-ISO-10303-21;
