ISO-10303-21;
HEADER;
FILE_DESCRIPTION(('STEP'), '1');
FILE_NAME('C:\\Users\\ds2002\\OneDrive - Sandvik\\HomeShare\\Documents\\Batchrepair\\CorSRT2\\NEW_MILSQ_SLD\\Output\\MOD000000000000000020082271000000.stp', '2019-01-02T12:11:44', (''), (''), 'Express v3.0.0.0', 'Express Tool', 'Unknown');
FILE_SCHEMA(('AUTOMOTIVE_DESIGN'));
ENDSEC;

DATA;
#1 = MANIFOLD_SOLID_BREP('NOCUT', #2);
#2 = CLOSED_SHELL('', (#3, #50, #59, #98));
#3 = ADVANCED_FACE('', (#4), #31, .T.);
#4 = FACE_OUTER_BOUND('', #5, .T.);
#5 = EDGE_LOOP('', (#6, #16, #23, #24));
#6 = ORIENTED_EDGE('', *, *, #7, .T.);
#7 = EDGE_CURVE('', #8, #10, #12, .T.);
#8 = VERTEX_POINT('', #9);
#9 = CARTESIAN_POINT('', (-1.5875, 1.06926973650553E-16, -0.158750000000001));
#10 = VERTEX_POINT('', #11);
#11 = CARTESIAN_POINT('', (-1.42875, 8.7485705714089E-17, 0.));
#12 = LINE('', #13, #14);
#13 = CARTESIAN_POINT('', (-1.5875, 1.06926973650553E-16, -0.158750000000001));
#14 = VECTOR('', #15, 0.22450640302673);
#15 = DIRECTION('', (0.15875, -1.94412679364639E-17, 0.158750000000001));
#16 = ORIENTED_EDGE('', *, *, #17, .T.);
#17 = EDGE_CURVE('', #10, #10, #18, .T.);
#18 = CIRCLE('', #19, 1.42875);
#19 = AXIS2_PLACEMENT_3D('', #20, #21, #22);
#20 = CARTESIAN_POINT('', (-1.73472347597681E-16, -3.33066907387547E-16, -2.46519032881566E-32));
#21 = DIRECTION('', (7.69565905331277E-34, 6.12323399573676E-17, -1.));
#22 = DIRECTION('', (-1., 2.94350035416718E-16, 1.72541755297684E-32));
#23 = ORIENTED_EDGE('', *, *, #7, .F.);
#24 = ORIENTED_EDGE('', *, *, #25, .F.);
#25 = EDGE_CURVE('', #8, #8, #26, .T.);
#26 = CIRCLE('', #27, 1.5875);
#27 = AXIS2_PLACEMENT_3D('', #28, #29, #30);
#28 = CARTESIAN_POINT('', (7.14706072102445E-16, -3.88578058618805E-15, -0.158750000000001));
#29 = DIRECTION('', (0., 0., -1.));
#30 = DIRECTION('', (-1., 2.27016201644681E-15, 0.));
#31 = (
   BOUNDED_SURFACE ()
   B_SPLINE_SURFACE (1, 2, ((#32, #33, #34, #35, #36, #37, #38, #39, #40), (#41, #42, #43, #44, #45, #46, #47, #48, #49)), .UNSPECIFIED., .F., .T., .U.)
   B_SPLINE_SURFACE_WITH_KNOTS ((2, 2), (3, 2, 2, 2, 3), (0., 1.), (0., 0.25, 0.5, 0.75, 1.), .UNSPECIFIED.)
   GEOMETRIC_REPRESENTATION_ITEM ()
   RATIONAL_B_SPLINE_SURFACE (((1., 0.707106781186548, 1., 0.707106781186548, 1., 0.707106781186548, 1., 0.707106781186548, 1.), (1., 0.707106781186548, 1., 0.707106781186548, 1., 0.707106781186548, 1., 0.707106781186548, 1.)))
   REPRESENTATION_ITEM ('')
   SURFACE ()
);
#32 = CARTESIAN_POINT('', (-1.5875, -3.43798917321561E-16, -0.158750000000003));
#33 = CARTESIAN_POINT('', (-1.5875, 1.5875, -0.158750000000007));
#34 = CARTESIAN_POINT('', (9.56973582536609E-16, 1.5875, -0.158750000000007));
#35 = CARTESIAN_POINT('', (1.5875, 1.5875, -0.158750000000006));
#36 = CARTESIAN_POINT('', (1.5875, -9.60589486557759E-16, -0.158750000000001));
#37 = CARTESIAN_POINT('', (1.5875, -1.5875, -0.158749999999996));
#38 = CARTESIAN_POINT('', (5.34595692665049E-16, -1.5875, -0.158749999999997));
#39 = CARTESIAN_POINT('', (-1.5875, -1.5875, -0.158749999999998));
#40 = CARTESIAN_POINT('', (-1.5875, -3.43798917321561E-16, -0.158750000000003));
#41 = CARTESIAN_POINT('', (-1.42875, 8.7485705714089E-17, 1.97215226305253E-31));
#42 = CARTESIAN_POINT('', (-1.42875, 1.42875, -4.24660306919115E-15));
#43 = CARTESIAN_POINT('', (8.39606162372777E-16, 1.42875, -3.46785204387297E-15));
#44 = CARTESIAN_POINT('', (1.42875, 1.42875, -2.68910101855478E-15));
#45 = CARTESIAN_POINT('', (1.42875, -4.67625806598489E-16, 1.55750205063638E-15));
#46 = CARTESIAN_POINT('', (1.42875, -1.42875, 5.80410511982753E-15));
#47 = CARTESIAN_POINT('', (4.59466061488372E-16, -1.42875, 5.02535409450934E-15));
#48 = CARTESIAN_POINT('', (-1.42875, -1.42875, 4.24660306919116E-15));
#49 = CARTESIAN_POINT('', (-1.42875, 8.7485705714089E-17, 1.97215226305253E-31));
#50 = ADVANCED_FACE('', (#51), #54, .T.);
#51 = FACE_OUTER_BOUND('', #52, .T.);
#52 = EDGE_LOOP('', (#53));
#53 = ORIENTED_EDGE('', *, *, #17, .F.);
#54 = B_SPLINE_SURFACE_WITH_KNOTS('', 1, 1, ((#55, #56), (#57, #58)), .UNSPECIFIED., .F., .F., .U., (2, 2), (2, 2), (0.79386338996462, 3.65136338996462), (0.79386338996462, 3.65136338996462), .UNSPECIFIED.);
#55 = CARTESIAN_POINT('', (1.42875, -1.42875, -3.64019938451458E-15));
#56 = CARTESIAN_POINT('', (-1.42875, -1.42875, -3.64019938451458E-15));
#57 = CARTESIAN_POINT('', (1.42875, 1.42875, 3.64019938451459E-15));
#58 = CARTESIAN_POINT('', (-1.42875, 1.42875, 3.64019938451459E-15));
#59 = ADVANCED_FACE('', (#60), #79, .T.);
#60 = FACE_OUTER_BOUND('', #61, .T.);
#61 = EDGE_LOOP('', (#62, #71, #77, #78));
#62 = ORIENTED_EDGE('', *, *, #63, .F.);
#63 = EDGE_CURVE('', #64, #64, #66, .T.);
#64 = VERTEX_POINT('', #65);
#65 = CARTESIAN_POINT('', (-1.5875, 1.96846664877948E-15, -30.56));
#66 = CIRCLE('', #67, 1.5875);
#67 = AXIS2_PLACEMENT_3D('', #68, #69, #70);
#68 = CARTESIAN_POINT('', (2.77555756156289E-16, 2.77555756156289E-16, -30.56));
#69 = DIRECTION('', (0., 0., -1.));
#70 = DIRECTION('', (-1., 8.20211359933166E-16, 0.));
#71 = ORIENTED_EDGE('', *, *, #72, .T.);
#72 = EDGE_CURVE('', #64, #8, #73, .T.);
#73 = LINE('', #74, #75);
#74 = CARTESIAN_POINT('', (-1.5875, 1.96846664877948E-15, -30.56));
#75 = VECTOR('', #76, 30.40125);
#76 = DIRECTION('', (0., -1.86153967512893E-15, 30.40125));
#77 = ORIENTED_EDGE('', *, *, #25, .T.);
#78 = ORIENTED_EDGE('', *, *, #72, .F.);
#79 = (
   BOUNDED_SURFACE ()
   B_SPLINE_SURFACE (1, 2, ((#80, #81, #82, #83, #84, #85, #86, #87, #88), (#89, #90, #91, #92, #93, #94, #95, #96, #97)), .UNSPECIFIED., .F., .T., .U.)
   B_SPLINE_SURFACE_WITH_KNOTS ((2, 2), (3, 2, 2, 2, 3), (-0.176462051951821, 1.), (0., 0.25, 0.5, 0.75, 1.), .UNSPECIFIED.)
   GEOMETRIC_REPRESENTATION_ITEM ()
   RATIONAL_B_SPLINE_SURFACE (((1., 0.707106781186548, 1., 0.707106781186548, 1., 0.707106781186548, 1., 0.707106781186548, 1.), (1., 0.707106781186548, 1., 0.707106781186548, 1., 0.707106781186548, 1., 0.707106781186548, 1.)))
   REPRESENTATION_ITEM ('')
   SURFACE ()
);
#80 = CARTESIAN_POINT('', (-1.58750000000002, 8.00816364041268E-16, -30.56));
#81 = CARTESIAN_POINT('', (-1.58750000000002, 1.5875, -30.56));
#82 = CARTESIAN_POINT('', (-1.71130327124645E-14, 1.5875, -30.56));
#83 = CARTESIAN_POINT('', (1.58749999999998, 1.5875, -30.56));
#84 = CARTESIAN_POINT('', (1.58749999999998, 2.5022207842738E-15, -30.56));
#85 = CARTESIAN_POINT('', (1.58749999999998, -1.5875, -30.56));
#86 = CARTESIAN_POINT('', (-1.52172156128673E-14, -1.5875, -30.56));
#87 = CARTESIAN_POINT('', (-1.58750000000001, -1.5875, -30.56));
#88 = CARTESIAN_POINT('', (-1.58750000000002, 8.00816364041268E-16, -30.56));
#89 = CARTESIAN_POINT('', (-1.5875, 1.06926973650553E-16, -0.158750000000001));
#90 = CARTESIAN_POINT('', (-1.5875, 1.5875, -0.158750000000001));
#91 = CARTESIAN_POINT('', (-6.3559649909514E-16, 1.5875, -0.158750000000002));
#92 = CARTESIAN_POINT('', (1.5875, 1.5875, -0.158750000000003));
#93 = CARTESIAN_POINT('', (1.5875, 1.80833139388308E-15, -0.158750000000003));
#94 = CARTESIAN_POINT('', (1.5875, -1.5875, -0.158750000000003));
#95 = CARTESIAN_POINT('', (1.26022060050203E-15, -1.5875, -0.158750000000002));
#96 = CARTESIAN_POINT('', (-1.5875, -1.5875, -0.158750000000001));
#97 = CARTESIAN_POINT('', (-1.5875, 1.06926973650553E-16, -0.158750000000001));
#98 = ADVANCED_FACE('', (#99), #102, .T.);
#99 = FACE_OUTER_BOUND('', #100, .T.);
#100 = EDGE_LOOP('', (#101));
#101 = ORIENTED_EDGE('', *, *, #63, .T.);
#102 = B_SPLINE_SURFACE_WITH_KNOTS('', 1, 1, ((#103, #104), (#105, #106)), .UNSPECIFIED., .F., .F., .U., (2, 2), (2, 2), (37.7353433751217, 40.9103433751217), (35.8170078263905, 38.9920078263905), .UNSPECIFIED.);
#103 = CARTESIAN_POINT('', (-1.5875, 1.5875, -30.56));
#104 = CARTESIAN_POINT('', (-1.5875, -1.5875, -30.56));
#105 = CARTESIAN_POINT('', (1.5875, 1.5875, -30.56));
#106 = CARTESIAN_POINT('', (1.5875, -1.5875, -30.56));
#107 = DRAUGHTING_MODEL('', (#115, #190, #229, #234, #239, #244, #249), #263);
#108 = PRESENTATION_STYLE_ASSIGNMENT((#109));
#109 = SURFACE_STYLE_USAGE(.POSITIVE., #110);
#110 = SURFACE_SIDE_STYLE('', (#111));
#111 = SURFACE_STYLE_FILL_AREA(#112);
#112 = FILL_AREA_STYLE('', (#113));
#113 = FILL_AREA_STYLE_COLOUR('', #114);
#114 = COLOUR_RGB('', 0.50196078431373, 0.50196078431373, 0.50196078431373);
#115 = STYLED_ITEM('', (#108), #1);
#116 = MANIFOLD_SOLID_BREP('CUT', #117);
#117 = CLOSED_SHELL('', (#118, #135, #174));
#118 = ADVANCED_FACE('', (#119), #130, .T.);
#119 = FACE_OUTER_BOUND('', #120, .T.);
#120 = EDGE_LOOP('', (#121));
#121 = ORIENTED_EDGE('', *, *, #122, .F.);
#122 = EDGE_CURVE('', #123, #123, #125, .T.);
#123 = VERTEX_POINT('', #124);
#124 = CARTESIAN_POINT('', (-1.5875, 1.96846664877948E-15, -30.56));
#125 = CIRCLE('', #126, 1.5875);
#126 = AXIS2_PLACEMENT_3D('', #127, #128, #129);
#127 = CARTESIAN_POINT('', (-1.45716771982052E-16, 6.66133814775094E-16, -30.56));
#128 = DIRECTION('', (0., 0., -1.));
#129 = DIRECTION('', (-1., 8.20367139530322E-16, 0.));
#130 = B_SPLINE_SURFACE_WITH_KNOTS('', 1, 1, ((#131, #132), (#133, #134)), .UNSPECIFIED., .F., .F., .U., (2, 2), (2, 2), (35.8170078263905, 38.9920078263905), (37.7353433751217, 40.9103433751217), .UNSPECIFIED.);
#131 = CARTESIAN_POINT('', (-1.5875, 1.5875, -30.56));
#132 = CARTESIAN_POINT('', (1.5875, 1.5875, -30.56));
#133 = CARTESIAN_POINT('', (-1.5875, -1.5875, -30.56));
#134 = CARTESIAN_POINT('', (1.5875, -1.5875, -30.56));
#135 = ADVANCED_FACE('', (#136), #155, .T.);
#136 = FACE_OUTER_BOUND('', #137, .T.);
#137 = EDGE_LOOP('', (#138, #139, #147, #154));
#138 = ORIENTED_EDGE('', *, *, #122, .T.);
#139 = ORIENTED_EDGE('', *, *, #140, .F.);
#140 = EDGE_CURVE('', #141, #123, #143, .T.);
#141 = VERTEX_POINT('', #142);
#142 = CARTESIAN_POINT('', (-1.5875, 2.43015849205803E-15, -38.1));
#143 = LINE('', #144, #145);
#144 = CARTESIAN_POINT('', (-1.5875, 2.43015849205803E-15, -38.1));
#145 = VECTOR('', #146, 7.54);
#146 = DIRECTION('', (0., -4.6169184327855E-16, 7.54));
#147 = ORIENTED_EDGE('', *, *, #148, .F.);
#148 = EDGE_CURVE('', #141, #141, #149, .T.);
#149 = CIRCLE('', #150, 1.5875);
#150 = AXIS2_PLACEMENT_3D('', #151, #152, #153);
#151 = CARTESIAN_POINT('', (2.63677968348475E-16, 1.88737914186277E-15, -38.1));
#152 = DIRECTION('', (0., 0., -1.));
#153 = DIRECTION('', (-1., 3.41908252091505E-16, 0.));
#154 = ORIENTED_EDGE('', *, *, #140, .T.);
#155 = (
   BOUNDED_SURFACE ()
   B_SPLINE_SURFACE (1, 2, ((#156, #157, #158, #159, #160, #161, #162, #163, #164), (#165, #166, #167, #168, #169, #170, #171, #172, #173)), .UNSPECIFIED., .F., .T., .U.)
   B_SPLINE_SURFACE_WITH_KNOTS ((2, 2), (3, 2, 2, 2, 3), (-0.468243602766894, -0.176462051951821), (0., 0.25, 0.5, 0.75, 1.), .UNSPECIFIED.)
   GEOMETRIC_REPRESENTATION_ITEM ()
   RATIONAL_B_SPLINE_SURFACE (((1., 0.707106781186548, 1., 0.707106781186548, 1., 0.707106781186548, 1., 0.707106781186548, 1.), (1., 0.707106781186548, 1., 0.707106781186548, 1., 0.707106781186548, 1., 0.707106781186548, 1.)))
   REPRESENTATION_ITEM ('')
   SURFACE ()
);
#156 = CARTESIAN_POINT('', (-1.5875, 2.35704470739828E-15, -38.1));
#157 = CARTESIAN_POINT('', (-1.5875, 1.5875, -38.1));
#158 = CARTESIAN_POINT('', (4.14092589276641E-16, 1.5875, -38.1));
#159 = CARTESIAN_POINT('', (1.5875, 1.5875, -38.1));
#160 = CARTESIAN_POINT('', (1.5875, 1.72314855815441E-15, -38.1));
#161 = CARTESIAN_POINT('', (1.5875, -1.5875, -38.1));
#162 = CARTESIAN_POINT('', (-2.5390880602596E-17, -1.5875, -38.1));
#163 = CARTESIAN_POINT('', (-1.5875, -1.5875, -38.1));
#164 = CARTESIAN_POINT('', (-1.5875, 2.35704470739828E-15, -38.1));
#165 = CARTESIAN_POINT('', (-1.5875, 1.96846664877948E-15, -30.56));
#166 = CARTESIAN_POINT('', (-1.5875, 1.5875, -30.56));
#167 = CARTESIAN_POINT('', (4.14092589276641E-16, 1.5875, -30.56));
#168 = CARTESIAN_POINT('', (1.5875, 1.5875, -30.56));
#169 = CARTESIAN_POINT('', (1.5875, 1.3345704995356E-15, -30.56));
#170 = CARTESIAN_POINT('', (1.5875, -1.5875, -30.56));
#171 = CARTESIAN_POINT('', (-2.53908806025961E-17, -1.5875, -30.56));
#172 = CARTESIAN_POINT('', (-1.5875, -1.5875, -30.56));
#173 = CARTESIAN_POINT('', (-1.5875, 1.96846664877948E-15, -30.56));
#174 = ADVANCED_FACE('', (#175), #178, .T.);
#175 = FACE_OUTER_BOUND('', #176, .T.);
#176 = EDGE_LOOP('', (#177));
#177 = ORIENTED_EDGE('', *, *, #148, .T.);
#178 = B_SPLINE_SURFACE_WITH_KNOTS('', 1, 1, ((#179, #180), (#181, #182)), .UNSPECIFIED., .F., .F., .U., (2, 2), (2, 2), (0.882070433294019, 4.05707043329402), (0.88207043329401, 4.05707043329401), .UNSPECIFIED.);
#179 = CARTESIAN_POINT('', (1.5875, -1.5875, -38.1));
#180 = CARTESIAN_POINT('', (1.5875, 1.5875, -38.1));
#181 = CARTESIAN_POINT('', (-1.5875, -1.5875, -38.1));
#182 = CARTESIAN_POINT('', (-1.5875, 1.5875, -38.1));
#183 = PRESENTATION_STYLE_ASSIGNMENT((#184));
#184 = SURFACE_STYLE_USAGE(.POSITIVE., #185);
#185 = SURFACE_SIDE_STYLE('', (#186));
#186 = SURFACE_STYLE_FILL_AREA(#187);
#187 = FILL_AREA_STYLE('', (#188));
#188 = FILL_AREA_STYLE_COLOUR('', #189);
#189 = COLOUR_RGB('', 0.8, 0.8, 0.8);
#190 = STYLED_ITEM('', (#183), #116);
#191 = TRIMMED_CURVE('cutting part line', #192, (#196), (#197), .T., .CARTESIAN.);
#192 = LINE('', #193, #194);
#193 = CARTESIAN_POINT('', (-3.43744942186098E-31, -1.87126030909716E-15, -30.56));
#194 = VECTOR('', #195, 1.5875);
#195 = DIRECTION('', (1.5875, -2.91619019046962E-16, 0.));
#196 = CARTESIAN_POINT('', (-3.43744942186098E-31, -1.87126030909716E-15, -30.56));
#197 = CARTESIAN_POINT('', (1.5875, -2.16287932814412E-15, -30.56));
#198 = TRIMMED_CURVE('cutting part line', #199, (#203), (#204), .T., .CARTESIAN.);
#199 = LINE('', #200, #201);
#200 = CARTESIAN_POINT('', (1.5875, -2.16287932814412E-15, -30.56));
#201 = VECTOR('', #202, 7.54);
#202 = DIRECTION('', (0., -4.6169184327855E-16, -7.54));
#203 = CARTESIAN_POINT('', (1.5875, -2.16287932814412E-15, -30.56));
#204 = CARTESIAN_POINT('', (1.5875, -2.62457117142267E-15, -38.1));
#205 = TRIMMED_CURVE('cutting part line', #206, (#210), (#211), .T., .CARTESIAN.);
#206 = LINE('', #207, #208);
#207 = CARTESIAN_POINT('', (1.5875, -2.62457117142267E-15, -38.1));
#208 = VECTOR('', #209, 1.5875);
#209 = DIRECTION('', (-1.5875, 2.91619019046962E-16, 0.));
#210 = CARTESIAN_POINT('', (1.5875, -2.62457117142267E-15, -38.1));
#211 = CARTESIAN_POINT('', (-2.85704238597084E-31, -2.33295215237571E-15, -38.1));
#212 = TRIMMED_CURVE('cutting part line', #213, (#217), (#218), .T., .CARTESIAN.);
#213 = LINE('', #214, #215);
#214 = CARTESIAN_POINT('', (-4.28556357895626E-31, -2.33295215237571E-15, -38.1));
#215 = VECTOR('', #216, 7.54);
#216 = DIRECTION('', (8.48114157095278E-32, 4.6169184327855E-16, 7.54));
#217 = CARTESIAN_POINT('', (-4.28556357895626E-31, -2.33295215237571E-15, -38.1));
#218 = CARTESIAN_POINT('', (-3.43744942186098E-31, -1.87126030909716E-15, -30.56));
#219 = COMPOSITE_CURVE('cutting part line', (#220, #221, #222, #223), .U.);
#220 = COMPOSITE_CURVE_SEGMENT(.CONTINUOUS., .T., #191);
#221 = COMPOSITE_CURVE_SEGMENT(.CONTINUOUS., .T., #198);
#222 = COMPOSITE_CURVE_SEGMENT(.CONTINUOUS., .T., #205);
#223 = COMPOSITE_CURVE_SEGMENT(.CONTINUOUS., .T., #212);
#224 = GEOMETRIC_SET('', (#219, #262));
#225 = PRESENTATION_STYLE_ASSIGNMENT((#226));
#226 = CURVE_STYLE('', #228, POSITIVE_LENGTH_MEASURE(1.E-6), #227);
#227 = COLOUR_RGB('', 0., 0., 1.);
#228 = DRAUGHTING_PRE_DEFINED_CURVE_FONT('continuous');
#229 = STYLED_ITEM('', (#225), #219);
#230 = PRESENTATION_STYLE_ASSIGNMENT((#231));
#231 = CURVE_STYLE('', #233, POSITIVE_LENGTH_MEASURE(1.E-6), #232);
#232 = COLOUR_RGB('', 0., 0., 1.);
#233 = DRAUGHTING_PRE_DEFINED_CURVE_FONT('continuous');
#234 = OVER_RIDING_STYLED_ITEM('', (#230), #191, #229);
#235 = PRESENTATION_STYLE_ASSIGNMENT((#236));
#236 = CURVE_STYLE('', #238, POSITIVE_LENGTH_MEASURE(1.E-6), #237);
#237 = COLOUR_RGB('', 0., 0., 1.);
#238 = DRAUGHTING_PRE_DEFINED_CURVE_FONT('continuous');
#239 = OVER_RIDING_STYLED_ITEM('', (#235), #198, #229);
#240 = PRESENTATION_STYLE_ASSIGNMENT((#241));
#241 = CURVE_STYLE('', #243, POSITIVE_LENGTH_MEASURE(1.E-6), #242);
#242 = COLOUR_RGB('', 0., 0., 1.);
#243 = DRAUGHTING_PRE_DEFINED_CURVE_FONT('continuous');
#244 = OVER_RIDING_STYLED_ITEM('', (#240), #205, #229);
#245 = PRESENTATION_STYLE_ASSIGNMENT((#246));
#246 = CURVE_STYLE('', #248, POSITIVE_LENGTH_MEASURE(1.E-6), #247);
#247 = COLOUR_RGB('', 0., 0., 1.);
#248 = DRAUGHTING_PRE_DEFINED_CURVE_FONT('continuous');
#249 = OVER_RIDING_STYLED_ITEM('', (#245), #212, #229);
#250 = AXIS2_PLACEMENT_3D('CIP', #251, #252, #253);
#251 = CARTESIAN_POINT('', (1.42852119298542E-31, 2.33295215237571E-15, -38.1));
#252 = DIRECTION('', (-3.74939945665465E-33, -6.12323399573677E-17, 1.));
#253 = DIRECTION('', (1., -6.12323399573677E-17, 0.));
#254 = AXIS2_PLACEMENT_3D('MCS', #255, #256, #257);
#255 = CARTESIAN_POINT('', (9.74843858730207E-32, 1.59204083889156E-15, -26.));
#256 = DIRECTION('', (-3.74939945665465E-33, -6.12323399573677E-17, 1.));
#257 = DIRECTION('', (1., -6.12323399573677E-17, 0.));
#258 = AXIS2_PLACEMENT_3D('PCS', #259, #260, #261);
#259 = CARTESIAN_POINT('', (0., 0., 0.));
#260 = DIRECTION('', (0., 0., 1.));
#261 = DIRECTION('', (1., 0., 0.));
#262 = CARTESIAN_POINT('CRP', (1.5875, 0., -38.1));
#263 = (
   GEOMETRIC_REPRESENTATION_CONTEXT (3)
   GLOBAL_UNCERTAINTY_ASSIGNED_CONTEXT ((#265))
   GLOBAL_UNIT_ASSIGNED_CONTEXT ((#264, #266, #267))
   REPRESENTATION_CONTEXT ('', '3D')
);
#264 = (
   LENGTH_UNIT ()
   NAMED_UNIT (*)
   SI_UNIT (.MILLI., .METRE.)
);
#265 = UNCERTAINTY_MEASURE_WITH_UNIT(LENGTH_MEASURE(1.E-6), #264, 'DISTANCE_ACCURACY_VALUE', '');
#266 = (
   NAMED_UNIT (*)
   SI_UNIT ($, .STERADIAN.)
   SOLID_ANGLE_UNIT ()
);
#267 = (
   NAMED_UNIT (*)
   PLANE_ANGLE_UNIT ()
   SI_UNIT ($, .RADIAN.)
);
#268 = SHAPE_REPRESENTATION('', (), #263);
#269 = PRODUCT_DEFINITION_SHAPE('', '', #270);
#270 = PRODUCT_DEFINITION('', '', #273, #277);
#271 = APPLICATION_CONTEXT('configuration controlled 3D designs of mechanical parts and assemblies');
#272 = APPLICATION_PROTOCOL_DEFINITION('International Standard', 'automotive_design', 2002, #271);
#273 = PRODUCT_DEFINITION_FORMATION_WITH_SPECIFIED_SOURCE('', '', #274, .NOT_KNOWN.);
#274 = PRODUCT('NONE', '1P330-0318-XA       1620', '', (#275));
#275 = PRODUCT_CONTEXT('', #271, 'mechanical');
#276 = PRODUCT_RELATED_PRODUCT_CATEGORY('detail', '', (#274));
#277 = PRODUCT_DEFINITION_CONTEXT('part definition', #271, 'design');
#278 = SHAPE_DEFINITION_REPRESENTATION(#269, #268);
#279 = CONSTRUCTIVE_GEOMETRY_REPRESENTATION('supplemental geometry', (#250, #254, #258), #263);
#280 = CONSTRUCTIVE_GEOMETRY_REPRESENTATION_RELATIONSHIP('', '', #268, #279);
#281 = SHAPE_REPRESENTATION_RELATIONSHIP('', '', #268, #282);
#282 = SHAPE_REPRESENTATION('', (#224), #263);
#283 = SHAPE_REPRESENTATION_RELATIONSHIP('', '', #268, #284);
#284 = ADVANCED_BREP_SHAPE_REPRESENTATION('', (#1, #116), #263);
ENDSEC;
END-ISO-10303-21;
