ISO-10303-21;
HEADER;
FILE_DESCRIPTION(('STEP'), '1');
FILE_NAME('C:\\Users\\ds2002\\OneDrive - Sandvik\\HomeShare\\Documents\\Batchrepair\\CorSRT2\\NEW_MILSQ_SLD\\Output\\MOD000000000000000020082247800000.stp', '2019-01-02T12:10:33', (''), (''), 'Express v3.0.0.0', 'Express Tool', 'Unknown');
FILE_SCHEMA(('AUTOMOTIVE_DESIGN'));
ENDSEC;

DATA;
#1 = MANIFOLD_SOLID_BREP('NOCUT', #2);
#2 = CLOSED_SHELL('', (#3, #50, #59, #98));
#3 = ADVANCED_FACE('', (#4), #31, .T.);
#4 = FACE_OUTER_BOUND('', #5, .T.);
#5 = EDGE_LOOP('', (#6, #16, #23, #24));
#6 = ORIENTED_EDGE('', *, *, #7, .T.);
#7 = EDGE_CURVE('', #8, #10, #12, .T.);
#8 = VERTEX_POINT('', #9);
#9 = CARTESIAN_POINT('', (-2.3815, 1.60407299369318E-16, -0.238150000000001));
#10 = VERTEX_POINT('', #11);
#11 = CARTESIAN_POINT('', (-2.14335, 1.31242335847624E-16, 0.));
#12 = LINE('', #13, #14);
#13 = CARTESIAN_POINT('', (-2.3815, 1.60407299369318E-16, -0.238150000000001));
#14 = VECTOR('', #15, 0.336794959879153);
#15 = DIRECTION('', (0.23815, -2.9164963521694E-17, 0.238150000000001));
#16 = ORIENTED_EDGE('', *, *, #17, .T.);
#17 = EDGE_CURVE('', #10, #10, #18, .T.);
#18 = CIRCLE('', #19, 2.14335);
#19 = AXIS2_PLACEMENT_3D('', #20, #21, #22);
#20 = CARTESIAN_POINT('', (-4.44089209850063E-16, -5.55111512312578E-17, -6.16297582203915E-33));
#21 = DIRECTION('', (2.45987691557553E-33, 6.12323399573677E-17, -1.));
#22 = DIRECTION('', (-1., 8.71315870384594E-17, 2.87539404298839E-33));
#23 = ORIENTED_EDGE('', *, *, #7, .F.);
#24 = ORIENTED_EDGE('', *, *, #25, .F.);
#25 = EDGE_CURVE('', #8, #8, #26, .T.);
#26 = CIRCLE('', #27, 2.3815);
#27 = AXIS2_PLACEMENT_3D('', #28, #29, #30);
#28 = CARTESIAN_POINT('', (4.02455846426619E-16, -8.32667268468867E-16, -0.238150000000001));
#29 = DIRECTION('', (0., 0., -1.));
#30 = DIRECTION('', (-1., 4.16995409547842E-16, 0.));
#31 = (
   BOUNDED_SURFACE ()
   B_SPLINE_SURFACE (1, 2, ((#32, #33, #34, #35, #36, #37, #38, #39, #40), (#41, #42, #43, #44, #45, #46, #47, #48, #49)), .UNSPECIFIED., .F., .T., .U.)
   B_SPLINE_SURFACE_WITH_KNOTS ((2, 2), (3, 2, 2, 2, 3), (0., 1.), (0., 0.25, 0.5, 0.75, 1.), .UNSPECIFIED.)
   GEOMETRIC_REPRESENTATION_ITEM ()
   RATIONAL_B_SPLINE_SURFACE (((1., 0.707106781186548, 1., 0.707106781186548, 1., 0.707106781186548, 1., 0.707106781186548, 1.), (1., 0.707106781186548, 1., 0.707106781186548, 1., 0.707106781186548, 1., 0.707106781186548, 1.)))
   REPRESENTATION_ITEM ('')
   SURFACE ()
);
#32 = CARTESIAN_POINT('', (-2.3815, 1.08951438853985E-15, -0.238150000000001));
#33 = CARTESIAN_POINT('', (-2.3815, 2.3815, -0.238149999999993));
#34 = CARTESIAN_POINT('', (5.89805981832115E-16, 2.3815, -0.238149999999993));
#35 = CARTESIAN_POINT('', (2.3815, 2.3815, -0.238149999999993));
#36 = CARTESIAN_POINT('', (2.3815, -1.13093166071046E-15, -0.238150000000001));
#37 = CARTESIAN_POINT('', (2.3815, -2.3815, -0.238150000000009));
#38 = CARTESIAN_POINT('', (-1.33899043220126E-15, -2.3815, -0.238150000000009));
#39 = CARTESIAN_POINT('', (-2.3815, -2.3815, -0.238150000000009));
#40 = CARTESIAN_POINT('', (-2.3815, 1.08951438853985E-15, -0.238150000000001));
#41 = CARTESIAN_POINT('', (-2.14335, 1.31242335847624E-16, 2.18952885050753E-47));
#42 = CARTESIAN_POINT('', (-2.14335, 2.14335, 7.49400541621978E-15));
#43 = CARTESIAN_POINT('', (4.78783679369599E-16, 2.14335, 7.49400541621978E-15));
#44 = CARTESIAN_POINT('', (2.14335, 2.14335, 7.49400541621978E-15));
#45 = CARTESIAN_POINT('', (2.14335, -1.86715910847766E-15, 7.94491458135865E-31));
#46 = CARTESIAN_POINT('', (2.14335, -2.14335, -7.49400541621978E-15));
#47 = CARTESIAN_POINT('', (-1.25713309326044E-15, -2.14335, -7.49400541621978E-15));
#48 = CARTESIAN_POINT('', (-2.14335, -2.14335, -7.49400541621978E-15));
#49 = CARTESIAN_POINT('', (-2.14335, 1.31242335847624E-16, 2.18952885050753E-47));
#50 = ADVANCED_FACE('', (#51), #54, .T.);
#51 = FACE_OUTER_BOUND('', #52, .T.);
#52 = EDGE_LOOP('', (#53));
#53 = ORIENTED_EDGE('', *, *, #17, .F.);
#54 = B_SPLINE_SURFACE_WITH_KNOTS('', 1, 1, ((#55, #56), (#57, #58)), .UNSPECIFIED., .F., .F., .U., (2, 2), (2, 2), (1.19092010280361, 5.47762010280361), (1.19092010280361, 5.47762010280361), .UNSPECIFIED.);
#55 = CARTESIAN_POINT('', (2.14335, -2.14335, -3.68395601464813E-15));
#56 = CARTESIAN_POINT('', (-2.14335, -2.14335, 3.42147134295289E-15));
#57 = CARTESIAN_POINT('', (2.14335, 2.14335, -3.42147134295288E-15));
#58 = CARTESIAN_POINT('', (-2.14335, 2.14335, 3.68395601464814E-15));
#59 = ADVANCED_FACE('', (#60), #79, .T.);
#60 = FACE_OUTER_BOUND('', #61, .T.);
#61 = EDGE_LOOP('', (#62, #71, #77, #78));
#62 = ORIENTED_EDGE('', *, *, #63, .F.);
#63 = EDGE_CURVE('', #64, #64, #66, .T.);
#64 = VERTEX_POINT('', #65);
#65 = CARTESIAN_POINT('', (-2.3815, 2.62450993908271E-15, -40.48));
#66 = CIRCLE('', #67, 2.3815);
#67 = AXIS2_PLACEMENT_3D('', #68, #69, #70);
#68 = CARTESIAN_POINT('', (1.52655665885959E-16, 4.10782519111308E-15, -40.48));
#69 = DIRECTION('', (2.98359326374177E-15, -9.70657341003836E-15, -1.));
#70 = DIRECTION('', (-1., -6.22849150548125E-16, -2.98359326374176E-15));
#71 = ORIENTED_EDGE('', *, *, #72, .T.);
#72 = EDGE_CURVE('', #64, #8, #73, .T.);
#73 = LINE('', #74, #75);
#74 = CARTESIAN_POINT('', (-2.3815, 2.62450993908271E-15, -40.48));
#75 = VECTOR('', #76, 40.24185);
#76 = DIRECTION('', (0., -2.46410263971339E-15, 40.24185));
#77 = ORIENTED_EDGE('', *, *, #25, .T.);
#78 = ORIENTED_EDGE('', *, *, #72, .F.);
#79 = (
   BOUNDED_SURFACE ()
   B_SPLINE_SURFACE (1, 2, ((#80, #81, #82, #83, #84, #85, #86, #87, #88), (#89, #90, #91, #92, #93, #94, #95, #96, #97)), .UNSPECIFIED., .F., .T., .U.)
   B_SPLINE_SURFACE_WITH_KNOTS ((2, 2), (3, 2, 2, 2, 3), (-0.562071435087154, 1.), (0., 0.25, 0.5, 0.75, 1.), .UNSPECIFIED.)
   GEOMETRIC_REPRESENTATION_ITEM ()
   RATIONAL_B_SPLINE_SURFACE (((1., 0.707106781186548, 1., 0.707106781186548, 1., 0.707106781186548, 1., 0.707106781186548, 1.), (1., 0.707106781186548, 1., 0.707106781186548, 1., 0.707106781186548, 1., 0.707106781186548, 1.)))
   REPRESENTATION_ITEM ('')
   SURFACE ()
);
#80 = CARTESIAN_POINT('', (-2.3815, 4.37963055525607E-16, -40.48));
#81 = CARTESIAN_POINT('', (-2.3815, 2.3815, -40.48));
#82 = CARTESIAN_POINT('', (-6.02979075686896E-16, 2.3815, -40.48));
#83 = CARTESIAN_POINT('', (2.3815, 2.3815, -40.48));
#84 = CARTESIAN_POINT('', (2.3815, 1.40799881416655E-15, -40.48));
#85 = CARTESIAN_POINT('', (2.3815, -2.3815, -40.48));
#86 = CARTESIAN_POINT('', (6.58706318170993E-16, -2.3815, -40.48));
#87 = CARTESIAN_POINT('', (-2.3815, -2.3815, -40.48));
#88 = CARTESIAN_POINT('', (-2.3815, 4.37963055525607E-16, -40.48));
#89 = CARTESIAN_POINT('', (-2.3815, 1.60407299369318E-16, -0.238150000000001));
#90 = CARTESIAN_POINT('', (-2.3815, 2.3815, -0.238150000000001));
#91 = CARTESIAN_POINT('', (-6.02979075686896E-16, 2.3815, -0.238150000000001));
#92 = CARTESIAN_POINT('', (2.3815, 2.3815, -0.238150000000001));
#93 = CARTESIAN_POINT('', (2.3815, 1.13044305801026E-15, -0.238150000000001));
#94 = CARTESIAN_POINT('', (2.3815, -2.3815, -0.238150000000001));
#95 = CARTESIAN_POINT('', (6.58706318170993E-16, -2.3815, -0.238150000000001));
#96 = CARTESIAN_POINT('', (-2.3815, -2.3815, -0.238150000000001));
#97 = CARTESIAN_POINT('', (-2.3815, 1.60407299369318E-16, -0.238150000000001));
#98 = ADVANCED_FACE('', (#99), #102, .T.);
#99 = FACE_OUTER_BOUND('', #100, .T.);
#100 = EDGE_LOOP('', (#101));
#101 = ORIENTED_EDGE('', *, *, #63, .T.);
#102 = B_SPLINE_SURFACE_WITH_KNOTS('', 1, 1, ((#103, #104), (#105, #106)), .UNSPECIFIED., .F., .F., .U., (2, 2), (2, 2), (50.2770364948893, 55.0400364948893), (47.4492374923538, 52.2122374923538), .UNSPECIFIED.);
#103 = CARTESIAN_POINT('', (-2.3815, 2.3815, -40.48));
#104 = CARTESIAN_POINT('', (-2.3815, -2.3815, -40.48));
#105 = CARTESIAN_POINT('', (2.3815, 2.3815, -40.48));
#106 = CARTESIAN_POINT('', (2.3815, -2.3815, -40.48));
#107 = DRAUGHTING_MODEL('', (#115, #229, #276, #281, #286, #291, #296, #301), #315);
#108 = PRESENTATION_STYLE_ASSIGNMENT((#109));
#109 = SURFACE_STYLE_USAGE(.POSITIVE., #110);
#110 = SURFACE_SIDE_STYLE('', (#111));
#111 = SURFACE_STYLE_FILL_AREA(#112);
#112 = FILL_AREA_STYLE('', (#113));
#113 = FILL_AREA_STYLE_COLOUR('', #114);
#114 = COLOUR_RGB('', 0.50196078431373, 0.50196078431373, 0.50196078431373);
#115 = STYLED_ITEM('', (#108), #1);
#116 = MANIFOLD_SOLID_BREP('CUT', #117);
#117 = CLOSED_SHELL('', (#118, #135, #174, #213));
#118 = ADVANCED_FACE('', (#119), #130, .T.);
#119 = FACE_OUTER_BOUND('', #120, .T.);
#120 = EDGE_LOOP('', (#121));
#121 = ORIENTED_EDGE('', *, *, #122, .F.);
#122 = EDGE_CURVE('', #123, #123, #125, .T.);
#123 = VERTEX_POINT('', #124);
#124 = CARTESIAN_POINT('', (-2.3815, 2.62450993908271E-15, -40.48));
#125 = CIRCLE('', #126, 2.3815);
#126 = AXIS2_PLACEMENT_3D('', #127, #128, #129);
#127 = CARTESIAN_POINT('', (1.52655665885959E-16, 4.10782519111308E-15, -40.48));
#128 = DIRECTION('', (2.98359326374177E-15, -9.70657341003836E-15, -1.));
#129 = DIRECTION('', (-1., -6.22849150548125E-16, -2.98359326374176E-15));
#130 = B_SPLINE_SURFACE_WITH_KNOTS('', 1, 1, ((#131, #132), (#133, #134)), .UNSPECIFIED., .F., .F., .U., (2, 2), (2, 2), (47.4492374923538, 52.2122374923538), (50.2770364948893, 55.0400364948893), .UNSPECIFIED.);
#131 = CARTESIAN_POINT('', (-2.3815, 2.3815, -40.48));
#132 = CARTESIAN_POINT('', (2.3815, 2.3815, -40.48));
#133 = CARTESIAN_POINT('', (-2.3815, -2.3815, -40.48));
#134 = CARTESIAN_POINT('', (2.3815, -2.3815, -40.48));
#135 = ADVANCED_FACE('', (#136), #155, .T.);
#136 = FACE_OUTER_BOUND('', #137, .T.);
#137 = EDGE_LOOP('', (#138, #139, #147, #154));
#138 = ORIENTED_EDGE('', *, *, #122, .T.);
#139 = ORIENTED_EDGE('', *, *, #140, .F.);
#140 = EDGE_CURVE('', #141, #123, #143, .T.);
#141 = VERTEX_POINT('', #142);
#142 = CARTESIAN_POINT('', (-2.3815, 3.24865118026816E-15, -50.673));
#143 = LINE('', #144, #145);
#144 = CARTESIAN_POINT('', (-2.3815, 3.24865118026816E-15, -50.673));
#145 = VECTOR('', #146, 10.193);
#146 = DIRECTION('', (0., -6.2414124118545E-16, 10.193));
#147 = ORIENTED_EDGE('', *, *, #148, .F.);
#148 = EDGE_CURVE('', #141, #141, #149, .T.);
#149 = CIRCLE('', #150, 2.3815);
#150 = AXIS2_PLACEMENT_3D('', #151, #152, #153);
#151 = CARTESIAN_POINT('', (9.64506252643105E-16, 7.7715611723761E-16, -50.673));
#152 = DIRECTION('', (0., 0., -1.));
#153 = DIRECTION('', (-1., 1.03778923494879E-15, 0.));
#154 = ORIENTED_EDGE('', *, *, #140, .T.);
#155 = (
   BOUNDED_SURFACE ()
   B_SPLINE_SURFACE (1, 2, ((#156, #157, #158, #159, #160, #161, #162, #163, #164), (#165, #166, #167, #168, #169, #170, #171, #172, #173)), .UNSPECIFIED., .F., .T., .U.)
   B_SPLINE_SURFACE_WITH_KNOTS ((2, 2), (3, 2, 2, 2, 3), (-0.957734013667497, -0.562071435087154), (0., 0.25, 0.5, 0.75, 1.), .UNSPECIFIED.)
   GEOMETRIC_REPRESENTATION_ITEM ()
   RATIONAL_B_SPLINE_SURFACE (((1., 0.707106781186548, 1., 0.707106781186548, 1., 0.707106781186548, 1., 0.707106781186548, 1.), (1., 0.707106781186548, 1., 0.707106781186548, 1., 0.707106781186548, 1., 0.707106781186548, 1.)))
   REPRESENTATION_ITEM ('')
   SURFACE ()
);
#156 = CARTESIAN_POINT('', (-2.3815, 2.73553224154523E-15, -50.673));
#157 = CARTESIAN_POINT('', (-2.3815, 2.3815, -50.673));
#158 = CARTESIAN_POINT('', (1.78479573108352E-15, 2.3815, -50.673));
#159 = CARTESIAN_POINT('', (2.3815, 2.3815, -50.673));
#160 = CARTESIAN_POINT('', (2.3815, -6.67525766928032E-16, -50.673));
#161 = CARTESIAN_POINT('', (2.3815, -2.3815, -50.673));
#162 = CARTESIAN_POINT('', (-1.3266126421728E-15, -2.3815, -50.673));
#163 = CARTESIAN_POINT('', (-2.3815, -2.3815, -50.673));
#164 = CARTESIAN_POINT('', (-2.3815, 2.73553224154523E-15, -50.673));
#165 = CARTESIAN_POINT('', (-2.3815, 2.62450993908271E-15, -40.48));
#166 = CARTESIAN_POINT('', (-2.3815, 2.3815, -40.48));
#167 = CARTESIAN_POINT('', (1.78479573108352E-15, 2.3815, -40.48));
#168 = CARTESIAN_POINT('', (2.3815, 2.3815, -40.48));
#169 = CARTESIAN_POINT('', (2.3815, -7.78548069390549E-16, -40.48));
#170 = CARTESIAN_POINT('', (2.3815, -2.3815, -40.48));
#171 = CARTESIAN_POINT('', (-1.3266126421728E-15, -2.3815, -40.48));
#172 = CARTESIAN_POINT('', (-2.3815, -2.3815, -40.48));
#173 = CARTESIAN_POINT('', (-2.3815, 2.62450993908271E-15, -40.48));
#174 = ADVANCED_FACE('', (#175), #194, .T.);
#175 = FACE_OUTER_BOUND('', #176, .T.);
#176 = EDGE_LOOP('', (#177, #185, #186, #187));
#177 = ORIENTED_EDGE('', *, *, #178, .F.);
#178 = EDGE_CURVE('', #141, #179, #181, .T.);
#179 = VERTEX_POINT('', #180);
#180 = CARTESIAN_POINT('', (-2.2545, 3.24865118026816E-15, -50.8));
#181 = LINE('', #182, #183);
#182 = CARTESIAN_POINT('', (-2.3815, 3.24865118026816E-15, -50.673));
#183 = VECTOR('', #184, 0.17960512242138);
#184 = DIRECTION('', (0.127, 0., -0.126999999999995));
#185 = ORIENTED_EDGE('', *, *, #148, .T.);
#186 = ORIENTED_EDGE('', *, *, #178, .T.);
#187 = ORIENTED_EDGE('', *, *, #188, .F.);
#188 = EDGE_CURVE('', #179, #179, #189, .T.);
#189 = CIRCLE('', #190, 2.2545);
#190 = AXIS2_PLACEMENT_3D('', #191, #192, #193);
#191 = CARTESIAN_POINT('', (2.63677968348475E-16, 8.88178419700125E-16, -50.8));
#192 = DIRECTION('', (0., 0., -1.));
#193 = DIRECTION('', (-1., 1.04700499470749E-15, 0.));
#194 = (
   BOUNDED_SURFACE ()
   B_SPLINE_SURFACE (2, 1, ((#195, #196), (#197, #198), (#199, #200), (#201, #202), (#203, #204), (#205, #206), (#207, #208), (#209, #210), (#211, #212)), .UNSPECIFIED., .T., .F., .U.)
   B_SPLINE_SURFACE_WITH_KNOTS ((3, 2, 2, 2, 3), (2, 2), (0., 0.25, 0.5, 0.75, 1.), (0., 1.), .UNSPECIFIED.)
   GEOMETRIC_REPRESENTATION_ITEM ()
   RATIONAL_B_SPLINE_SURFACE (((1., 1.), (0.707106781186548, 0.707106781186548), (1., 1.), (0.707106781186548, 0.707106781186548), (1., 1.), (0.707106781186548, 0.707106781186548), (1., 1.), (0.707106781186548, 0.707106781186548), (1., 1.)))
   REPRESENTATION_ITEM ('')
   SURFACE ()
);
#195 = CARTESIAN_POINT('', (-2.3815, 3.24865118026816E-15, -50.673));
#196 = CARTESIAN_POINT('', (-2.2545, 3.22787424989218E-15, -50.8));
#197 = CARTESIAN_POINT('', (-2.3815, 2.3815, -50.673));
#198 = CARTESIAN_POINT('', (-2.2545, 2.2545, -50.8));
#199 = CARTESIAN_POINT('', (2.29791466980645E-15, 2.3815, -50.673));
#200 = CARTESIAN_POINT('', (2.17389194414254E-15, 2.2545, -50.8));
#201 = CARTESIAN_POINT('', (2.3815, 2.3815, -50.673));
#202 = CARTESIAN_POINT('', (2.2545, 2.2545, -50.8));
#203 = CARTESIAN_POINT('', (2.3815, -1.402689310576E-15, -50.673));
#204 = CARTESIAN_POINT('', (2.2545, -1.17542078962416E-15, -50.8));
#205 = CARTESIAN_POINT('', (2.3815, -2.3815, -50.673));
#206 = CARTESIAN_POINT('', (2.2545, -2.2545, -50.8));
#207 = CARTESIAN_POINT('', (-2.06177618582077E-15, -2.3815, -50.673));
#208 = CARTESIAN_POINT('', (-1.95330647450603E-15, -2.2545, -50.8));
#209 = CARTESIAN_POINT('', (-2.3815, -2.3815, -50.673));
#210 = CARTESIAN_POINT('', (-2.2545, -2.2545, -50.8));
#211 = CARTESIAN_POINT('', (-2.3815, 3.24865118026816E-15, -50.673));
#212 = CARTESIAN_POINT('', (-2.2545, 3.22787424989218E-15, -50.8));
#213 = ADVANCED_FACE('', (#214), #217, .T.);
#214 = FACE_OUTER_BOUND('', #215, .T.);
#215 = EDGE_LOOP('', (#216));
#216 = ORIENTED_EDGE('', *, *, #188, .T.);
#217 = B_SPLINE_SURFACE_WITH_KNOTS('', 1, 1, ((#218, #219), (#220, #221)), .UNSPECIFIED., .F., .F., .U., (2, 2), (2, 2), (1.25267892400716, 5.76167892400716), (1.25267892400715, 5.76167892400715), .UNSPECIFIED.);
#218 = CARTESIAN_POINT('', (2.2545, -2.2545, -50.8));
#219 = CARTESIAN_POINT('', (2.2545, 2.2545, -50.8));
#220 = CARTESIAN_POINT('', (-2.2545, -2.2545, -50.8));
#221 = CARTESIAN_POINT('', (-2.2545, 2.2545, -50.8));
#222 = PRESENTATION_STYLE_ASSIGNMENT((#223));
#223 = SURFACE_STYLE_USAGE(.POSITIVE., #224);
#224 = SURFACE_SIDE_STYLE('', (#225));
#225 = SURFACE_STYLE_FILL_AREA(#226);
#226 = FILL_AREA_STYLE('', (#227));
#227 = FILL_AREA_STYLE_COLOUR('', #228);
#228 = COLOUR_RGB('', 0.8, 0.8, 0.8);
#229 = STYLED_ITEM('', (#222), #116);
#230 = TRIMMED_CURVE('cutting part line', #231, (#235), (#236), .T., .CARTESIAN.);
#231 = LINE('', #232, #233);
#232 = CARTESIAN_POINT('', (-4.5532707001614E-31, -2.47868512147424E-15, -40.48));
#233 = VECTOR('', #234, 2.3815);
#234 = DIRECTION('', (2.3815, -4.37474452825412E-16, 0.));
#235 = CARTESIAN_POINT('', (-4.5532707001614E-31, -2.47868512147424E-15, -40.48));
#236 = CARTESIAN_POINT('', (2.3815, -2.91615957429965E-15, -40.48));
#237 = TRIMMED_CURVE('cutting part line', #238, (#242), (#243), .T., .CARTESIAN.);
#238 = LINE('', #239, #240);
#239 = CARTESIAN_POINT('', (2.3815, -2.91615957429965E-15, -40.48));
#240 = VECTOR('', #241, 10.193);
#241 = DIRECTION('', (0., -6.2414124118545E-16, -10.193));
#242 = CARTESIAN_POINT('', (2.3815, -2.91615957429965E-15, -40.48));
#243 = CARTESIAN_POINT('', (2.3815, -3.5403008154851E-15, -50.673));
#244 = TRIMMED_CURVE('cutting part line', #245, (#249), (#250), .T., .CARTESIAN.);
#245 = LINE('', #246, #247);
#246 = CARTESIAN_POINT('', (2.3815, -3.5403008154851E-15, -50.673));
#247 = VECTOR('', #248, 0.17960512242138);
#248 = DIRECTION('', (-0.127, 1.55530143491715E-17, -0.126999999999995));
#249 = CARTESIAN_POINT('', (2.3815, -3.5403008154851E-15, -50.673));
#250 = CARTESIAN_POINT('', (2.2545, -3.52474780113593E-15, -50.8));
#251 = TRIMMED_CURVE('cutting part line', #252, (#256), (#257), .T., .CARTESIAN.);
#252 = LINE('', #253, #254);
#253 = CARTESIAN_POINT('', (2.2545, -3.52474780113593E-15, -50.8));
#254 = VECTOR('', #255, 2.2545);
#255 = DIRECTION('', (-2.2545, 4.14144931301651E-16, 0.));
#256 = CARTESIAN_POINT('', (2.2545, -3.52474780113593E-15, -50.8));
#257 = CARTESIAN_POINT('', (-3.80938984796112E-31, -3.11060286983428E-15, -50.8));
#258 = TRIMMED_CURVE('cutting part line', #259, (#263), (#264), .T., .CARTESIAN.);
#259 = LINE('', #260, #261);
#260 = CARTESIAN_POINT('', (-5.71408477194168E-31, -3.11060286983428E-15, -50.8));
#261 = VECTOR('', #262, 10.32);
#262 = DIRECTION('', (1.16081407178029E-31, 6.3191774836004E-16, 10.32));
#263 = CARTESIAN_POINT('', (-5.71408477194168E-31, -3.11060286983428E-15, -50.8));
#264 = CARTESIAN_POINT('', (-4.5532707001614E-31, -2.47868512147424E-15, -40.48));
#265 = COMPOSITE_CURVE('cutting part line', (#266, #267, #268, #269, #270), .U.);
#266 = COMPOSITE_CURVE_SEGMENT(.CONTINUOUS., .T., #230);
#267 = COMPOSITE_CURVE_SEGMENT(.CONTINUOUS., .T., #237);
#268 = COMPOSITE_CURVE_SEGMENT(.CONTINUOUS., .T., #244);
#269 = COMPOSITE_CURVE_SEGMENT(.CONTINUOUS., .T., #251);
#270 = COMPOSITE_CURVE_SEGMENT(.CONTINUOUS., .T., #258);
#271 = GEOMETRIC_SET('', (#265, #314));
#272 = PRESENTATION_STYLE_ASSIGNMENT((#273));
#273 = CURVE_STYLE('', #275, POSITIVE_LENGTH_MEASURE(1.E-6), #274);
#274 = COLOUR_RGB('', 0., 0., 1.);
#275 = DRAUGHTING_PRE_DEFINED_CURVE_FONT('continuous');
#276 = STYLED_ITEM('', (#272), #265);
#277 = PRESENTATION_STYLE_ASSIGNMENT((#278));
#278 = CURVE_STYLE('', #280, POSITIVE_LENGTH_MEASURE(1.E-6), #279);
#279 = COLOUR_RGB('', 0., 0., 1.);
#280 = DRAUGHTING_PRE_DEFINED_CURVE_FONT('continuous');
#281 = OVER_RIDING_STYLED_ITEM('', (#277), #230, #276);
#282 = PRESENTATION_STYLE_ASSIGNMENT((#283));
#283 = CURVE_STYLE('', #285, POSITIVE_LENGTH_MEASURE(1.E-6), #284);
#284 = COLOUR_RGB('', 0., 0., 1.);
#285 = DRAUGHTING_PRE_DEFINED_CURVE_FONT('continuous');
#286 = OVER_RIDING_STYLED_ITEM('', (#282), #237, #276);
#287 = PRESENTATION_STYLE_ASSIGNMENT((#288));
#288 = CURVE_STYLE('', #290, POSITIVE_LENGTH_MEASURE(1.E-6), #289);
#289 = COLOUR_RGB('', 0., 0., 1.);
#290 = DRAUGHTING_PRE_DEFINED_CURVE_FONT('continuous');
#291 = OVER_RIDING_STYLED_ITEM('', (#287), #244, #276);
#292 = PRESENTATION_STYLE_ASSIGNMENT((#293));
#293 = CURVE_STYLE('', #295, POSITIVE_LENGTH_MEASURE(1.E-6), #294);
#294 = COLOUR_RGB('', 0., 0., 1.);
#295 = DRAUGHTING_PRE_DEFINED_CURVE_FONT('continuous');
#296 = OVER_RIDING_STYLED_ITEM('', (#292), #251, #276);
#297 = PRESENTATION_STYLE_ASSIGNMENT((#298));
#298 = CURVE_STYLE('', #300, POSITIVE_LENGTH_MEASURE(1.E-6), #299);
#299 = COLOUR_RGB('', 0., 0., 1.);
#300 = DRAUGHTING_PRE_DEFINED_CURVE_FONT('continuous');
#301 = OVER_RIDING_STYLED_ITEM('', (#297), #258, #276);
#302 = AXIS2_PLACEMENT_3D('CIP', #303, #304, #305);
#303 = CARTESIAN_POINT('', (1.90469492398056E-31, 3.11060286983428E-15, -50.8));
#304 = DIRECTION('', (-3.74939945665465E-33, -6.12323399573677E-17, 1.));
#305 = DIRECTION('', (1., -6.12323399573677E-17, 0.));
#306 = AXIS2_PLACEMENT_3D('MCS', #307, #308, #309);
#307 = CARTESIAN_POINT('', (9.74843858730207E-32, 1.59204083889156E-15, -26.));
#308 = DIRECTION('', (-3.74939945665465E-33, -6.12323399573677E-17, 1.));
#309 = DIRECTION('', (1., -6.12323399573677E-17, 0.));
#310 = AXIS2_PLACEMENT_3D('PCS', #311, #312, #313);
#311 = CARTESIAN_POINT('', (0., 0., 0.));
#312 = DIRECTION('', (0., 0., 1.));
#313 = DIRECTION('', (1., 0., 0.));
#314 = CARTESIAN_POINT('CRP', (2.3815, 0., -50.8));
#315 = (
   GEOMETRIC_REPRESENTATION_CONTEXT (3)
   GLOBAL_UNCERTAINTY_ASSIGNED_CONTEXT ((#317))
   GLOBAL_UNIT_ASSIGNED_CONTEXT ((#316, #318, #319))
   REPRESENTATION_CONTEXT ('', '3D')
);
#316 = (
   LENGTH_UNIT ()
   NAMED_UNIT (*)
   SI_UNIT (.MILLI., .METRE.)
);
#317 = UNCERTAINTY_MEASURE_WITH_UNIT(LENGTH_MEASURE(1.E-6), #316, 'DISTANCE_ACCURACY_VALUE', '');
#318 = (
   NAMED_UNIT (*)
   SI_UNIT ($, .STERADIAN.)
   SOLID_ANGLE_UNIT ()
);
#319 = (
   NAMED_UNIT (*)
   PLANE_ANGLE_UNIT ()
   SI_UNIT ($, .RADIAN.)
);
#320 = SHAPE_REPRESENTATION('', (), #315);
#321 = PRODUCT_DEFINITION_SHAPE('', '', #322);
#322 = PRODUCT_DEFINITION('', '', #325, #329);
#323 = APPLICATION_CONTEXT('configuration controlled 3D designs of mechanical parts and assemblies');
#324 = APPLICATION_PROTOCOL_DEFINITION('International Standard', 'automotive_design', 2002, #323);
#325 = PRODUCT_DEFINITION_FORMATION_WITH_SPECIFIED_SOURCE('', '', #326, .NOT_KNOWN.);
#326 = PRODUCT('NONE', '1P230-0476-XA       1630', '', (#327));
#327 = PRODUCT_CONTEXT('', #323, 'mechanical');
#328 = PRODUCT_RELATED_PRODUCT_CATEGORY('detail', '', (#326));
#329 = PRODUCT_DEFINITION_CONTEXT('part definition', #323, 'design');
#330 = SHAPE_DEFINITION_REPRESENTATION(#321, #320);
#331 = CONSTRUCTIVE_GEOMETRY_REPRESENTATION('supplemental geometry', (#302, #306, #310), #315);
#332 = CONSTRUCTIVE_GEOMETRY_REPRESENTATION_RELATIONSHIP('', '', #320, #331);
#333 = SHAPE_REPRESENTATION_RELATIONSHIP('', '', #320, #334);
#334 = SHAPE_REPRESENTATION('', (#271), #315);
#335 = SHAPE_REPRESENTATION_RELATIONSHIP('', '', #320, #336);
#336 = ADVANCED_BREP_SHAPE_REPRESENTATION('', (#1, #116), #315);
ENDSEC;
END-ISO-10303-21;
