ISO-10303-21;
HEADER;
FILE_DESCRIPTION(('STEP'), '1');
FILE_NAME('C:\\Users\\ds2002\\OneDrive - Sandvik\\HomeShare\\Documents\\Batchrepair\\CorSRT2\\NEW_MILSQ_SLD\\Output\\MOD000000000000000020082338100000.stp', '2019-01-02T12:06:57', (''), (''), 'Express v3.0.0.0', 'Express Tool', 'Unknown');
FILE_SCHEMA(('AUTOMOTIVE_DESIGN'));
ENDSEC;

DATA;
#1 = MANIFOLD_SOLID_BREP('NOCUT', #2);
#2 = CLOSED_SHELL('', (#3, #50, #59, #98));
#3 = ADVANCED_FACE('', (#4), #31, .T.);
#4 = FACE_OUTER_BOUND('', #5, .T.);
#5 = EDGE_LOOP('', (#6, #16, #23, #24));
#6 = ORIENTED_EDGE('', *, *, #7, .T.);
#7 = EDGE_CURVE('', #8, #10, #12, .T.);
#8 = VERTEX_POINT('', #9);
#9 = CARTESIAN_POINT('', (-8., 5.38844591624835E-16, -0.799999999999997));
#10 = VERTEX_POINT('', #11);
#11 = CARTESIAN_POINT('', (-7.2, 4.40872847693047E-16, 0.));
#12 = LINE('', #13, #14);
#13 = CARTESIAN_POINT('', (-8., 5.38844591624835E-16, -0.799999999999997));
#14 = VECTOR('', #15, 1.13137084989847);
#15 = DIRECTION('', (0.8, -9.7971743931788E-17, 0.799999999999997));
#16 = ORIENTED_EDGE('', *, *, #17, .T.);
#17 = EDGE_CURVE('', #10, #10, #18, .T.);
#18 = CIRCLE('', #19, 7.2);
#19 = AXIS2_PLACEMENT_3D('', #20, #21, #22);
#20 = CARTESIAN_POINT('', (-1.4432899320127E-15, -4.44089209850063E-15, -2.83496887813801E-31));
#21 = DIRECTION('', (2.14236152270701E-33, 6.12323399573676E-17, -1.));
#22 = DIRECTION('', (-1., 6.78022909193566E-16, 3.93745677519168E-32));
#23 = ORIENTED_EDGE('', *, *, #7, .F.);
#24 = ORIENTED_EDGE('', *, *, #25, .F.);
#25 = EDGE_CURVE('', #8, #8, #26, .T.);
#26 = CIRCLE('', #27, 8.);
#27 = AXIS2_PLACEMENT_3D('', #28, #29, #30);
#28 = CARTESIAN_POINT('', (-6.66133814775094E-16, -3.5527136788005E-15, -0.799999999999997));
#29 = DIRECTION('', (-1.38777878078144E-17, 1.39615984421496E-16, -1.));
#30 = DIRECTION('', (-1., 5.11444783803167E-16, 1.38777878078145E-17));
#31 = (
   BOUNDED_SURFACE ()
   B_SPLINE_SURFACE (1, 2, ((#32, #33, #34, #35, #36, #37, #38, #39, #40), (#41, #42, #43, #44, #45, #46, #47, #48, #49)), .UNSPECIFIED., .F., .T., .U.)
   B_SPLINE_SURFACE_WITH_KNOTS ((2, 2), (3, 2, 2, 2, 3), (0., 1.), (0., 0.25, 0.5, 0.75, 1.), .UNSPECIFIED.)
   GEOMETRIC_REPRESENTATION_ITEM ()
   RATIONAL_B_SPLINE_SURFACE (((1., 0.707106781186548, 1., 0.707106781186548, 1., 0.707106781186548, 1., 0.707106781186548, 1.), (1., 0.707106781186548, 1., 0.707106781186548, 1., 0.707106781186548, 1., 0.707106781186548, 1.)))
   REPRESENTATION_ITEM ('')
   SURFACE ()
);
#32 = CARTESIAN_POINT('', (-8., -4.09906311545837E-15, -0.799999999999997));
#33 = CARTESIAN_POINT('', (-8., 7.99999999999999, -0.800000000000044));
#34 = CARTESIAN_POINT('', (6.56881956236551E-16, 7.99999999999999, -0.800000000000044));
#35 = CARTESIAN_POINT('', (8., 7.99999999999999, -0.800000000000044));
#36 = CARTESIAN_POINT('', (8., -5.57936048162525E-15, -0.799999999999997));
#37 = CARTESIAN_POINT('', (8., -8.00000000000001, -0.799999999999951));
#38 = CARTESIAN_POINT('', (1.56302029387557E-16, -8.00000000000001, -0.799999999999951));
#39 = CARTESIAN_POINT('', (-8., -8.00000000000001, -0.799999999999951));
#40 = CARTESIAN_POINT('', (-8., -4.09906311545837E-15, -0.799999999999997));
#41 = CARTESIAN_POINT('', (-7.2, 4.40872847693047E-16, 0.));
#42 = CARTESIAN_POINT('', (-7.2, 7.2, -4.19664303308311E-14));
#43 = CARTESIAN_POINT('', (5.82867087928207E-16, 7.2, -4.19664303308311E-14));
#44 = CARTESIAN_POINT('', (7.2, 7.2, -4.19664303308311E-14));
#45 = CARTESIAN_POINT('', (7.2, -8.9139478185714E-16, -5.23801307078189E-30));
#46 = CARTESIAN_POINT('', (7.2, -7.2, 4.19664303308311E-14));
#47 = CARTESIAN_POINT('', (1.32345153764114E-16, -7.2, 4.19664303308311E-14));
#48 = CARTESIAN_POINT('', (-7.2, -7.2, 4.19664303308311E-14));
#49 = CARTESIAN_POINT('', (-7.2, 4.40872847693047E-16, 0.));
#50 = ADVANCED_FACE('', (#51), #54, .T.);
#51 = FACE_OUTER_BOUND('', #52, .T.);
#52 = EDGE_LOOP('', (#53));
#53 = ORIENTED_EDGE('', *, *, #17, .F.);
#54 = B_SPLINE_SURFACE_WITH_KNOTS('', 1, 1, ((#55, #56), (#57, #58)), .UNSPECIFIED., .F., .F., .U., (2, 2), (2, 2), (4.0005714139949, 18.4005714139949), (4.0005714139949, 18.4005714139949), .UNSPECIFIED.);
#55 = CARTESIAN_POINT('', (7.2, -7.2, 1.3769981867509E-14));
#56 = CARTESIAN_POINT('', (-7.2, -7.2, -1.4651727562895E-14));
#57 = CARTESIAN_POINT('', (7.2, 7.2, 1.4651727562895E-14));
#58 = CARTESIAN_POINT('', (-7.2, 7.2, -1.37699818675089E-14));
#59 = ADVANCED_FACE('', (#60), #79, .T.);
#60 = FACE_OUTER_BOUND('', #61, .T.);
#61 = EDGE_LOOP('', (#62, #71, #77, #78));
#62 = ORIENTED_EDGE('', *, *, #63, .F.);
#63 = EDGE_CURVE('', #64, #64, #66, .T.);
#64 = VERTEX_POINT('', #65);
#65 = CARTESIAN_POINT('', (-8., 4.04133443718626E-15, -58.));
#66 = CIRCLE('', #67, 8.);
#67 = AXIS2_PLACEMENT_3D('', #68, #69, #70);
#68 = CARTESIAN_POINT('', (-8.04911692853238E-16, 9.32587340685131E-15, -58.));
#69 = DIRECTION('', (-2.57349103716369E-30, 3.02294871548761E-15, -1.));
#70 = DIRECTION('', (-1., -8.51318126562588E-16, 0.));
#71 = ORIENTED_EDGE('', *, *, #72, .T.);
#72 = EDGE_CURVE('', #64, #8, #73, .T.);
#73 = LINE('', #74, #75);
#74 = CARTESIAN_POINT('', (-8., 4.04133443718627E-15, -58.));
#75 = VECTOR('', #76, 57.2);
#76 = DIRECTION('', (0., -3.50248984556143E-15, 57.2));
#77 = ORIENTED_EDGE('', *, *, #25, .T.);
#78 = ORIENTED_EDGE('', *, *, #72, .F.);
#79 = (
   BOUNDED_SURFACE ()
   B_SPLINE_SURFACE (1, 2, ((#80, #81, #82, #83, #84, #85, #86, #87, #88), (#89, #90, #91, #92, #93, #94, #95, #96, #97)), .UNSPECIFIED., .F., .T., .U.)
   B_SPLINE_SURFACE_WITH_KNOTS ((2, 2), (3, 2, 2, 2, 3), (0.0103806228373702, 1.), (0., 0.25, 0.5, 0.75, 1.), .UNSPECIFIED.)
   GEOMETRIC_REPRESENTATION_ITEM ()
   RATIONAL_B_SPLINE_SURFACE (((1., 0.707106781186548, 1., 0.707106781186548, 1., 0.707106781186548, 1., 0.707106781186548, 1.), (1., 0.707106781186548, 1., 0.707106781186548, 1., 0.707106781186548, 1., 0.707106781186548, 1.)))
   REPRESENTATION_ITEM ('')
   SURFACE ()
);
#80 = CARTESIAN_POINT('', (-8.00000000000001, -4.74227900721821E-14, -58.));
#81 = CARTESIAN_POINT('', (-8.00000000000006, 7.99999999999996, -58.));
#82 = CARTESIAN_POINT('', (-5.8959367886861E-14, 8.00000000000001, -58.));
#83 = CARTESIAN_POINT('', (7.99999999999995, 8.00000000000006, -58.));
#84 = CARTESIAN_POINT('', (8., 5.15111319804503E-14, -58.));
#85 = CARTESIAN_POINT('', (8.00000000000005, -7.99999999999995, -58.));
#86 = CARTESIAN_POINT('', (4.09542716050893E-14, -8., -58.));
#87 = CARTESIAN_POINT('', (-7.99999999999996, -8.00000000000005, -58.));
#88 = CARTESIAN_POINT('', (-8.00000000000001, -4.74227900721821E-14, -58.));
#89 = CARTESIAN_POINT('', (-8.00000000000002, 5.38844591624736E-16, -0.799999999999997));
#90 = CARTESIAN_POINT('', (-8.00000000000007, 8., -0.800000000000004));
#91 = CARTESIAN_POINT('', (-6.29284151998962E-14, 8.00000000000005, -0.800000000000003));
#92 = CARTESIAN_POINT('', (7.99999999999994, 8.0000000000001, -0.800000000000003));
#93 = CARTESIAN_POINT('', (7.99999999999999, 9.94727666442571E-14, -0.799999999999996));
#94 = CARTESIAN_POINT('', (8.00000000000004, -7.9999999999999, -0.799999999999989));
#95 = CARTESIAN_POINT('', (3.6985224292054E-14, -7.99999999999995, -0.79999999999999));
#96 = CARTESIAN_POINT('', (-7.99999999999997, -8., -0.79999999999999));
#97 = CARTESIAN_POINT('', (-8.00000000000002, 5.38844591624736E-16, -0.799999999999997));
#98 = ADVANCED_FACE('', (#99), #102, .T.);
#99 = FACE_OUTER_BOUND('', #100, .T.);
#100 = EDGE_LOOP('', (#101));
#101 = ORIENTED_EDGE('', *, *, #63, .T.);
#102 = B_SPLINE_SURFACE_WITH_KNOTS('', 1, 1, ((#103, #104), (#105, #106)), .UNSPECIFIED., .F., .F., .U., (2, 2), (2, 2), (88.8287164466413, 104.828716446641), (84.6548025411593, 100.654802541159), .UNSPECIFIED.);
#103 = CARTESIAN_POINT('', (-8., 8.00000000000001, -58.));
#104 = CARTESIAN_POINT('', (-8., -8., -58.));
#105 = CARTESIAN_POINT('', (8.00000000000001, 8.00000000000001, -58.));
#106 = CARTESIAN_POINT('', (8., -8., -58.));
#107 = DRAUGHTING_MODEL('', (#115, #239, #295, #300, #305, #310, #315, #320, #325), #339);
#108 = PRESENTATION_STYLE_ASSIGNMENT((#109));
#109 = SURFACE_STYLE_USAGE(.POSITIVE., #110);
#110 = SURFACE_SIDE_STYLE('', (#111));
#111 = SURFACE_STYLE_FILL_AREA(#112);
#112 = FILL_AREA_STYLE('', (#113));
#113 = FILL_AREA_STYLE_COLOUR('', #114);
#114 = COLOUR_RGB('', 0.50196078431373, 0.50196078431373, 0.50196078431373);
#115 = STYLED_ITEM('', (#108), #1);
#116 = MANIFOLD_SOLID_BREP('CUT', #117);
#117 = CLOSED_SHELL('', (#118, #135, #174, #223));
#118 = ADVANCED_FACE('', (#119), #130, .T.);
#119 = FACE_OUTER_BOUND('', #120, .T.);
#120 = EDGE_LOOP('', (#121));
#121 = ORIENTED_EDGE('', *, *, #122, .F.);
#122 = EDGE_CURVE('', #123, #123, #125, .T.);
#123 = VERTEX_POINT('', #124);
#124 = CARTESIAN_POINT('', (-8., 4.04133443718627E-15, -58.));
#125 = CIRCLE('', #126, 8.);
#126 = AXIS2_PLACEMENT_3D('', #127, #128, #129);
#127 = CARTESIAN_POINT('', (-8.04911692853238E-16, 9.32587340685131E-15, -58.));
#128 = DIRECTION('', (-2.57349103716369E-30, 3.02294871548761E-15, -1.));
#129 = DIRECTION('', (-1., -8.51318126562588E-16, 0.));
#130 = B_SPLINE_SURFACE_WITH_KNOTS('', 1, 1, ((#131, #132), (#133, #134)), .UNSPECIFIED., .F., .F., .U., (2, 2), (2, 2), (84.6548025411593, 100.654802541159), (88.8287164466413, 104.828716446641), .UNSPECIFIED.);
#131 = CARTESIAN_POINT('', (-8., 8.00000000000001, -58.));
#132 = CARTESIAN_POINT('', (8., 8.00000000000001, -58.));
#133 = CARTESIAN_POINT('', (-8., -8., -58.));
#134 = CARTESIAN_POINT('', (8., -8., -58.));
#135 = ADVANCED_FACE('', (#136), #155, .T.);
#136 = FACE_OUTER_BOUND('', #137, .T.);
#137 = EDGE_LOOP('', (#138, #139, #147, #154));
#138 = ORIENTED_EDGE('', *, *, #122, .T.);
#139 = ORIENTED_EDGE('', *, *, #140, .F.);
#140 = EDGE_CURVE('', #141, #123, #143, .T.);
#141 = VERTEX_POINT('', #142);
#142 = CARTESIAN_POINT('', (-8., 5.8783046359073E-15, -88.));
#143 = LINE('', #144, #145);
#144 = CARTESIAN_POINT('', (-8., 5.8783046359073E-15, -88.));
#145 = VECTOR('', #146, 30.);
#146 = DIRECTION('', (0., -1.83697019872103E-15, 30.));
#147 = ORIENTED_EDGE('', *, *, #148, .F.);
#148 = EDGE_CURVE('', #141, #141, #149, .T.);
#149 = CIRCLE('', #150, 8.);
#150 = AXIS2_PLACEMENT_3D('', #151, #152, #153);
#151 = CARTESIAN_POINT('', (-9.15933995315754E-16, 4.66293670342566E-15, -88.));
#152 = DIRECTION('', (0., 0., -1.));
#153 = DIRECTION('', (-1., 1.51920991560205E-16, 0.));
#154 = ORIENTED_EDGE('', *, *, #140, .T.);
#155 = (
   BOUNDED_SURFACE ()
   B_SPLINE_SURFACE (1, 2, ((#156, #157, #158, #159, #160, #161, #162, #163, #164), (#165, #166, #167, #168, #169, #170, #171, #172, #173)), .UNSPECIFIED., .F., .T., .U.)
   B_SPLINE_SURFACE_WITH_KNOTS ((2, 2), (3, 2, 2, 2, 3), (-0.508650519031142, 0.0103806228373704), (0., 0.25, 0.5, 0.75, 1.), .UNSPECIFIED.)
   GEOMETRIC_REPRESENTATION_ITEM ()
   RATIONAL_B_SPLINE_SURFACE (((1., 0.707106781186548, 1., 0.707106781186548, 1., 0.707106781186548, 1., 0.707106781186548, 1.), (1., 0.707106781186548, 1., 0.707106781186548, 1., 0.707106781186548, 1., 0.707106781186548, 1.)))
   REPRESENTATION_ITEM ('')
   SURFACE ()
);
#156 = CARTESIAN_POINT('', (-8., -1.03915648829408E-14, -88.));
#157 = CARTESIAN_POINT('', (-8., 7.99999999999999, -88.));
#158 = CARTESIAN_POINT('', (5.02252122515565E-15, 7.99999999999999, -88.));
#159 = CARTESIAN_POINT('', (8.00000000000001, 7.99999999999999, -88.));
#160 = CARTESIAN_POINT('', (8.00000000000001, -1.79386055278455E-14, -88.));
#161 = CARTESIAN_POINT('', (8., -8.00000000000002, -88.));
#162 = CARTESIAN_POINT('', (-1.54480198043118E-15, -8.00000000000002, -88.));
#163 = CARTESIAN_POINT('', (-8.00000000000001, -8.00000000000002, -88.));
#164 = CARTESIAN_POINT('', (-8., -1.03915648829408E-14, -88.));
#165 = CARTESIAN_POINT('', (-8., 4.04133443718626E-15, -58.));
#166 = CARTESIAN_POINT('', (-8., 8.00000000000001, -58.));
#167 = CARTESIAN_POINT('', (5.02252122515565E-15, 8.00000000000001, -58.));
#168 = CARTESIAN_POINT('', (8.00000000000001, 8., -58.));
#169 = CARTESIAN_POINT('', (8.00000000000001, -3.50570620771844E-15, -58.));
#170 = CARTESIAN_POINT('', (8., -8.00000000000001, -58.));
#171 = CARTESIAN_POINT('', (-1.54480198043117E-15, -8.00000000000001, -58.));
#172 = CARTESIAN_POINT('', (-8.00000000000001, -8., -58.));
#173 = CARTESIAN_POINT('', (-8., 4.04133443718626E-15, -58.));
#174 = ADVANCED_FACE('', (#175), #195, .T.);
#175 = FACE_OUTER_BOUND('', #176, .T.);
#176 = EDGE_LOOP('', (#177, #186, #187, #188));
#177 = ORIENTED_EDGE('', *, *, #178, .F.);
#178 = EDGE_CURVE('', #141, #179, #181, .T.);
#179 = VERTEX_POINT('', #180);
#180 = CARTESIAN_POINT('', (-4., 5.8783046359073E-15, -92.));
#181 = CIRCLE('', #182, 4.);
#182 = AXIS2_PLACEMENT_3D('', #183, #184, #185);
#183 = CARTESIAN_POINT('', (-3.99999999999999, 5.63337527607783E-15, -88.));
#184 = DIRECTION('', (-6.12323399573677E-17, -1., -6.12323399573677E-17));
#185 = DIRECTION('', (-1., 6.12323399573677E-17, 0.));
#186 = ORIENTED_EDGE('', *, *, #148, .T.);
#187 = ORIENTED_EDGE('', *, *, #178, .T.);
#188 = ORIENTED_EDGE('', *, *, #189, .F.);
#189 = EDGE_CURVE('', #179, #179, #190, .T.);
#190 = CIRCLE('', #191, 4.);
#191 = AXIS2_PLACEMENT_3D('', #192, #193, #194);
#192 = CARTESIAN_POINT('', (-6.93889390390723E-17, 3.44169137633799E-15, -92.));
#193 = DIRECTION('', (0., 0., -1.));
#194 = DIRECTION('', (-1., 6.09153314892329E-16, 0.));
#195 = (
   BOUNDED_SURFACE ()
   B_SPLINE_SURFACE (2, 2, ((#196, #197, #198), (#199, #200, #201), (#202, #203, #204), (#205, #206, #207), (#208, #209, #210), (#211, #212, #213), (#214, #215, #216), (#217, #218, #219), (#220, #221, #222)), .UNSPECIFIED., .T., .F., .U.)
   B_SPLINE_SURFACE_WITH_KNOTS ((3, 2, 2, 2, 3), (3, 3), (0., 0.25, 0.5, 0.75, 1.), (0., 1.), .UNSPECIFIED.)
   GEOMETRIC_REPRESENTATION_ITEM ()
   RATIONAL_B_SPLINE_SURFACE (((1., 0.707106781186548, 1.), (0.707106781186548, 0.5, 0.707106781186548), (1., 0.707106781186548, 1.), (0.707106781186548, 0.5, 0.707106781186548), (1., 0.707106781186548, 1.), (0.707106781186548, 0.5, 0.707106781186548), (1., 0.707106781186548, 1.), (0.707106781186548, 0.5, 0.707106781186548), (1., 0.707106781186548, 1.)))
   REPRESENTATION_ITEM ('')
   SURFACE ()
);
#196 = CARTESIAN_POINT('', (-8., 5.8783046359073E-15, -88.));
#197 = CARTESIAN_POINT('', (-8., 6.12323399573677E-15, -92.));
#198 = CARTESIAN_POINT('', (-4., 5.8783046359073E-15, -92.));
#199 = CARTESIAN_POINT('', (-8., 8., -88.));
#200 = CARTESIAN_POINT('', (-8., 8., -92.));
#201 = CARTESIAN_POINT('', (-4., 4.00000000000001, -92.));
#202 = CARTESIAN_POINT('', (-2.38913287992797E-17, 8.00000000000001, -88.));
#203 = CARTESIAN_POINT('', (2.21038031030191E-16, 8.00000000000001, -92.));
#204 = CARTESIAN_POINT('', (2.21038031030191E-16, 4.00000000000001, -92.));
#205 = CARTESIAN_POINT('', (8., 8.00000000000001, -88.));
#206 = CARTESIAN_POINT('', (8., 8.00000000000001, -92.));
#207 = CARTESIAN_POINT('', (4., 4.00000000000001, -92.));
#208 = CARTESIAN_POINT('', (8., 6.64773225951221E-15, -88.));
#209 = CARTESIAN_POINT('', (8., 6.40280289968274E-15, -92.));
#210 = CARTESIAN_POINT('', (4., 6.15787353985327E-15, -92.));
#211 = CARTESIAN_POINT('', (8., -7.99999999999999, -88.));
#212 = CARTESIAN_POINT('', (8., -7.99999999999999, -92.));
#213 = CARTESIAN_POINT('', (4., -3.99999999999999, -92.));
#214 = CARTESIAN_POINT('', (1.72525373412351E-15, -7.99999999999999, -88.));
#215 = CARTESIAN_POINT('', (1.48032437429404E-15, -7.99999999999999, -92.));
#216 = CARTESIAN_POINT('', (9.90465654635102E-16, -3.99999999999999, -92.));
#217 = CARTESIAN_POINT('', (-8., -8., -88.));
#218 = CARTESIAN_POINT('', (-8., -7.99999999999999, -92.));
#219 = CARTESIAN_POINT('', (-4., -4., -92.));
#220 = CARTESIAN_POINT('', (-8., 5.8783046359073E-15, -88.));
#221 = CARTESIAN_POINT('', (-8., 6.12323399573677E-15, -92.));
#222 = CARTESIAN_POINT('', (-4., 5.8783046359073E-15, -92.));
#223 = ADVANCED_FACE('', (#224), #227, .T.);
#224 = FACE_OUTER_BOUND('', #225, .T.);
#225 = EDGE_LOOP('', (#226));
#226 = ORIENTED_EDGE('', *, *, #189, .T.);
#227 = B_SPLINE_SURFACE_WITH_KNOTS('', 1, 1, ((#228, #229), (#230, #231)), .UNSPECIFIED., .F., .F., .U., (2, 2), (2, 2), (2.22253967444162, 10.2225396744416), (2.22253967444161, 10.2225396744416), .UNSPECIFIED.);
#228 = CARTESIAN_POINT('', (4., -4., -92.));
#229 = CARTESIAN_POINT('', (4., 4.00000000000001, -92.));
#230 = CARTESIAN_POINT('', (-4., -4., -92.));
#231 = CARTESIAN_POINT('', (-4., 4.00000000000001, -92.));
#232 = PRESENTATION_STYLE_ASSIGNMENT((#233));
#233 = SURFACE_STYLE_USAGE(.POSITIVE., #234);
#234 = SURFACE_SIDE_STYLE('', (#235));
#235 = SURFACE_STYLE_FILL_AREA(#236);
#236 = FILL_AREA_STYLE('', (#237));
#237 = FILL_AREA_STYLE_COLOUR('', #238);
#238 = COLOUR_RGB('', 0.8, 0.8, 0.8);
#239 = STYLED_ITEM('', (#232), #116);
#240 = TRIMMED_CURVE('cutting part line', #241, (#245), (#246), .T., .CARTESIAN.);
#241 = LINE('', #242, #243);
#242 = CARTESIAN_POINT('', (-6.52395505457907E-31, -3.55147571752732E-15, -58.));
#243 = VECTOR('', #244, 8.);
#244 = DIRECTION('', (8., -1.46957615897683E-15, 0.));
#245 = CARTESIAN_POINT('', (-6.52395505457907E-31, -3.55147571752732E-15, -58.));
#246 = CARTESIAN_POINT('', (8., -5.02105187650415E-15, -58.));
#247 = TRIMMED_CURVE('cutting part line', #248, (#252), (#253), .T., .CARTESIAN.);
#248 = LINE('', #249, #250);
#249 = CARTESIAN_POINT('', (8., -5.02105187650415E-15, -58.));
#250 = VECTOR('', #251, 0.600000000000001);
#251 = DIRECTION('', (0., -3.67394039744201E-17, -0.600000000000001));
#252 = CARTESIAN_POINT('', (8., -5.02105187650415E-15, -58.));
#253 = CARTESIAN_POINT('', (8., -5.05779128047857E-15, -58.6));
#254 = TRIMMED_CURVE('cutting part line', #255, (#259), (#260), .T., .CARTESIAN.);
#255 = LINE('', #256, #257);
#256 = CARTESIAN_POINT('', (8., -5.05779128047857E-15, -58.6));
#257 = VECTOR('', #258, 29.4);
#258 = DIRECTION('', (0., -1.80023079474661E-15, -29.4));
#259 = CARTESIAN_POINT('', (8., -5.05779128047857E-15, -58.6));
#260 = CARTESIAN_POINT('', (8., -6.85802207522518E-15, -88.));
#261 = TRIMMED_CURVE('cutting part line', #262, (#267), (#268), .T., .CARTESIAN.);
#262 = CIRCLE('', #263, 4.);
#263 = AXIS2_PLACEMENT_3D('', #264, #265, #266);
#264 = CARTESIAN_POINT('', (4., -6.12323399573677E-15, -88.));
#265 = DIRECTION('', (1.83697019872103E-16, 1., -6.12323399573677E-17));
#266 = DIRECTION('', (1., -1.83697019872103E-16, 0.));
#267 = CARTESIAN_POINT('', (8., -6.85802207522518E-15, -88.));
#268 = CARTESIAN_POINT('', (4., -6.36816335556624E-15, -92.));
#269 = TRIMMED_CURVE('cutting part line', #270, (#274), (#275), .T., .CARTESIAN.);
#270 = LINE('', #271, #272);
#271 = CARTESIAN_POINT('', (4., -6.36816335556624E-15, -92.));
#272 = VECTOR('', #273, 4.);
#273 = DIRECTION('', (-4., 7.34788079488421E-16, 0.));
#274 = CARTESIAN_POINT('', (4., -6.36816335556624E-15, -92.));
#275 = CARTESIAN_POINT('', (-6.89889500024454E-31, -5.63337527607782E-15, -92.));
#276 = TRIMMED_CURVE('cutting part line', #277, (#281), (#282), .T., .CARTESIAN.);
#277 = LINE('', #278, #279);
#278 = CARTESIAN_POINT('', (-1.03483425003668E-30, -5.63337527607782E-15, -92.));
#279 = VECTOR('', #280, 34.);
#280 = DIRECTION('', (3.82438744578774E-31, 2.0818995585505E-15, 34.));
#281 = CARTESIAN_POINT('', (-1.03483425003668E-30, -5.63337527607782E-15, -92.));
#282 = CARTESIAN_POINT('', (-6.52395505457907E-31, -3.55147571752732E-15, -58.));
#283 = COMPOSITE_CURVE('cutting part line', (#284, #285, #286, #287, #288, #289), .U.);
#284 = COMPOSITE_CURVE_SEGMENT(.CONTINUOUS., .T., #240);
#285 = COMPOSITE_CURVE_SEGMENT(.CONTINUOUS., .T., #247);
#286 = COMPOSITE_CURVE_SEGMENT(.CONTINUOUS., .T., #254);
#287 = COMPOSITE_CURVE_SEGMENT(.CONTINUOUS., .T., #261);
#288 = COMPOSITE_CURVE_SEGMENT(.CONTINUOUS., .T., #269);
#289 = COMPOSITE_CURVE_SEGMENT(.CONTINUOUS., .T., #276);
#290 = GEOMETRIC_SET('', (#283, #338));
#291 = PRESENTATION_STYLE_ASSIGNMENT((#292));
#292 = CURVE_STYLE('', #294, POSITIVE_LENGTH_MEASURE(1.E-6), #293);
#293 = COLOUR_RGB('', 0., 0., 1.);
#294 = DRAUGHTING_PRE_DEFINED_CURVE_FONT('continuous');
#295 = STYLED_ITEM('', (#291), #283);
#296 = PRESENTATION_STYLE_ASSIGNMENT((#297));
#297 = CURVE_STYLE('', #299, POSITIVE_LENGTH_MEASURE(1.E-6), #298);
#298 = COLOUR_RGB('', 0., 0., 1.);
#299 = DRAUGHTING_PRE_DEFINED_CURVE_FONT('continuous');
#300 = OVER_RIDING_STYLED_ITEM('', (#296), #240, #295);
#301 = PRESENTATION_STYLE_ASSIGNMENT((#302));
#302 = CURVE_STYLE('', #304, POSITIVE_LENGTH_MEASURE(1.E-6), #303);
#303 = COLOUR_RGB('', 0., 0., 1.);
#304 = DRAUGHTING_PRE_DEFINED_CURVE_FONT('continuous');
#305 = OVER_RIDING_STYLED_ITEM('', (#301), #247, #295);
#306 = PRESENTATION_STYLE_ASSIGNMENT((#307));
#307 = CURVE_STYLE('', #309, POSITIVE_LENGTH_MEASURE(1.E-6), #308);
#308 = COLOUR_RGB('', 0., 0., 1.);
#309 = DRAUGHTING_PRE_DEFINED_CURVE_FONT('continuous');
#310 = OVER_RIDING_STYLED_ITEM('', (#306), #254, #295);
#311 = PRESENTATION_STYLE_ASSIGNMENT((#312));
#312 = CURVE_STYLE('', #314, POSITIVE_LENGTH_MEASURE(1.E-6), #313);
#313 = COLOUR_RGB('', 0., 0., 1.);
#314 = DRAUGHTING_PRE_DEFINED_CURVE_FONT('continuous');
#315 = OVER_RIDING_STYLED_ITEM('', (#311), #261, #295);
#316 = PRESENTATION_STYLE_ASSIGNMENT((#317));
#317 = CURVE_STYLE('', #319, POSITIVE_LENGTH_MEASURE(1.E-6), #318);
#318 = COLOUR_RGB('', 0., 0., 1.);
#319 = DRAUGHTING_PRE_DEFINED_CURVE_FONT('continuous');
#320 = OVER_RIDING_STYLED_ITEM('', (#316), #269, #295);
#321 = PRESENTATION_STYLE_ASSIGNMENT((#322));
#322 = CURVE_STYLE('', #324, POSITIVE_LENGTH_MEASURE(1.E-6), #323);
#323 = COLOUR_RGB('', 0., 0., 1.);
#324 = DRAUGHTING_PRE_DEFINED_CURVE_FONT('continuous');
#325 = OVER_RIDING_STYLED_ITEM('', (#321), #276, #295);
#326 = AXIS2_PLACEMENT_3D('CIP', #327, #328, #329);
#327 = CARTESIAN_POINT('', (3.44944750012227E-31, 5.63337527607782E-15, -92.));
#328 = DIRECTION('', (-3.74939945665465E-33, -6.12323399573677E-17, 1.));
#329 = DIRECTION('', (1., -6.12323399573677E-17, 0.));
#330 = AXIS2_PLACEMENT_3D('MCS', #331, #332, #333);
#331 = CARTESIAN_POINT('', (1.79971173919423E-31, 2.93915231795365E-15, -48.));
#332 = DIRECTION('', (-3.74939945665465E-33, -6.12323399573677E-17, 1.));
#333 = DIRECTION('', (1., -6.12323399573677E-17, 0.));
#334 = AXIS2_PLACEMENT_3D('PCS', #335, #336, #337);
#335 = CARTESIAN_POINT('', (0., 0., 0.));
#336 = DIRECTION('', (0., 0., 1.));
#337 = DIRECTION('', (1., 0., 0.));
#338 = CARTESIAN_POINT('CRP', (8., 0., -92.));
#339 = (
   GEOMETRIC_REPRESENTATION_CONTEXT (3)
   GLOBAL_UNCERTAINTY_ASSIGNED_CONTEXT ((#341))
   GLOBAL_UNIT_ASSIGNED_CONTEXT ((#340, #342, #343))
   REPRESENTATION_CONTEXT ('', '3D')
);
#340 = (
   LENGTH_UNIT ()
   NAMED_UNIT (*)
   SI_UNIT (.MILLI., .METRE.)
);
#341 = UNCERTAINTY_MEASURE_WITH_UNIT(LENGTH_MEASURE(1.E-6), #340, 'DISTANCE_ACCURACY_VALUE', '');
#342 = (
   NAMED_UNIT (*)
   SI_UNIT ($, .STERADIAN.)
   SOLID_ANGLE_UNIT ()
);
#343 = (
   NAMED_UNIT (*)
   PLANE_ANGLE_UNIT ()
   SI_UNIT ($, .RADIAN.)
);
#344 = SHAPE_REPRESENTATION('', (), #339);
#345 = PRODUCT_DEFINITION_SHAPE('', '', #346);
#346 = PRODUCT_DEFINITION('', '', #349, #353);
#347 = APPLICATION_CONTEXT('configuration controlled 3D designs of mechanical parts and assemblies');
#348 = APPLICATION_PROTOCOL_DEFINITION('International Standard', 'automotive_design', 2002, #347);
#349 = PRODUCT_DEFINITION_FORMATION_WITH_SPECIFIED_SOURCE('', '', #350, .NOT_KNOWN.);
#350 = PRODUCT('NONE', '2S342-1600-400CMA   1740', '', (#351));
#351 = PRODUCT_CONTEXT('', #347, 'mechanical');
#352 = PRODUCT_RELATED_PRODUCT_CATEGORY('detail', '', (#350));
#353 = PRODUCT_DEFINITION_CONTEXT('part definition', #347, 'design');
#354 = SHAPE_DEFINITION_REPRESENTATION(#345, #344);
#355 = CONSTRUCTIVE_GEOMETRY_REPRESENTATION('supplemental geometry', (#326, #330, #334), #339);
#356 = CONSTRUCTIVE_GEOMETRY_REPRESENTATION_RELATIONSHIP('', '', #344, #355);
#357 = SHAPE_REPRESENTATION_RELATIONSHIP('', '', #344, #358);
#358 = SHAPE_REPRESENTATION('', (#290), #339);
#359 = SHAPE_REPRESENTATION_RELATIONSHIP('', '', #344, #360);
#360 = ADVANCED_BREP_SHAPE_REPRESENTATION('', (#1, #116), #339);
ENDSEC;
END-ISO-10303-21;
