ISO-10303-21;
HEADER;
FILE_DESCRIPTION(('STEP'), '1');
FILE_NAME('C:\\Users\\ds2002\\OneDrive - Sandvik\\HomeShare\\Documents\\Batchrepair\\CorSRT2\\NEW_MILSQ_SLD\\Output\\MOD000000000000000020082270500000.stp', '2019-01-02T12:11:03', (''), (''), 'Express v3.0.0.0', 'Express Tool', 'Unknown');
FILE_SCHEMA(('AUTOMOTIVE_DESIGN'));
ENDSEC;

DATA;
#1 = MANIFOLD_SOLID_BREP('NOCUT', #2);
#2 = CLOSED_SHELL('', (#3, #50, #59, #98));
#3 = ADVANCED_FACE('', (#4), #31, .T.);
#4 = FACE_OUTER_BOUND('', #5, .T.);
#5 = EDGE_LOOP('', (#6, #16, #23, #24));
#6 = ORIENTED_EDGE('', *, *, #7, .T.);
#7 = EDGE_CURVE('', #8, #10, #12, .T.);
#8 = VERTEX_POINT('', #9);
#9 = CARTESIAN_POINT('', (-12.7, 8.55415789204427E-16, -1.27));
#10 = VERTEX_POINT('', #11);
#11 = CARTESIAN_POINT('', (-11.43, 6.99885645712712E-16, 0.));
#12 = LINE('', #13, #14);
#13 = CARTESIAN_POINT('', (-12.7, 8.55415789204427E-16, -1.27));
#14 = VECTOR('', #15, 1.79605122421383);
#15 = DIRECTION('', (1.27, -1.55530143491715E-16, 1.27));
#16 = ORIENTED_EDGE('', *, *, #17, .T.);
#17 = EDGE_CURVE('', #10, #10, #18, .T.);
#18 = CIRCLE('', #19, 11.43);
#19 = AXIS2_PLACEMENT_3D('', #20, #21, #22);
#20 = CARTESIAN_POINT('', (1.88737914186277E-15, -3.33066907387547E-15, -1.97215226305253E-31));
#21 = DIRECTION('', (4.3381513999425E-33, 6.12323399573677E-17, -1.));
#22 = DIRECTION('', (-1., 1.07700099452085E-16, 2.25657770314986E-33));
#23 = ORIENTED_EDGE('', *, *, #7, .F.);
#24 = ORIENTED_EDGE('', *, *, #25, .F.);
#25 = EDGE_CURVE('', #8, #8, #26, .T.);
#26 = CIRCLE('', #27, 12.7);
#27 = AXIS2_PLACEMENT_3D('', #28, #29, #30);
#28 = CARTESIAN_POINT('', (6.43929354282591E-15, -1.99840144432528E-15, -1.27));
#29 = DIRECTION('', (0., 0., -1.));
#30 = DIRECTION('', (-1., 2.24710018388166E-16, 0.));
#31 = (
   BOUNDED_SURFACE ()
   B_SPLINE_SURFACE (1, 2, ((#32, #33, #34, #35, #36, #37, #38, #39, #40), (#41, #42, #43, #44, #45, #46, #47, #48, #49)), .UNSPECIFIED., .F., .T., .U.)
   B_SPLINE_SURFACE_WITH_KNOTS ((2, 2), (3, 2, 2, 2, 3), (0., 1.), (0., 0.25, 0.5, 0.75, 1.), .UNSPECIFIED.)
   GEOMETRIC_REPRESENTATION_ITEM ()
   RATIONAL_B_SPLINE_SURFACE (((1., 0.707106781186548, 1., 0.707106781186548, 1., 0.707106781186548, 1., 0.707106781186548, 1.), (1., 0.707106781186548, 1., 0.707106781186548, 1., 0.707106781186548, 1., 0.707106781186548, 1.)))
   REPRESENTATION_ITEM ('')
   SURFACE ()
);
#32 = CARTESIAN_POINT('', (-12.7, -2.75039133857249E-15, -1.27));
#33 = CARTESIAN_POINT('', (-12.7, 12.7, -1.27000000000004));
#34 = CARTESIAN_POINT('', (6.96356552667667E-15, 12.7, -1.27000000000004));
#35 = CARTESIAN_POINT('', (12.7, 12.7, -1.27000000000004));
#36 = CARTESIAN_POINT('', (12.7, -7.68471589246207E-15, -1.27));
#37 = CARTESIAN_POINT('', (12.7, -12.7, -1.26999999999996));
#38 = CARTESIAN_POINT('', (3.58454240770423E-15, -12.7, -1.26999999999996));
#39 = CARTESIAN_POINT('', (-12.7, -12.7, -1.26999999999996));
#40 = CARTESIAN_POINT('', (-12.7, -2.75039133857249E-15, -1.27));
#41 = CARTESIAN_POINT('', (-11.43, 6.99885645712711E-16, -8.75811540203011E-47));
#42 = CARTESIAN_POINT('', (-11.43, 11.43, -3.39728245535298E-14));
#43 = CARTESIAN_POINT('', (6.7168492989822E-15, 11.43, -3.39728245535298E-14));
#44 = CARTESIAN_POINT('', (11.43, 11.43, -3.39728245535298E-14));
#45 = CARTESIAN_POINT('', (11.43, -3.74100645278791E-15, -4.60420534393431E-30));
#46 = CARTESIAN_POINT('', (11.43, -11.43, 3.39728245535298E-14));
#47 = CARTESIAN_POINT('', (3.675728491907E-15, -11.43, 3.39728245535298E-14));
#48 = CARTESIAN_POINT('', (-11.43, -11.43, 3.39728245535298E-14));
#49 = CARTESIAN_POINT('', (-11.43, 6.99885645712711E-16, -8.75811540203011E-47));
#50 = ADVANCED_FACE('', (#51), #54, .T.);
#51 = FACE_OUTER_BOUND('', #52, .T.);
#52 = EDGE_LOOP('', (#53));
#53 = ORIENTED_EDGE('', *, *, #17, .F.);
#54 = B_SPLINE_SURFACE_WITH_KNOTS('', 1, 1, ((#55, #56), (#57, #58)), .UNSPECIFIED., .F., .F., .U., (2, 2), (2, 2), (6.3509071197169, 29.2109071197169), (6.3509071197169, 29.2109071197169), .UNSPECIFIED.);
#55 = CARTESIAN_POINT('', (11.43, -11.43, -6.99885645712718E-16));
#56 = CARTESIAN_POINT('', (-11.43, -11.43, -6.99885645712718E-16));
#57 = CARTESIAN_POINT('', (11.43, 11.43, 6.99885645712708E-16));
#58 = CARTESIAN_POINT('', (-11.43, 11.43, 6.99885645712708E-16));
#59 = ADVANCED_FACE('', (#60), #79, .T.);
#60 = FACE_OUTER_BOUND('', #61, .T.);
#61 = EDGE_LOOP('', (#62, #71, #77, #78));
#62 = ORIENTED_EDGE('', *, *, #63, .F.);
#63 = EDGE_CURVE('', #64, #64, #66, .T.);
#64 = VERTEX_POINT('', #65);
#65 = CARTESIAN_POINT('', (-12.7, 6.22120573966855E-15, -88.9));
#66 = CIRCLE('', #67, 12.7);
#67 = AXIS2_PLACEMENT_3D('', #68, #69, #70);
#68 = CARTESIAN_POINT('', (-2.1094237467878E-15, 4.88498130835069E-15, -88.9));
#69 = DIRECTION('', (0., 0., -1.));
#70 = DIRECTION('', (-1., 1.05214522151013E-16, 0.));
#71 = ORIENTED_EDGE('', *, *, #72, .F.);
#72 = EDGE_CURVE('', #8, #64, #73, .T.);
#73 = LINE('', #74, #75);
#74 = CARTESIAN_POINT('', (-12.7, 8.55415789204427E-16, -1.27));
#75 = VECTOR('', #76, 87.63);
#76 = DIRECTION('', (0., 5.36578995046412E-15, -87.63));
#77 = ORIENTED_EDGE('', *, *, #25, .T.);
#78 = ORIENTED_EDGE('', *, *, #72, .T.);
#79 = (
   BOUNDED_SURFACE ()
   B_SPLINE_SURFACE (1, 2, ((#80, #81, #82, #83, #84, #85, #86, #87, #88), (#89, #90, #91, #92, #93, #94, #95, #96, #97)), .UNSPECIFIED., .F., .T., .U.)
   B_SPLINE_SURFACE_WITH_KNOTS ((2, 2), (3, 2, 2, 2, 3), (-0.544685351665786, 1.), (0., 0.25, 0.5, 0.75, 1.), .UNSPECIFIED.)
   GEOMETRIC_REPRESENTATION_ITEM ()
   RATIONAL_B_SPLINE_SURFACE (((1., 0.707106781186548, 1., 0.707106781186548, 1., 0.707106781186548, 1., 0.707106781186548, 1.), (1., 0.707106781186548, 1., 0.707106781186548, 1., 0.707106781186548, 1., 0.707106781186548, 1.)))
   REPRESENTATION_ITEM ('')
   SURFACE ()
);
#80 = CARTESIAN_POINT('', (-12.7, 5.51835249263009E-15, -88.9));
#81 = CARTESIAN_POINT('', (-12.7, 12.7, -88.9));
#82 = CARTESIAN_POINT('', (-7.13868458831766E-15, 12.7, -88.9));
#83 = CARTESIAN_POINT('', (12.7, 12.7, -88.9));
#84 = CARTESIAN_POINT('', (12.7, 1.95736770643404E-14, -88.9));
#85 = CARTESIAN_POINT('', (12.7, -12.7, -88.9));
#86 = CARTESIAN_POINT('', (8.47194141830976E-15, -12.7, -88.9));
#87 = CARTESIAN_POINT('', (-12.7, -12.7, -88.9));
#88 = CARTESIAN_POINT('', (-12.7, 5.51835249263009E-15, -88.9));
#89 = CARTESIAN_POINT('', (-12.7, 8.55415789204428E-16, -1.27));
#90 = CARTESIAN_POINT('', (-12.7, 12.7, -1.27));
#91 = CARTESIAN_POINT('', (-7.13868458831766E-15, 12.7, -1.27));
#92 = CARTESIAN_POINT('', (12.7, 12.7, -1.27));
#93 = CARTESIAN_POINT('', (12.7, 1.49107403609147E-14, -1.27));
#94 = CARTESIAN_POINT('', (12.7, -12.7, -1.27));
#95 = CARTESIAN_POINT('', (8.47194141830977E-15, -12.7, -1.27));
#96 = CARTESIAN_POINT('', (-12.7, -12.7, -1.27));
#97 = CARTESIAN_POINT('', (-12.7, 8.55415789204428E-16, -1.27));
#98 = ADVANCED_FACE('', (#99), #102, .T.);
#99 = FACE_OUTER_BOUND('', #100, .T.);
#100 = EDGE_LOOP('', (#101));
#101 = ORIENTED_EDGE('', *, *, #63, .T.);
#102 = B_SPLINE_SURFACE_WITH_KNOTS('', 1, 1, ((#103, #104), (#105, #106)), .UNSPECIFIED., .F., .F., .U., (2, 2), (2, 2), (145.992787810942, 171.392787810942), (141.759453922053, 167.159453922053), .UNSPECIFIED.);
#103 = CARTESIAN_POINT('', (-12.7, 12.7, -88.9));
#104 = CARTESIAN_POINT('', (-12.7, -12.7, -88.9));
#105 = CARTESIAN_POINT('', (12.7, 12.7, -88.9));
#106 = CARTESIAN_POINT('', (12.7, -12.7, -88.9));
#107 = DRAUGHTING_MODEL('', (#115, #229, #276, #281, #286, #291, #296, #301), #315);
#108 = PRESENTATION_STYLE_ASSIGNMENT((#109));
#109 = SURFACE_STYLE_USAGE(.POSITIVE., #110);
#110 = SURFACE_SIDE_STYLE('', (#111));
#111 = SURFACE_STYLE_FILL_AREA(#112);
#112 = FILL_AREA_STYLE('', (#113));
#113 = FILL_AREA_STYLE_COLOUR('', #114);
#114 = COLOUR_RGB('', 0.50196078431373, 0.50196078431373, 0.50196078431373);
#115 = STYLED_ITEM('', (#108), #1);
#116 = MANIFOLD_SOLID_BREP('CUT', #117);
#117 = CLOSED_SHELL('', (#118, #135, #174, #213));
#118 = ADVANCED_FACE('', (#119), #130, .T.);
#119 = FACE_OUTER_BOUND('', #120, .T.);
#120 = EDGE_LOOP('', (#121));
#121 = ORIENTED_EDGE('', *, *, #122, .F.);
#122 = EDGE_CURVE('', #123, #123, #125, .T.);
#123 = VERTEX_POINT('', #124);
#124 = CARTESIAN_POINT('', (-12.7, 6.22120573966856E-15, -88.9));
#125 = CIRCLE('', #126, 12.7);
#126 = AXIS2_PLACEMENT_3D('', #127, #128, #129);
#127 = CARTESIAN_POINT('', (-2.1094237467878E-15, 4.88498130835069E-15, -88.9));
#128 = DIRECTION('', (0., 0., -1.));
#129 = DIRECTION('', (-1., 1.05214522151013E-16, 0.));
#130 = B_SPLINE_SURFACE_WITH_KNOTS('', 1, 1, ((#131, #132), (#133, #134)), .UNSPECIFIED., .F., .F., .U., (2, 2), (2, 2), (141.759453922053, 167.159453922053), (145.992787810942, 171.392787810942), .UNSPECIFIED.);
#131 = CARTESIAN_POINT('', (-12.7, 12.7, -88.9));
#132 = CARTESIAN_POINT('', (12.7, 12.7, -88.9));
#133 = CARTESIAN_POINT('', (-12.7, -12.7, -88.9));
#134 = CARTESIAN_POINT('', (12.7, -12.7, -88.9));
#135 = ADVANCED_FACE('', (#136), #155, .T.);
#136 = FACE_OUTER_BOUND('', #137, .T.);
#137 = EDGE_LOOP('', (#138, #139, #147, #154));
#138 = ORIENTED_EDGE('', *, *, #122, .T.);
#139 = ORIENTED_EDGE('', *, *, #140, .T.);
#140 = EDGE_CURVE('', #123, #141, #143, .T.);
#141 = VERTEX_POINT('', #142);
#142 = CARTESIAN_POINT('', (-12.7, 1.00939063126122E-14, -152.146));
#143 = LINE('', #144, #145);
#144 = CARTESIAN_POINT('', (-12.7, 6.22120573966855E-15, -88.9));
#145 = VECTOR('', #146, 63.246);
#146 = DIRECTION('', (0., 3.87270057294365E-15, -63.246));
#147 = ORIENTED_EDGE('', *, *, #148, .F.);
#148 = EDGE_CURVE('', #141, #141, #149, .T.);
#149 = CIRCLE('', #150, 12.7);
#150 = AXIS2_PLACEMENT_3D('', #151, #152, #153);
#151 = CARTESIAN_POINT('', (5.38458166943201E-15, 1.13242748511766E-14, -152.146));
#152 = DIRECTION('', (0., 0., -1.));
#153 = DIRECTION('', (-1., -9.68794124853855E-17, 0.));
#154 = ORIENTED_EDGE('', *, *, #140, .F.);
#155 = (
   BOUNDED_SURFACE ()
   B_SPLINE_SURFACE (1, 2, ((#156, #157, #158, #159, #160, #161, #162, #163, #164), (#165, #166, #167, #168, #169, #170, #171, #172, #173)), .UNSPECIFIED., .F., .T., .U.)
   B_SPLINE_SURFACE_WITH_KNOTS ((2, 2), (3, 2, 2, 2, 3), (-1.6595452141724, -0.544685351665785), (0., 0.25, 0.5, 0.75, 1.), .UNSPECIFIED.)
   GEOMETRIC_REPRESENTATION_ITEM ()
   RATIONAL_B_SPLINE_SURFACE (((1., 0.707106781186548, 1., 0.707106781186548, 1., 0.707106781186548, 1., 0.707106781186548, 1.), (1., 0.707106781186548, 1., 0.707106781186548, 1., 0.707106781186548, 1., 0.707106781186548, 1.)))
   REPRESENTATION_ITEM ('')
   SURFACE ()
);
#156 = CARTESIAN_POINT('', (-12.7, 3.11258127071811E-15, -152.146));
#157 = CARTESIAN_POINT('', (-12.7, 12.7, -152.146));
#158 = CARTESIAN_POINT('', (-4.7149856531102E-15, 12.7, -152.146));
#159 = CARTESIAN_POINT('', (12.7, 12.7, -152.146));
#160 = CARTESIAN_POINT('', (12.7, 1.17653964597009E-14, -152.146));
#161 = CARTESIAN_POINT('', (12.7, -12.7, -152.146));
#162 = CARTESIAN_POINT('', (5.49313097078973E-15, -12.7, -152.146));
#163 = CARTESIAN_POINT('', (-12.7, -12.7, -152.146));
#164 = CARTESIAN_POINT('', (-12.7, 3.11258127071811E-15, -152.146));
#165 = CARTESIAN_POINT('', (-12.7, 6.22120573966855E-15, -88.9));
#166 = CARTESIAN_POINT('', (-12.7, 12.7, -88.9));
#167 = CARTESIAN_POINT('', (-4.7149856531102E-15, 12.7, -88.9));
#168 = CARTESIAN_POINT('', (12.7, 12.7, -88.9));
#169 = CARTESIAN_POINT('', (12.7, 1.48740209286513E-14, -88.9));
#170 = CARTESIAN_POINT('', (12.7, -12.7, -88.9));
#171 = CARTESIAN_POINT('', (5.49313097078973E-15, -12.7, -88.9));
#172 = CARTESIAN_POINT('', (-12.7, -12.7, -88.9));
#173 = CARTESIAN_POINT('', (-12.7, 6.22120573966855E-15, -88.9));
#174 = ADVANCED_FACE('', (#175), #194, .T.);
#175 = FACE_OUTER_BOUND('', #176, .T.);
#176 = EDGE_LOOP('', (#177, #185, #186, #187));
#177 = ORIENTED_EDGE('', *, *, #178, .F.);
#178 = EDGE_CURVE('', #141, #179, #181, .T.);
#179 = VERTEX_POINT('', #180);
#180 = CARTESIAN_POINT('', (-12.446, 1.00939063126122E-14, -152.4));
#181 = LINE('', #182, #183);
#182 = CARTESIAN_POINT('', (-12.7, 1.00939063126122E-14, -152.146));
#183 = VECTOR('', #184, 0.359210244842779);
#184 = DIRECTION('', (0.254, 0., -0.254000000000019));
#185 = ORIENTED_EDGE('', *, *, #148, .T.);
#186 = ORIENTED_EDGE('', *, *, #178, .T.);
#187 = ORIENTED_EDGE('', *, *, #188, .F.);
#188 = EDGE_CURVE('', #179, #179, #189, .T.);
#189 = CIRCLE('', #190, 12.446);
#190 = AXIS2_PLACEMENT_3D('', #191, #192, #193);
#191 = CARTESIAN_POINT('', (2.44249065417534E-15, 4.21884749357559E-15, -152.4));
#192 = DIRECTION('', (0., 0., -1.));
#193 = DIRECTION('', (-1., 4.72043935323526E-16, 0.));
#194 = (
   BOUNDED_SURFACE ()
   B_SPLINE_SURFACE (2, 1, ((#195, #196), (#197, #198), (#199, #200), (#201, #202), (#203, #204), (#205, #206), (#207, #208), (#209, #210), (#211, #212)), .UNSPECIFIED., .T., .F., .U.)
   B_SPLINE_SURFACE_WITH_KNOTS ((3, 2, 2, 2, 3), (2, 2), (0., 0.25, 0.5, 0.75, 1.), (0., 1.), .UNSPECIFIED.)
   GEOMETRIC_REPRESENTATION_ITEM ()
   RATIONAL_B_SPLINE_SURFACE (((1., 1.), (0.707106781186548, 0.707106781186548), (1., 1.), (0.707106781186548, 0.707106781186548), (1., 1.), (0.707106781186548, 0.707106781186548), (1., 1.), (0.707106781186548, 0.707106781186548), (1., 1.)))
   REPRESENTATION_ITEM ('')
   SURFACE ()
);
#195 = CARTESIAN_POINT('', (-12.7, 1.00939063126122E-14, -152.146));
#196 = CARTESIAN_POINT('', (-12.446, 2.13006799874081E-14, -152.4));
#197 = CARTESIAN_POINT('', (-12.7, 12.7, -152.145999999999));
#198 = CARTESIAN_POINT('', (-12.446, 12.446, -152.399999999999));
#199 = CARTESIAN_POINT('', (1.81425286409236E-14, 12.7, -152.145999999999));
#200 = CARTESIAN_POINT('', (1.7818535873967E-14, 12.446, -152.399999999999));
#201 = CARTESIAN_POINT('', (12.7, 12.7, -152.145999999999));
#202 = CARTESIAN_POINT('', (12.446, 12.446, -152.399999999999));
#203 = CARTESIAN_POINT('', (12.7, -2.2305370383047E-14, -152.146));
#204 = CARTESIAN_POINT('', (12.446, -1.0450611174338E-14, -152.4));
#205 = CARTESIAN_POINT('', (12.7, -12.7, -152.146000000001));
#206 = CARTESIAN_POINT('', (12.446, -12.446, -152.400000000001));
#207 = CARTESIAN_POINT('', (-1.27014466198184E-14, -12.7, -152.146000000001));
#208 = CARTESIAN_POINT('', (-1.24085598815602E-14, -12.446, -152.400000000001));
#209 = CARTESIAN_POINT('', (-12.7, -12.7, -152.146000000001));
#210 = CARTESIAN_POINT('', (-12.446, -12.446, -152.400000000001));
#211 = CARTESIAN_POINT('', (-12.7, 1.00939063126122E-14, -152.146));
#212 = CARTESIAN_POINT('', (-12.446, 2.13006799874081E-14, -152.4));
#213 = ADVANCED_FACE('', (#214), #217, .T.);
#214 = FACE_OUTER_BOUND('', #215, .T.);
#215 = EDGE_LOOP('', (#216));
#216 = ORIENTED_EDGE('', *, *, #188, .T.);
#217 = B_SPLINE_SURFACE_WITH_KNOTS('', 1, 1, ((#218, #219), (#220, #221)), .UNSPECIFIED., .F., .F., .U., (2, 2), (2, 2), (6.9154321970251, 31.8074321970251), (6.9154321970251, 31.8074321970251), .UNSPECIFIED.);
#218 = CARTESIAN_POINT('', (12.446, -12.446, -152.4));
#219 = CARTESIAN_POINT('', (12.446, 12.446, -152.4));
#220 = CARTESIAN_POINT('', (-12.446, -12.446, -152.4));
#221 = CARTESIAN_POINT('', (-12.446, 12.446, -152.4));
#222 = PRESENTATION_STYLE_ASSIGNMENT((#223));
#223 = SURFACE_STYLE_USAGE(.POSITIVE., #224);
#224 = SURFACE_SIDE_STYLE('', (#225));
#225 = SURFACE_STYLE_FILL_AREA(#226);
#226 = FILL_AREA_STYLE('', (#227));
#227 = FILL_AREA_STYLE_COLOUR('', #228);
#228 = COLOUR_RGB('', 0.8, 0.8, 0.8);
#229 = STYLED_ITEM('', (#222), #116);
#230 = TRIMMED_CURVE('cutting part line', #231, (#235), (#236), .T., .CARTESIAN.);
#231 = LINE('', #232, #233);
#232 = CARTESIAN_POINT('', (-9.99964835089794E-31, -5.44355502220999E-15, -88.9));
#233 = VECTOR('', #234, 12.7);
#234 = DIRECTION('', (12.7, -2.33295215237571E-15, 0.));
#235 = CARTESIAN_POINT('', (-9.99964835089794E-31, -5.44355502220999E-15, -88.9));
#236 = CARTESIAN_POINT('', (12.7, -7.7765071745857E-15, -88.9));
#237 = TRIMMED_CURVE('cutting part line', #238, (#242), (#243), .T., .CARTESIAN.);
#238 = LINE('', #239, #240);
#239 = CARTESIAN_POINT('', (12.7, -7.7765071745857E-15, -88.9));
#240 = VECTOR('', #241, 63.246);
#241 = DIRECTION('', (0., -3.87270057294364E-15, -63.246));
#242 = CARTESIAN_POINT('', (12.7, -7.7765071745857E-15, -88.9));
#243 = CARTESIAN_POINT('', (12.7, -1.16492077475293E-14, -152.146));
#244 = TRIMMED_CURVE('cutting part line', #245, (#249), (#250), .T., .CARTESIAN.);
#245 = LINE('', #246, #247);
#246 = CARTESIAN_POINT('', (12.7, -1.16492077475293E-14, -152.146));
#247 = VECTOR('', #248, 0.359210244842779);
#248 = DIRECTION('', (-0.254, 3.11060286983438E-17, -0.254000000000019));
#249 = CARTESIAN_POINT('', (12.7, -1.16492077475293E-14, -152.146));
#250 = CARTESIAN_POINT('', (12.446, -1.1618101718831E-14, -152.4));
#251 = TRIMMED_CURVE('cutting part line', #252, (#256), (#257), .T., .CARTESIAN.);
#252 = LINE('', #253, #254);
#253 = CARTESIAN_POINT('', (12.446, -1.1618101718831E-14, -152.4));
#254 = VECTOR('', #255, 12.446);
#255 = DIRECTION('', (-12.446, 2.28629310932817E-15, 0.));
#256 = CARTESIAN_POINT('', (12.446, -1.1618101718831E-14, -152.4));
#257 = CARTESIAN_POINT('', (-1.14281695438834E-30, -9.33180860950283E-15, -152.4));
#258 = TRIMMED_CURVE('cutting part line', #259, (#263), (#264), .T., .CARTESIAN.);
#259 = LINE('', #260, #261);
#260 = CARTESIAN_POINT('', (-1.7142254315825E-30, -9.33180860950283E-15, -152.4));
#261 = VECTOR('', #262, 63.5);
#262 = DIRECTION('', (7.14260596492709E-31, 3.88825358729284E-15, 63.5));
#263 = CARTESIAN_POINT('', (-1.7142254315825E-30, -9.33180860950283E-15, -152.4));
#264 = CARTESIAN_POINT('', (-9.99964835089794E-31, -5.44355502220999E-15, -88.9));
#265 = COMPOSITE_CURVE('cutting part line', (#266, #267, #268, #269, #270), .U.);
#266 = COMPOSITE_CURVE_SEGMENT(.CONTINUOUS., .T., #230);
#267 = COMPOSITE_CURVE_SEGMENT(.CONTINUOUS., .T., #237);
#268 = COMPOSITE_CURVE_SEGMENT(.CONTINUOUS., .T., #244);
#269 = COMPOSITE_CURVE_SEGMENT(.CONTINUOUS., .T., #251);
#270 = COMPOSITE_CURVE_SEGMENT(.CONTINUOUS., .T., #258);
#271 = GEOMETRIC_SET('', (#265, #314));
#272 = PRESENTATION_STYLE_ASSIGNMENT((#273));
#273 = CURVE_STYLE('', #275, POSITIVE_LENGTH_MEASURE(1.E-6), #274);
#274 = COLOUR_RGB('', 0., 0., 1.);
#275 = DRAUGHTING_PRE_DEFINED_CURVE_FONT('continuous');
#276 = STYLED_ITEM('', (#272), #265);
#277 = PRESENTATION_STYLE_ASSIGNMENT((#278));
#278 = CURVE_STYLE('', #280, POSITIVE_LENGTH_MEASURE(1.E-6), #279);
#279 = COLOUR_RGB('', 0., 0., 1.);
#280 = DRAUGHTING_PRE_DEFINED_CURVE_FONT('continuous');
#281 = OVER_RIDING_STYLED_ITEM('', (#277), #230, #276);
#282 = PRESENTATION_STYLE_ASSIGNMENT((#283));
#283 = CURVE_STYLE('', #285, POSITIVE_LENGTH_MEASURE(1.E-6), #284);
#284 = COLOUR_RGB('', 0., 0., 1.);
#285 = DRAUGHTING_PRE_DEFINED_CURVE_FONT('continuous');
#286 = OVER_RIDING_STYLED_ITEM('', (#282), #237, #276);
#287 = PRESENTATION_STYLE_ASSIGNMENT((#288));
#288 = CURVE_STYLE('', #290, POSITIVE_LENGTH_MEASURE(1.E-6), #289);
#289 = COLOUR_RGB('', 0., 0., 1.);
#290 = DRAUGHTING_PRE_DEFINED_CURVE_FONT('continuous');
#291 = OVER_RIDING_STYLED_ITEM('', (#287), #244, #276);
#292 = PRESENTATION_STYLE_ASSIGNMENT((#293));
#293 = CURVE_STYLE('', #295, POSITIVE_LENGTH_MEASURE(1.E-6), #294);
#294 = COLOUR_RGB('', 0., 0., 1.);
#295 = DRAUGHTING_PRE_DEFINED_CURVE_FONT('continuous');
#296 = OVER_RIDING_STYLED_ITEM('', (#292), #251, #276);
#297 = PRESENTATION_STYLE_ASSIGNMENT((#298));
#298 = CURVE_STYLE('', #300, POSITIVE_LENGTH_MEASURE(1.E-6), #299);
#299 = COLOUR_RGB('', 0., 0., 1.);
#300 = DRAUGHTING_PRE_DEFINED_CURVE_FONT('continuous');
#301 = OVER_RIDING_STYLED_ITEM('', (#297), #258, #276);
#302 = AXIS2_PLACEMENT_3D('CIP', #303, #304, #305);
#303 = CARTESIAN_POINT('', (5.71408477194168E-31, 9.33180860950283E-15, -152.4));
#304 = DIRECTION('', (-3.74939945665465E-33, -6.12323399573677E-17, 1.));
#305 = DIRECTION('', (1., -6.12323399573677E-17, 0.));
#306 = AXIS2_PLACEMENT_3D('MCS', #307, #308, #309);
#307 = CARTESIAN_POINT('', (2.17465168485969E-31, 3.55147571752732E-15, -58.));
#308 = DIRECTION('', (-3.74939945665465E-33, -6.12323399573677E-17, 1.));
#309 = DIRECTION('', (1., -6.12323399573677E-17, 0.));
#310 = AXIS2_PLACEMENT_3D('PCS', #311, #312, #313);
#311 = CARTESIAN_POINT('', (0., 0., 0.));
#312 = DIRECTION('', (0., 0., 1.));
#313 = DIRECTION('', (1., 0., 0.));
#314 = CARTESIAN_POINT('CRP', (12.7, 0., -152.4));
#315 = (
   GEOMETRIC_REPRESENTATION_CONTEXT (3)
   GLOBAL_UNCERTAINTY_ASSIGNED_CONTEXT ((#317))
   GLOBAL_UNIT_ASSIGNED_CONTEXT ((#316, #318, #319))
   REPRESENTATION_CONTEXT ('', '3D')
);
#316 = (
   LENGTH_UNIT ()
   NAMED_UNIT (*)
   SI_UNIT (.MILLI., .METRE.)
);
#317 = UNCERTAINTY_MEASURE_WITH_UNIT(LENGTH_MEASURE(1.E-6), #316, 'DISTANCE_ACCURACY_VALUE', '');
#318 = (
   NAMED_UNIT (*)
   SI_UNIT ($, .STERADIAN.)
   SOLID_ANGLE_UNIT ()
);
#319 = (
   NAMED_UNIT (*)
   PLANE_ANGLE_UNIT ()
   SI_UNIT ($, .RADIAN.)
);
#320 = SHAPE_REPRESENTATION('', (), #315);
#321 = PRODUCT_DEFINITION_SHAPE('', '', #322);
#322 = PRODUCT_DEFINITION('', '', #325, #329);
#323 = APPLICATION_CONTEXT('configuration controlled 3D designs of mechanical parts and assemblies');
#324 = APPLICATION_PROTOCOL_DEFINITION('International Standard', 'automotive_design', 2002, #323);
#325 = PRODUCT_DEFINITION_FORMATION_WITH_SPECIFIED_SOURCE('', '', #326, .NOT_KNOWN.);
#326 = PRODUCT('NONE', '1P260-2540-XA       1620', '', (#327));
#327 = PRODUCT_CONTEXT('', #323, 'mechanical');
#328 = PRODUCT_RELATED_PRODUCT_CATEGORY('detail', '', (#326));
#329 = PRODUCT_DEFINITION_CONTEXT('part definition', #323, 'design');
#330 = SHAPE_DEFINITION_REPRESENTATION(#321, #320);
#331 = CONSTRUCTIVE_GEOMETRY_REPRESENTATION('supplemental geometry', (#302, #306, #310), #315);
#332 = CONSTRUCTIVE_GEOMETRY_REPRESENTATION_RELATIONSHIP('', '', #320, #331);
#333 = SHAPE_REPRESENTATION_RELATIONSHIP('', '', #320, #334);
#334 = SHAPE_REPRESENTATION('', (#271), #315);
#335 = SHAPE_REPRESENTATION_RELATIONSHIP('', '', #320, #336);
#336 = ADVANCED_BREP_SHAPE_REPRESENTATION('', (#1, #116), #315);
ENDSEC;
END-ISO-10303-21;
