ISO-10303-21;
HEADER;
FILE_DESCRIPTION(('STEP'), '1');
FILE_NAME('C:\\Users\\ds2002\\OneDrive - Sandvik\\HomeShare\\Documents\\Batchrepair\\CorSRT2\\NEW_MILSQ_SLD\\Output\\MOD000000000000000020084948600000.stp', '2019-01-02T12:06:52', (''), (''), 'Express v3.0.0.0', 'Express Tool', 'Unknown');
FILE_SCHEMA(('AUTOMOTIVE_DESIGN'));
ENDSEC;

DATA;
#1 = MANIFOLD_SOLID_BREP('NOCUT', #2);
#2 = CLOSED_SHELL('', (#3, #50, #59, #98));
#3 = ADVANCED_FACE('', (#4), #31, .T.);
#4 = FACE_OUTER_BOUND('', #5, .T.);
#5 = EDGE_LOOP('', (#6, #16, #23, #24));
#6 = ORIENTED_EDGE('', *, *, #7, .T.);
#7 = EDGE_CURVE('', #8, #10, #12, .T.);
#8 = VERTEX_POINT('', #9);
#9 = CARTESIAN_POINT('', (-7.9375, 5.34634868252767E-16, -0.793750000000003));
#10 = VERTEX_POINT('', #11);
#11 = CARTESIAN_POINT('', (-7.14375, 4.37428528570445E-16, 0.));
#12 = LINE('', #13, #14);
#13 = CARTESIAN_POINT('', (-7.9375, 5.34634868252767E-16, -0.793750000000003));
#14 = VECTOR('', #15, 1.12253201513365);
#15 = DIRECTION('', (0.79375, -9.72063396823219E-17, 0.793750000000003));
#16 = ORIENTED_EDGE('', *, *, #17, .T.);
#17 = EDGE_CURVE('', #10, #10, #18, .T.);
#18 = CIRCLE('', #19, 7.14375);
#19 = AXIS2_PLACEMENT_3D('', #20, #21, #22);
#20 = CARTESIAN_POINT('', (4.16333634234434E-16, 2.44249065417534E-15, 1.4791141972894E-31));
#21 = DIRECTION('', (3.51870852399057E-33, 6.12323399573676E-17, -1.));
#22 = DIRECTION('', (-1., -5.25602973212484E-16, -3.57026084623406E-32));
#23 = ORIENTED_EDGE('', *, *, #7, .F.);
#24 = ORIENTED_EDGE('', *, *, #25, .F.);
#25 = EDGE_CURVE('', #8, #8, #26, .T.);
#26 = CIRCLE('', #27, 7.9375);
#27 = AXIS2_PLACEMENT_3D('', #28, #29, #30);
#28 = CARTESIAN_POINT('', (1.11022302462516E-15, 2.22044604925031E-16, -0.793750000000003));
#29 = DIRECTION('', (1.3987061727561E-17, -4.55043397165478E-17, -1.));
#30 = DIRECTION('', (-1., 3.93814504979824E-17, -1.3987061727561E-17));
#31 = (
   BOUNDED_SURFACE ()
   B_SPLINE_SURFACE (1, 2, ((#32, #33, #34, #35, #36, #37, #38, #39, #40), (#41, #42, #43, #44, #45, #46, #47, #48, #49)), .UNSPECIFIED., .F., .T., .U.)
   B_SPLINE_SURFACE_WITH_KNOTS ((2, 2), (3, 2, 2, 2, 3), (0., 1.), (0., 0.25, 0.5, 0.75, 1.), .UNSPECIFIED.)
   GEOMETRIC_REPRESENTATION_ITEM ()
   RATIONAL_B_SPLINE_SURFACE (((1., 0.707106781186548, 1., 0.707106781186548, 1., 0.707106781186548, 1., 0.707106781186548, 1.), (1., 0.707106781186548, 1., 0.707106781186548, 1., 0.707106781186548, 1., 0.707106781186548, 1.)))
   REPRESENTATION_ITEM ('')
   SURFACE ()
);
#32 = CARTESIAN_POINT('', (-7.9375, 4.61360075642158E-16, -0.793750000000003));
#33 = CARTESIAN_POINT('', (-7.9375, 7.9375, -0.793750000000005));
#34 = CARTESIAN_POINT('', (2.11250769963398E-15, 7.9375, -0.793750000000005));
#35 = CARTESIAN_POINT('', (7.9375, 7.9375, -0.793750000000005));
#36 = CARTESIAN_POINT('', (7.9375, -3.48609956746951E-15, -0.793750000000003));
#37 = CARTESIAN_POINT('', (7.9375, -7.9375, -0.793750000000001));
#38 = CARTESIAN_POINT('', (-8.62888546654478E-16, -7.9375, -0.793750000000001));
#39 = CARTESIAN_POINT('', (-7.9375, -7.9375, -0.793750000000001));
#40 = CARTESIAN_POINT('', (-7.9375, 4.61360075642158E-16, -0.793750000000003));
#41 = CARTESIAN_POINT('', (-7.14375, 4.37428528570445E-16, 0.));
#42 = CARTESIAN_POINT('', (-7.14375, 7.14375, -1.99840144432527E-15));
#43 = CARTESIAN_POINT('', (1.9151347174784E-15, 7.14375, -1.99840144432527E-15));
#44 = CARTESIAN_POINT('', (7.14375, 7.14375, -1.99840144432527E-15));
#45 = CARTESIAN_POINT('', (7.14375, -3.11528515023006E-15, -4.41948819525692E-31));
#46 = CARTESIAN_POINT('', (7.14375, -7.14375, 1.99840144432527E-15));
#47 = CARTESIAN_POINT('', (-7.62721904181216E-16, -7.14375, 1.99840144432527E-15));
#48 = CARTESIAN_POINT('', (-7.14375, -7.14375, 1.99840144432527E-15));
#49 = CARTESIAN_POINT('', (-7.14375, 4.37428528570445E-16, 0.));
#50 = ADVANCED_FACE('', (#51), #54, .T.);
#51 = FACE_OUTER_BOUND('', #52, .T.);
#52 = EDGE_LOOP('', (#53));
#53 = ORIENTED_EDGE('', *, *, #17, .F.);
#54 = B_SPLINE_SURFACE_WITH_KNOTS('', 1, 1, ((#55, #56), (#57, #58)), .UNSPECIFIED., .F., .F., .U., (2, 2), (2, 2), (3.9693169498231, 18.2568169498231), (3.9693169498231, 18.2568169498231), .UNSPECIFIED.);
#55 = CARTESIAN_POINT('', (7.14375, -7.14375, 6.66799882903051E-15));
#56 = CARTESIAN_POINT('', (-7.14375, -7.14375, -7.54285588617149E-15));
#57 = CARTESIAN_POINT('', (7.14375, 7.14375, 7.5428558861714E-15));
#58 = CARTESIAN_POINT('', (-7.14375, 7.14375, -6.6679988290306E-15));
#59 = ADVANCED_FACE('', (#60), #79, .T.);
#60 = FACE_OUTER_BOUND('', #61, .T.);
#61 = EDGE_LOOP('', (#62, #71, #77, #78));
#62 = ORIENTED_EDGE('', *, *, #63, .F.);
#63 = EDGE_CURVE('', #64, #64, #66, .T.);
#64 = VERTEX_POINT('', #65);
#65 = CARTESIAN_POINT('', (-7.9375, 4.66587368858144E-15, -68.262));
#66 = CIRCLE('', #67, 7.9375);
#67 = AXIS2_PLACEMENT_3D('', #68, #69, #70);
#68 = CARTESIAN_POINT('', (4.71844785465692E-16, 8.88178419700125E-16, -68.262));
#69 = DIRECTION('', (0., 0., -1.));
#70 = DIRECTION('', (-1., 4.75930112614969E-16, 0.));
#71 = ORIENTED_EDGE('', *, *, #72, .F.);
#72 = EDGE_CURVE('', #8, #64, #73, .T.);
#73 = LINE('', #74, #75);
#74 = CARTESIAN_POINT('', (-7.9375, 5.34634868252767E-16, -0.793750000000003));
#75 = VECTOR('', #76, 67.46825);
#76 = DIRECTION('', (0., 4.13123882032867E-15, -67.46825));
#77 = ORIENTED_EDGE('', *, *, #25, .T.);
#78 = ORIENTED_EDGE('', *, *, #72, .T.);
#79 = (
   BOUNDED_SURFACE ()
   B_SPLINE_SURFACE (1, 2, ((#80, #81, #82, #83, #84, #85, #86, #87, #88), (#89, #90, #91, #92, #93, #94, #95, #96, #97)), .UNSPECIFIED., .F., .T., .U.)
   B_SPLINE_SURFACE_WITH_KNOTS ((2, 2), (3, 2, 2, 2, 3), (-0.515927538267098, 1.), (0., 0.25, 0.5, 0.75, 1.), .UNSPECIFIED.)
   GEOMETRIC_REPRESENTATION_ITEM ()
   RATIONAL_B_SPLINE_SURFACE (((1., 0.707106781186548, 1., 0.707106781186548, 1., 0.707106781186548, 1., 0.707106781186548, 1.), (1., 0.707106781186548, 1., 0.707106781186548, 1., 0.707106781186548, 1., 0.707106781186548, 1.)))
   REPRESENTATION_ITEM ('')
   SURFACE ()
);
#80 = CARTESIAN_POINT('', (-7.9375, 4.97552696675339E-15, -68.262));
#81 = CARTESIAN_POINT('', (-7.93749999999999, 7.9375, -68.262));
#82 = CARTESIAN_POINT('', (3.93437676249835E-15, 7.9375, -68.262));
#83 = CARTESIAN_POINT('', (7.9375, 7.9375, -68.262));
#84 = CARTESIAN_POINT('', (7.9375, 8.81517738420509E-16, -68.262));
#85 = CARTESIAN_POINT('', (7.9375, -7.9375, -68.262));
#86 = CARTESIAN_POINT('', (8.12430930988673E-16, -7.93749999999999, -68.262));
#87 = CARTESIAN_POINT('', (-7.9375, -7.93749999999999, -68.262));
#88 = CARTESIAN_POINT('', (-7.9375, 4.97552696675339E-15, -68.262));
#89 = CARTESIAN_POINT('', (-7.9375, 5.34634868252766E-16, -0.793750000000003));
#90 = CARTESIAN_POINT('', (-7.93749999999999, 7.9375, -0.793750000000003));
#91 = CARTESIAN_POINT('', (2.99069418509783E-15, 7.9375, -0.793750000000002));
#92 = CARTESIAN_POINT('', (7.9375, 7.93749999999999, -0.793750000000002));
#93 = CARTESIAN_POINT('', (7.9375, -3.55937436008012E-15, -0.793750000000003));
#94 = CARTESIAN_POINT('', (7.9375, -7.9375, -0.793750000000003));
#95 = CARTESIAN_POINT('', (-1.31251646411848E-16, -7.9375, -0.793750000000003));
#96 = CARTESIAN_POINT('', (-7.9375, -7.9375, -0.793750000000004));
#97 = CARTESIAN_POINT('', (-7.9375, 5.34634868252766E-16, -0.793750000000003));
#98 = ADVANCED_FACE('', (#99), #102, .T.);
#99 = FACE_OUTER_BOUND('', #100, .T.);
#100 = EDGE_LOOP('', (#101));
#101 = ORIENTED_EDGE('', *, *, #63, .T.);
#102 = B_SPLINE_SURFACE_WITH_KNOTS('', 1, 1, ((#103, #104), (#105, #106)), .UNSPECIFIED., .F., .F., .U., (2, 2), (2, 2), (133.374527976393, 149.249527976393), (133.735437147906, 149.610437147906), .UNSPECIFIED.);
#103 = CARTESIAN_POINT('', (-7.93749999999999, 7.9375, -68.262));
#104 = CARTESIAN_POINT('', (-7.93749999999999, -7.9375, -68.262));
#105 = CARTESIAN_POINT('', (7.93750000000001, 7.9375, -68.262));
#106 = CARTESIAN_POINT('', (7.93750000000001, -7.9375, -68.262));
#107 = DRAUGHTING_MODEL('', (#115, #239, #287, #292, #297, #302, #307, #312), #326);
#108 = PRESENTATION_STYLE_ASSIGNMENT((#109));
#109 = SURFACE_STYLE_USAGE(.POSITIVE., #110);
#110 = SURFACE_SIDE_STYLE('', (#111));
#111 = SURFACE_STYLE_FILL_AREA(#112);
#112 = FILL_AREA_STYLE('', (#113));
#113 = FILL_AREA_STYLE_COLOUR('', #114);
#114 = COLOUR_RGB('', 0.50196078431373, 0.50196078431373, 0.50196078431373);
#115 = STYLED_ITEM('', (#108), #1);
#116 = MANIFOLD_SOLID_BREP('CUT', #117);
#117 = CLOSED_SHELL('', (#118, #135, #174, #223));
#118 = ADVANCED_FACE('', (#119), #130, .T.);
#119 = FACE_OUTER_BOUND('', #120, .T.);
#120 = EDGE_LOOP('', (#121));
#121 = ORIENTED_EDGE('', *, *, #122, .F.);
#122 = EDGE_CURVE('', #123, #123, #125, .T.);
#123 = VERTEX_POINT('', #124);
#124 = CARTESIAN_POINT('', (-7.9375, 4.66587368858144E-15, -68.262));
#125 = CIRCLE('', #126, 7.9375);
#126 = AXIS2_PLACEMENT_3D('', #127, #128, #129);
#127 = CARTESIAN_POINT('', (4.71844785465692E-16, 8.88178419700125E-16, -68.262));
#128 = DIRECTION('', (0., 0., -1.));
#129 = DIRECTION('', (-1., 4.75930112614969E-16, 0.));
#130 = B_SPLINE_SURFACE_WITH_KNOTS('', 1, 1, ((#131, #132), (#133, #134)), .UNSPECIFIED., .F., .F., .U., (2, 2), (2, 2), (133.735437147906, 149.610437147906), (133.374527976393, 149.249527976393), .UNSPECIFIED.);
#131 = CARTESIAN_POINT('', (-7.9375, 7.93749999999999, -68.262));
#132 = CARTESIAN_POINT('', (7.9375, 7.93749999999999, -68.262));
#133 = CARTESIAN_POINT('', (-7.9375, -7.93750000000001, -68.262));
#134 = CARTESIAN_POINT('', (7.9375, -7.93750000000001, -68.262));
#135 = ADVANCED_FACE('', (#136), #155, .T.);
#136 = FACE_OUTER_BOUND('', #137, .T.);
#137 = EDGE_LOOP('', (#138, #139, #147, #154));
#138 = ORIENTED_EDGE('', *, *, #122, .T.);
#139 = ORIENTED_EDGE('', *, *, #140, .T.);
#140 = EDGE_CURVE('', #123, #141, #143, .T.);
#141 = VERTEX_POINT('', #142);
#142 = CARTESIAN_POINT('', (-7.9375, 8.84577691109122E-15, -136.525));
#143 = LINE('', #144, #145);
#144 = CARTESIAN_POINT('', (-7.9375, 4.66587368858144E-15, -68.262));
#145 = VECTOR('', #146, 68.263);
#146 = DIRECTION('', (0., 4.17990322250978E-15, -68.263));
#147 = ORIENTED_EDGE('', *, *, #148, .F.);
#148 = EDGE_CURVE('', #141, #141, #149, .T.);
#149 = CIRCLE('', #150, 7.9375);
#150 = AXIS2_PLACEMENT_3D('', #151, #152, #153);
#151 = CARTESIAN_POINT('', (1.13797860024079E-15, 8.43769498715119E-15, -136.525));
#152 = DIRECTION('', (0., 0., -1.));
#153 = DIRECTION('', (-1., 5.14118959294526E-17, 0.));
#154 = ORIENTED_EDGE('', *, *, #140, .F.);
#155 = (
   BOUNDED_SURFACE ()
   B_SPLINE_SURFACE (1, 2, ((#156, #157, #158, #159, #160, #161, #162, #163, #164), (#165, #166, #167, #168, #169, #170, #171, #172, #173)), .UNSPECIFIED., .F., .T., .U.)
   B_SPLINE_SURFACE_WITH_KNOTS ((2, 2), (3, 2, 2, 2, 3), (-2.0497121190844, -0.515927538267097), (0., 0.25, 0.5, 0.75, 1.), .UNSPECIFIED.)
   GEOMETRIC_REPRESENTATION_ITEM ()
   RATIONAL_B_SPLINE_SURFACE (((1., 0.707106781186548, 1., 0.707106781186548, 1., 0.707106781186548, 1., 0.707106781186548, 1.), (1., 0.707106781186548, 1., 0.707106781186548, 1., 0.707106781186548, 1., 0.707106781186548, 1.)))
   REPRESENTATION_ITEM ('')
   SURFACE ()
);
#156 = CARTESIAN_POINT('', (-7.9375, 9.99494420678219E-15, -136.525));
#157 = CARTESIAN_POINT('', (-7.9375, 7.93750000000001, -136.525));
#158 = CARTESIAN_POINT('', (2.18144054584455E-15, 7.93750000000001, -136.525));
#159 = CARTESIAN_POINT('', (7.9375, 7.93750000000001, -136.525));
#160 = CARTESIAN_POINT('', (7.9375, 6.52024153479321E-15, -136.525));
#161 = CARTESIAN_POINT('', (7.9375, -7.93749999999999, -136.525));
#162 = CARTESIAN_POINT('', (-3.21198729321213E-16, -7.93749999999999, -136.525));
#163 = CARTESIAN_POINT('', (-7.9375, -7.93749999999999, -136.525));
#164 = CARTESIAN_POINT('', (-7.9375, 9.99494420678219E-15, -136.525));
#165 = CARTESIAN_POINT('', (-7.9375, 4.66587368858144E-15, -68.262));
#166 = CARTESIAN_POINT('', (-7.9375, 7.9375, -68.262));
#167 = CARTESIAN_POINT('', (2.18144054584455E-15, 7.9375, -68.262));
#168 = CARTESIAN_POINT('', (7.9375, 7.9375, -68.262));
#169 = CARTESIAN_POINT('', (7.9375, 1.19117101659246E-15, -68.262));
#170 = CARTESIAN_POINT('', (7.9375, -7.9375, -68.262));
#171 = CARTESIAN_POINT('', (-3.21198729321216E-16, -7.9375, -68.262));
#172 = CARTESIAN_POINT('', (-7.9375, -7.9375, -68.262));
#173 = CARTESIAN_POINT('', (-7.9375, 4.66587368858144E-15, -68.262));
#174 = ADVANCED_FACE('', (#175), #195, .T.);
#175 = FACE_OUTER_BOUND('', #176, .T.);
#176 = EDGE_LOOP('', (#177, #186, #187, #188));
#177 = ORIENTED_EDGE('', *, *, #178, .F.);
#178 = EDGE_CURVE('', #141, #179, #181, .T.);
#179 = VERTEX_POINT('', #180);
#180 = CARTESIAN_POINT('', (-4.7625, 8.84577691109122E-15, -139.7));
#181 = CIRCLE('', #182, 3.17500000000006);
#182 = AXIS2_PLACEMENT_3D('', #183, #184, #185);
#183 = CARTESIAN_POINT('', (-4.76249999999995, 8.65136423172656E-15, -136.525));
#184 = DIRECTION('', (-6.12323399573717E-17, -1., -6.12323399573718E-17));
#185 = DIRECTION('', (-1., 6.12323399573728E-17, -1.79034390112778E-14));
#186 = ORIENTED_EDGE('', *, *, #148, .T.);
#187 = ORIENTED_EDGE('', *, *, #178, .T.);
#188 = ORIENTED_EDGE('', *, *, #189, .F.);
#189 = EDGE_CURVE('', #179, #179, #190, .T.);
#190 = CIRCLE('', #191, 4.7625);
#191 = AXIS2_PLACEMENT_3D('', #192, #193, #194);
#192 = CARTESIAN_POINT('', (-4.30211422042248E-16, 9.10382880192628E-15, -139.7));
#193 = DIRECTION('', (0., 0., -1.));
#194 = DIRECTION('', (-1., -5.41841240598559E-17, 0.));
#195 = (
   BOUNDED_SURFACE ()
   B_SPLINE_SURFACE (2, 2, ((#196, #197, #198), (#199, #200, #201), (#202, #203, #204), (#205, #206, #207), (#208, #209, #210), (#211, #212, #213), (#214, #215, #216), (#217, #218, #219), (#220, #221, #222)), .UNSPECIFIED., .T., .F., .U.)
   B_SPLINE_SURFACE_WITH_KNOTS ((3, 2, 2, 2, 3), (3, 3), (0., 0.25, 0.5, 0.75, 1.), (0., 1.), .UNSPECIFIED.)
   GEOMETRIC_REPRESENTATION_ITEM ()
   RATIONAL_B_SPLINE_SURFACE (((1., 0.707106781186549, 1.), (0.707106781186548, 0.500000000000001, 0.707106781186548), (1., 0.707106781186549, 1.), (0.707106781186548, 0.500000000000001, 0.707106781186548), (1., 0.707106781186549, 1.), (0.707106781186548, 0.500000000000001, 0.707106781186548), (1., 0.707106781186549, 1.), (0.707106781186548, 0.500000000000001, 0.707106781186548), (1., 0.707106781186549, 1.)))
   REPRESENTATION_ITEM ('')
   SURFACE ()
);
#196 = CARTESIAN_POINT('', (-7.9375, 8.84577691109122E-15, -136.525));
#197 = CARTESIAN_POINT('', (-7.93749999999998, 9.04018959045587E-15, -139.7));
#198 = CARTESIAN_POINT('', (-4.7625, 8.84577691109122E-15, -139.7));
#199 = CARTESIAN_POINT('', (-7.9375, 7.93750000000001, -136.525));
#200 = CARTESIAN_POINT('', (-7.93749999999998, 7.93749999999999, -139.7));
#201 = CARTESIAN_POINT('', (-4.7625, 4.76250000000001, -139.7));
#202 = CARTESIAN_POINT('', (-1.33460925702833E-16, 7.93750000000001, -136.525));
#203 = CARTESIAN_POINT('', (6.09517536618171E-17, 7.93749999999999, -139.7));
#204 = CARTESIAN_POINT('', (6.09517536618089E-17, 4.76250000000001, -139.7));
#205 = CARTESIAN_POINT('', (7.9375, 7.93750000000001, -136.525));
#206 = CARTESIAN_POINT('', (7.93749999999998, 7.93749999999999, -139.7));
#207 = CARTESIAN_POINT('', (4.7625, 4.76250000000001, -139.7));
#208 = CARTESIAN_POINT('', (7.9375, 1.03339440895846E-14, -136.525));
#209 = CARTESIAN_POINT('', (7.93749999999998, 1.01395314102199E-14, -139.7));
#210 = CARTESIAN_POINT('', (4.7625, 9.94511873085527E-15, -139.7));
#211 = CARTESIAN_POINT('', (7.9375, -7.93749999999999, -136.525));
#212 = CARTESIAN_POINT('', (7.93749999999998, -7.93749999999997, -139.7));
#213 = CARTESIAN_POINT('', (4.7625, -4.76249999999999, -139.7));
#214 = CARTESIAN_POINT('', (2.32676964961372E-15, -7.93749999999999, -136.525));
#215 = CARTESIAN_POINT('', (2.13235697024906E-15, -7.93749999999997, -139.7));
#216 = CARTESIAN_POINT('', (1.74353161151979E-15, -4.76249999999999, -139.7));
#217 = CARTESIAN_POINT('', (-7.9375, -7.93749999999999, -136.525));
#218 = CARTESIAN_POINT('', (-7.93749999999998, -7.93749999999997, -139.7));
#219 = CARTESIAN_POINT('', (-4.7625, -4.76249999999999, -139.7));
#220 = CARTESIAN_POINT('', (-7.9375, 8.84577691109122E-15, -136.525));
#221 = CARTESIAN_POINT('', (-7.93749999999998, 9.04018959045587E-15, -139.7));
#222 = CARTESIAN_POINT('', (-4.7625, 8.84577691109122E-15, -139.7));
#223 = ADVANCED_FACE('', (#224), #227, .T.);
#224 = FACE_OUTER_BOUND('', #225, .T.);
#225 = EDGE_LOOP('', (#226));
#226 = ORIENTED_EDGE('', *, *, #189, .T.);
#227 = B_SPLINE_SURFACE_WITH_KNOTS('', 1, 1, ((#228, #229), (#230, #231)), .UNSPECIFIED., .F., .F., .U., (2, 2), (2, 2), (2.64621129988205, 12.171211299882), (2.64621129988205, 12.171211299882), .UNSPECIFIED.);
#228 = CARTESIAN_POINT('', (4.7625, -4.76249999999999, -139.7));
#229 = CARTESIAN_POINT('', (4.7625, 4.76250000000001, -139.7));
#230 = CARTESIAN_POINT('', (-4.7625, -4.76249999999999, -139.7));
#231 = CARTESIAN_POINT('', (-4.7625, 4.76250000000001, -139.7));
#232 = PRESENTATION_STYLE_ASSIGNMENT((#233));
#233 = SURFACE_STYLE_USAGE(.POSITIVE., #234);
#234 = SURFACE_SIDE_STYLE('', (#235));
#235 = SURFACE_STYLE_FILL_AREA(#236);
#236 = FILL_AREA_STYLE('', (#237));
#237 = FILL_AREA_STYLE_COLOUR('', #238);
#238 = COLOUR_RGB('', 0.8, 0.8, 0.8);
#239 = STYLED_ITEM('', (#232), #116);
#240 = TRIMMED_CURVE('cutting part line', #241, (#245), (#246), .T., .CARTESIAN.);
#241 = LINE('', #242, #243);
#242 = CARTESIAN_POINT('', (-7.67824517130477E-31, -4.17984199016983E-15, -68.262));
#243 = VECTOR('', #244, 7.9375);
#244 = DIRECTION('', (7.9375, -1.45809509523482E-15, 0.));
#245 = CARTESIAN_POINT('', (-7.67824517130477E-31, -4.17984199016983E-15, -68.262));
#246 = CARTESIAN_POINT('', (7.9375, -5.63793708540465E-15, -68.262));
#247 = TRIMMED_CURVE('cutting part line', #248, (#252), (#253), .T., .CARTESIAN.);
#248 = LINE('', #249, #250);
#249 = CARTESIAN_POINT('', (7.9375, -5.63793708540465E-15, -68.262));
#250 = VECTOR('', #251, 68.263);
#251 = DIRECTION('', (0., -4.17990322250978E-15, -68.263));
#252 = CARTESIAN_POINT('', (7.9375, -5.63793708540465E-15, -68.262));
#253 = CARTESIAN_POINT('', (7.9375, -9.81784030791443E-15, -136.525));
#254 = TRIMMED_CURVE('cutting part line', #255, (#260), (#261), .T., .CARTESIAN.);
#255 = CIRCLE('', #256, 3.17500000000003);
#256 = AXIS2_PLACEMENT_3D('', #257, #258, #259);
#257 = CARTESIAN_POINT('', (4.76249999999996, -9.23460226982049E-15, -136.525));
#258 = DIRECTION('', (1.83697019872105E-16, 1., -6.12323399573697E-17));
#259 = DIRECTION('', (1., -1.83697019872105E-16, -8.95171950563895E-15));
#260 = CARTESIAN_POINT('', (7.93749999999999, -9.81784030791443E-15, -136.525));
#261 = CARTESIAN_POINT('', (4.7625, -9.42901494918515E-15, -139.7));
#262 = TRIMMED_CURVE('cutting part line', #263, (#267), (#268), .T., .CARTESIAN.);
#263 = LINE('', #264, #265);
#264 = CARTESIAN_POINT('', (4.7625, -9.42901494918515E-15, -139.7));
#265 = VECTOR('', #266, 4.7625);
#266 = DIRECTION('', (-4.7625, 8.74857057140887E-16, 0.));
#267 = CARTESIAN_POINT('', (4.7625, -9.42901494918515E-15, -139.7));
#268 = CARTESIAN_POINT('', (-1.04758220818931E-30, -8.55415789204426E-15, -139.7));
#269 = TRIMMED_CURVE('cutting part line', #270, (#274), (#275), .T., .CARTESIAN.);
#270 = LINE('', #271, #272);
#271 = CARTESIAN_POINT('', (-1.57137331228396E-30, -8.55415789204426E-15, -139.7));
#272 = VECTOR('', #273, 71.438);
#273 = DIRECTION('', (8.03548795153484E-31, 4.37431590187443E-15, 71.438));
#274 = CARTESIAN_POINT('', (-1.57137331228396E-30, -8.55415789204426E-15, -139.7));
#275 = CARTESIAN_POINT('', (-7.67824517130477E-31, -4.17984199016983E-15, -68.262));
#276 = COMPOSITE_CURVE('cutting part line', (#277, #278, #279, #280, #281), .U.);
#277 = COMPOSITE_CURVE_SEGMENT(.CONTINUOUS., .T., #240);
#278 = COMPOSITE_CURVE_SEGMENT(.CONTINUOUS., .T., #247);
#279 = COMPOSITE_CURVE_SEGMENT(.CONTINUOUS., .T., #254);
#280 = COMPOSITE_CURVE_SEGMENT(.CONTINUOUS., .T., #262);
#281 = COMPOSITE_CURVE_SEGMENT(.CONTINUOUS., .T., #269);
#282 = GEOMETRIC_SET('', (#276, #325));
#283 = PRESENTATION_STYLE_ASSIGNMENT((#284));
#284 = CURVE_STYLE('', #286, POSITIVE_LENGTH_MEASURE(1.E-6), #285);
#285 = COLOUR_RGB('', 0., 0., 1.);
#286 = DRAUGHTING_PRE_DEFINED_CURVE_FONT('continuous');
#287 = STYLED_ITEM('', (#283), #276);
#288 = PRESENTATION_STYLE_ASSIGNMENT((#289));
#289 = CURVE_STYLE('', #291, POSITIVE_LENGTH_MEASURE(1.E-6), #290);
#290 = COLOUR_RGB('', 0., 0., 1.);
#291 = DRAUGHTING_PRE_DEFINED_CURVE_FONT('continuous');
#292 = OVER_RIDING_STYLED_ITEM('', (#288), #240, #287);
#293 = PRESENTATION_STYLE_ASSIGNMENT((#294));
#294 = CURVE_STYLE('', #296, POSITIVE_LENGTH_MEASURE(1.E-6), #295);
#295 = COLOUR_RGB('', 0., 0., 1.);
#296 = DRAUGHTING_PRE_DEFINED_CURVE_FONT('continuous');
#297 = OVER_RIDING_STYLED_ITEM('', (#293), #247, #287);
#298 = PRESENTATION_STYLE_ASSIGNMENT((#299));
#299 = CURVE_STYLE('', #301, POSITIVE_LENGTH_MEASURE(1.E-6), #300);
#300 = COLOUR_RGB('', 0., 0., 1.);
#301 = DRAUGHTING_PRE_DEFINED_CURVE_FONT('continuous');
#302 = OVER_RIDING_STYLED_ITEM('', (#298), #254, #287);
#303 = PRESENTATION_STYLE_ASSIGNMENT((#304));
#304 = CURVE_STYLE('', #306, POSITIVE_LENGTH_MEASURE(1.E-6), #305);
#305 = COLOUR_RGB('', 0., 0., 1.);
#306 = DRAUGHTING_PRE_DEFINED_CURVE_FONT('continuous');
#307 = OVER_RIDING_STYLED_ITEM('', (#303), #262, #287);
#308 = PRESENTATION_STYLE_ASSIGNMENT((#309));
#309 = CURVE_STYLE('', #311, POSITIVE_LENGTH_MEASURE(1.E-6), #310);
#310 = COLOUR_RGB('', 0., 0., 1.);
#311 = DRAUGHTING_PRE_DEFINED_CURVE_FONT('continuous');
#312 = OVER_RIDING_STYLED_ITEM('', (#308), #269, #287);
#313 = AXIS2_PLACEMENT_3D('CIP', #314, #315, #316);
#314 = CARTESIAN_POINT('', (5.23791104094654E-31, 8.55415789204426E-15, -139.7));
#315 = DIRECTION('', (-3.74939945665465E-33, -6.12323399573677E-17, 1.));
#316 = DIRECTION('', (1., -6.12323399573677E-17, 0.));
#317 = AXIS2_PLACEMENT_3D('MCS', #318, #319, #320);
#318 = CARTESIAN_POINT('', (1.69847795386455E-31, 2.77382500006875E-15, -45.3));
#319 = DIRECTION('', (-3.74939945665465E-33, -6.12323399573677E-17, 1.));
#320 = DIRECTION('', (1., -6.12323399573677E-17, 0.));
#321 = AXIS2_PLACEMENT_3D('PCS', #322, #323, #324);
#322 = CARTESIAN_POINT('', (0., 0., 0.));
#323 = DIRECTION('', (0., 0., 1.));
#324 = DIRECTION('', (1., 0., 0.));
#325 = CARTESIAN_POINT('CRP', (7.9375, 0., -139.7));
#326 = (
   GEOMETRIC_REPRESENTATION_CONTEXT (3)
   GLOBAL_UNCERTAINTY_ASSIGNED_CONTEXT ((#328))
   GLOBAL_UNIT_ASSIGNED_CONTEXT ((#327, #329, #330))
   REPRESENTATION_CONTEXT ('', '3D')
);
#327 = (
   LENGTH_UNIT ()
   NAMED_UNIT (*)
   SI_UNIT (.MILLI., .METRE.)
);
#328 = UNCERTAINTY_MEASURE_WITH_UNIT(LENGTH_MEASURE(1.E-6), #327, 'DISTANCE_ACCURACY_VALUE', '');
#329 = (
   NAMED_UNIT (*)
   SI_UNIT ($, .STERADIAN.)
   SOLID_ANGLE_UNIT ()
);
#330 = (
   NAMED_UNIT (*)
   PLANE_ANGLE_UNIT ()
   SI_UNIT ($, .RADIAN.)
);
#331 = SHAPE_REPRESENTATION('', (), #326);
#332 = PRODUCT_DEFINITION_SHAPE('', '', #333);
#333 = PRODUCT_DEFINITION('', '', #336, #340);
#334 = APPLICATION_CONTEXT('configuration controlled 3D designs of mechanical parts and assemblies');
#335 = APPLICATION_PROTOCOL_DEFINITION('International Standard', 'automotive_design', 2002, #334);
#336 = PRODUCT_DEFINITION_FORMATION_WITH_SPECIFIED_SOURCE('', '', #337, .NOT_KNOWN.);
#337 = PRODUCT('EmptyName', 'EmptyName', '', (#338));
#338 = PRODUCT_CONTEXT('', #334, 'mechanical');
#339 = PRODUCT_RELATED_PRODUCT_CATEGORY('detail', '', (#337));
#340 = PRODUCT_DEFINITION_CONTEXT('part definition', #334, 'design');
#341 = SHAPE_DEFINITION_REPRESENTATION(#332, #331);
#342 = CONSTRUCTIVE_GEOMETRY_REPRESENTATION('supplemental geometry', (#313, #317, #321), #326);
#343 = CONSTRUCTIVE_GEOMETRY_REPRESENTATION_RELATIONSHIP('', '', #331, #342);
#344 = SHAPE_REPRESENTATION_RELATIONSHIP('', '', #331, #345);
#345 = SHAPE_REPRESENTATION('', (#282), #326);
#346 = SHAPE_REPRESENTATION_RELATIONSHIP('', '', #331, #347);
#347 = ADVANCED_BREP_SHAPE_REPRESENTATION('', (#1, #116), #326);
ENDSEC;
END-ISO-10303-21;
