ISO-10303-21;
HEADER;
FILE_DESCRIPTION(('STEP'), '1');
FILE_NAME('C:\\Users\\ds2002\\OneDrive - Sandvik\\HomeShare\\Documents\\Batchrepair\\CorSRT2\\NEW_MILSQ_SLD\\Output\\MOD000000000000000020082269900000.stp', '2019-01-02T12:11:01', (''), (''), 'Express v3.0.0.0', 'Express Tool', 'Unknown');
FILE_SCHEMA(('AUTOMOTIVE_DESIGN'));
ENDSEC;

DATA;
#1 = MANIFOLD_SOLID_BREP('NOCUT', #2);
#2 = CLOSED_SHELL('', (#3, #50, #59, #98));
#3 = ADVANCED_FACE('', (#4), #31, .T.);
#4 = FACE_OUTER_BOUND('', #5, .T.);
#5 = EDGE_LOOP('', (#6, #16, #23, #24));
#6 = ORIENTED_EDGE('', *, *, #7, .T.);
#7 = EDGE_CURVE('', #8, #10, #12, .T.);
#8 = VERTEX_POINT('', #9);
#9 = CARTESIAN_POINT('', (-7.9375, 5.34634868252767E-16, -0.793750000000003));
#10 = VERTEX_POINT('', #11);
#11 = CARTESIAN_POINT('', (-7.14375, 4.37428528570445E-16, 0.));
#12 = LINE('', #13, #14);
#13 = CARTESIAN_POINT('', (-7.9375, 5.34634868252767E-16, -0.793750000000003));
#14 = VECTOR('', #15, 1.12253201513365);
#15 = DIRECTION('', (0.79375, -9.72063396823219E-17, 0.793750000000003));
#16 = ORIENTED_EDGE('', *, *, #17, .T.);
#17 = EDGE_CURVE('', #10, #10, #18, .T.);
#18 = CIRCLE('', #19, 7.14375);
#19 = AXIS2_PLACEMENT_3D('', #20, #21, #22);
#20 = CARTESIAN_POINT('', (4.16333634234434E-16, 2.44249065417534E-15, 1.4791141972894E-31));
#21 = DIRECTION('', (3.51870852399057E-33, 6.12323399573676E-17, -1.));
#22 = DIRECTION('', (-1., -5.25602973212484E-16, -3.57026084623406E-32));
#23 = ORIENTED_EDGE('', *, *, #7, .F.);
#24 = ORIENTED_EDGE('', *, *, #25, .F.);
#25 = EDGE_CURVE('', #8, #8, #26, .T.);
#26 = CIRCLE('', #27, 7.9375);
#27 = AXIS2_PLACEMENT_3D('', #28, #29, #30);
#28 = CARTESIAN_POINT('', (1.11022302462516E-15, 2.22044604925031E-16, -0.793750000000003));
#29 = DIRECTION('', (1.3987061727561E-17, -4.55043397165478E-17, -1.));
#30 = DIRECTION('', (-1., 3.93814504979824E-17, -1.3987061727561E-17));
#31 = (
   BOUNDED_SURFACE ()
   B_SPLINE_SURFACE (1, 2, ((#32, #33, #34, #35, #36, #37, #38, #39, #40), (#41, #42, #43, #44, #45, #46, #47, #48, #49)), .UNSPECIFIED., .F., .T., .U.)
   B_SPLINE_SURFACE_WITH_KNOTS ((2, 2), (3, 2, 2, 2, 3), (0., 1.), (0., 0.25, 0.5, 0.75, 1.), .UNSPECIFIED.)
   GEOMETRIC_REPRESENTATION_ITEM ()
   RATIONAL_B_SPLINE_SURFACE (((1., 0.707106781186548, 1., 0.707106781186548, 1., 0.707106781186548, 1., 0.707106781186548, 1.), (1., 0.707106781186548, 1., 0.707106781186548, 1., 0.707106781186548, 1., 0.707106781186548, 1.)))
   REPRESENTATION_ITEM ('')
   SURFACE ()
);
#32 = CARTESIAN_POINT('', (-7.9375, 4.61360075642158E-16, -0.793750000000001));
#33 = CARTESIAN_POINT('', (-7.9375, 7.9375, -0.793750000000004));
#34 = CARTESIAN_POINT('', (2.11250769963398E-15, 7.9375, -0.793750000000004));
#35 = CARTESIAN_POINT('', (7.9375, 7.9375, -0.793750000000004));
#36 = CARTESIAN_POINT('', (7.9375, -3.48609956746951E-15, -0.793750000000001));
#37 = CARTESIAN_POINT('', (7.9375, -7.9375, -0.793749999999999));
#38 = CARTESIAN_POINT('', (-8.62888546654478E-16, -7.9375, -0.793749999999999));
#39 = CARTESIAN_POINT('', (-7.9375, -7.9375, -0.793749999999999));
#40 = CARTESIAN_POINT('', (-7.9375, 4.61360075642158E-16, -0.793750000000001));
#41 = CARTESIAN_POINT('', (-7.14375, 4.37428528570445E-16, 0.));
#42 = CARTESIAN_POINT('', (-7.14375, 7.14375, -1.99840144432528E-15));
#43 = CARTESIAN_POINT('', (1.9151347174784E-15, 7.14375, -1.99840144432528E-15));
#44 = CARTESIAN_POINT('', (7.14375, 7.14375, -1.99840144432528E-15));
#45 = CARTESIAN_POINT('', (7.14375, -3.11528515023006E-15, -4.41948819525693E-31));
#46 = CARTESIAN_POINT('', (7.14375, -7.14375, 1.99840144432528E-15));
#47 = CARTESIAN_POINT('', (-7.62721904181216E-16, -7.14375, 1.99840144432528E-15));
#48 = CARTESIAN_POINT('', (-7.14375, -7.14375, 1.99840144432528E-15));
#49 = CARTESIAN_POINT('', (-7.14375, 4.37428528570445E-16, 0.));
#50 = ADVANCED_FACE('', (#51), #54, .T.);
#51 = FACE_OUTER_BOUND('', #52, .T.);
#52 = EDGE_LOOP('', (#53));
#53 = ORIENTED_EDGE('', *, *, #17, .F.);
#54 = B_SPLINE_SURFACE_WITH_KNOTS('', 1, 1, ((#55, #56), (#57, #58)), .UNSPECIFIED., .F., .F., .U., (2, 2), (2, 2), (3.9693169498231, 18.2568169498231), (3.9693169498231, 18.2568169498231), .UNSPECIFIED.);
#55 = CARTESIAN_POINT('', (7.14375, -7.14375, -2.17537106013734E-14));
#56 = CARTESIAN_POINT('', (-7.14375, -7.14375, -7.54285588617138E-15));
#57 = CARTESIAN_POINT('', (7.14375, 7.14375, -6.66799882903049E-15));
#58 = CARTESIAN_POINT('', (-7.14375, 7.14375, 7.54285588617152E-15));
#59 = ADVANCED_FACE('', (#60), #79, .T.);
#60 = FACE_OUTER_BOUND('', #61, .T.);
#61 = EDGE_LOOP('', (#62, #71, #77, #78));
#62 = ORIENTED_EDGE('', *, *, #63, .F.);
#63 = EDGE_CURVE('', #64, #64, #66, .T.);
#64 = VERTEX_POINT('', #65);
#65 = CARTESIAN_POINT('', (-7.9375, 3.69368782707831E-15, -52.385));
#66 = CIRCLE('', #67, 7.9375);
#67 = AXIS2_PLACEMENT_3D('', #68, #69, #70);
#68 = CARTESIAN_POINT('', (8.60422844084496E-16, 2.66453525910038E-15, -52.385));
#69 = DIRECTION('', (0., 0., -1.));
#70 = DIRECTION('', (-1., -1.15272343391305E-16, 0.));
#71 = ORIENTED_EDGE('', *, *, #72, .F.);
#72 = EDGE_CURVE('', #8, #64, #73, .T.);
#73 = LINE('', #74, #75);
#74 = CARTESIAN_POINT('', (-7.9375, 5.34634868252767E-16, -0.793750000000003));
#75 = VECTOR('', #76, 51.59125);
#76 = DIRECTION('', (0., 3.15905295882554E-15, -51.59125));
#77 = ORIENTED_EDGE('', *, *, #25, .T.);
#78 = ORIENTED_EDGE('', *, *, #72, .T.);
#79 = (
   BOUNDED_SURFACE ()
   B_SPLINE_SURFACE (1, 2, ((#80, #81, #82, #83, #84, #85, #86, #87, #88), (#89, #90, #91, #92, #93, #94, #95, #96, #97)), .UNSPECIFIED., .F., .T., .U.)
   B_SPLINE_SURFACE_WITH_KNOTS ((2, 2), (3, 2, 2, 2, 3), (-0.0837074963896547, 1.), (0., 0.25, 0.5, 0.75, 1.), .UNSPECIFIED.)
   GEOMETRIC_REPRESENTATION_ITEM ()
   RATIONAL_B_SPLINE_SURFACE (((1., 0.707106781186548, 1., 0.707106781186548, 1., 0.707106781186548, 1., 0.707106781186548, 1.), (1., 0.707106781186548, 1., 0.707106781186548, 1., 0.707106781186548, 1., 0.707106781186548, 1.)))
   REPRESENTATION_ITEM ('')
   SURFACE ()
);
#80 = CARTESIAN_POINT('', (-7.93749999999999, 5.41961617660345E-15, -52.385));
#81 = CARTESIAN_POINT('', (-7.93749999999999, 7.9375, -52.385));
#82 = CARTESIAN_POINT('', (1.38425997359939E-14, 7.9375, -52.385));
#83 = CARTESIAN_POINT('', (7.93750000000001, 7.9375, -52.385));
#84 = CARTESIAN_POINT('', (7.93750000000001, 1.32560694827057E-15, -52.385));
#85 = CARTESIAN_POINT('', (7.93750000000001, -7.9375, -52.385));
#86 = CARTESIAN_POINT('', (1.07206539044843E-14, -7.9375, -52.385));
#87 = CARTESIAN_POINT('', (-7.93749999999999, -7.9375, -52.385));
#88 = CARTESIAN_POINT('', (-7.93749999999999, 5.41961617660345E-15, -52.385));
#89 = CARTESIAN_POINT('', (-7.9375, 5.34634868252767E-16, -0.793750000000003));
#90 = CARTESIAN_POINT('', (-7.9375, 7.9375, -0.793750000000002));
#91 = CARTESIAN_POINT('', (3.01844976071345E-15, 7.9375, -0.793750000000001));
#92 = CARTESIAN_POINT('', (7.9375, 7.9375, -0.793749999999999));
#93 = CARTESIAN_POINT('', (7.9375, -3.55937436008012E-15, -0.79375));
#94 = CARTESIAN_POINT('', (7.9375, -7.9375, -0.79375));
#95 = CARTESIAN_POINT('', (-1.0349607079622E-16, -7.9375, -0.793750000000002));
#96 = CARTESIAN_POINT('', (-7.9375, -7.9375, -0.793750000000004));
#97 = CARTESIAN_POINT('', (-7.9375, 5.34634868252767E-16, -0.793750000000003));
#98 = ADVANCED_FACE('', (#99), #102, .T.);
#99 = FACE_OUTER_BOUND('', #100, .T.);
#100 = EDGE_LOOP('', (#101));
#101 = ORIENTED_EDGE('', *, *, #63, .T.);
#102 = B_SPLINE_SURFACE_WITH_KNOTS('', 1, 1, ((#103, #104), (#105, #106)), .UNSPECIFIED., .F., .F., .U., (2, 2), (2, 2), (96.361068440893, 112.236068440893), (95.86575583559, 111.74075583559), .UNSPECIFIED.);
#103 = CARTESIAN_POINT('', (-7.9375, 7.9375, -52.385));
#104 = CARTESIAN_POINT('', (-7.9375, -7.9375, -52.385));
#105 = CARTESIAN_POINT('', (7.9375, 7.9375, -52.385));
#106 = CARTESIAN_POINT('', (7.9375, -7.9375, -52.385));
#107 = DRAUGHTING_MODEL('', (#115, #229, #276, #281, #286, #291, #296, #301), #315);
#108 = PRESENTATION_STYLE_ASSIGNMENT((#109));
#109 = SURFACE_STYLE_USAGE(.POSITIVE., #110);
#110 = SURFACE_SIDE_STYLE('', (#111));
#111 = SURFACE_STYLE_FILL_AREA(#112);
#112 = FILL_AREA_STYLE('', (#113));
#113 = FILL_AREA_STYLE_COLOUR('', #114);
#114 = COLOUR_RGB('', 0.50196078431373, 0.50196078431373, 0.50196078431373);
#115 = STYLED_ITEM('', (#108), #1);
#116 = MANIFOLD_SOLID_BREP('CUT', #117);
#117 = CLOSED_SHELL('', (#118, #135, #174, #213));
#118 = ADVANCED_FACE('', (#119), #130, .T.);
#119 = FACE_OUTER_BOUND('', #120, .T.);
#120 = EDGE_LOOP('', (#121));
#121 = ORIENTED_EDGE('', *, *, #122, .F.);
#122 = EDGE_CURVE('', #123, #123, #125, .T.);
#123 = VERTEX_POINT('', #124);
#124 = CARTESIAN_POINT('', (-7.9375, 3.69368782707831E-15, -52.385));
#125 = CIRCLE('', #126, 7.9375);
#126 = AXIS2_PLACEMENT_3D('', #127, #128, #129);
#127 = CARTESIAN_POINT('', (8.60422844084496E-16, 2.66453525910038E-15, -52.385));
#128 = DIRECTION('', (0., 0., -1.));
#129 = DIRECTION('', (-1., -1.15272343391305E-16, 0.));
#130 = B_SPLINE_SURFACE_WITH_KNOTS('', 1, 1, ((#131, #132), (#133, #134)), .UNSPECIFIED., .F., .F., .U., (2, 2), (2, 2), (95.86575583559, 111.74075583559), (96.361068440893, 112.236068440893), .UNSPECIFIED.);
#131 = CARTESIAN_POINT('', (-7.9375, 7.93749999999999, -52.385));
#132 = CARTESIAN_POINT('', (7.9375, 7.93749999999999, -52.385));
#133 = CARTESIAN_POINT('', (-7.9375, -7.93750000000001, -52.385));
#134 = CARTESIAN_POINT('', (7.9375, -7.93750000000001, -52.385));
#135 = ADVANCED_FACE('', (#136), #155, .T.);
#136 = FACE_OUTER_BOUND('', #137, .T.);
#137 = EDGE_LOOP('', (#138, #139, #147, #154));
#138 = ORIENTED_EDGE('', *, *, #122, .T.);
#139 = ORIENTED_EDGE('', *, *, #140, .T.);
#140 = EDGE_CURVE('', #123, #141, #143, .T.);
#141 = VERTEX_POINT('', #142);
#142 = CARTESIAN_POINT('', (-7.9375, 6.69793012240664E-15, -101.448));
#143 = LINE('', #144, #145);
#144 = CARTESIAN_POINT('', (-7.9375, 3.69368782707831E-15, -52.385));
#145 = VECTOR('', #146, 49.063);
#146 = DIRECTION('', (0., 3.00424229532833E-15, -49.063));
#147 = ORIENTED_EDGE('', *, *, #148, .F.);
#148 = EDGE_CURVE('', #141, #141, #149, .T.);
#149 = CIRCLE('', #150, 7.9375);
#150 = AXIS2_PLACEMENT_3D('', #151, #152, #153);
#151 = CARTESIAN_POINT('', (1.19348975147204E-15, 6.66133814775094E-15, -101.448));
#152 = DIRECTION('', (0., 0., -1.));
#153 = DIRECTION('', (-1., 4.61001255504889E-18, 0.));
#154 = ORIENTED_EDGE('', *, *, #140, .F.);
#155 = (
   BOUNDED_SURFACE ()
   B_SPLINE_SURFACE (1, 2, ((#156, #157, #158, #159, #160, #161, #162, #163, #164), (#165, #166, #167, #168, #169, #170, #171, #172, #173)), .UNSPECIFIED., .F., .T., .U.)
   B_SPLINE_SURFACE_WITH_KNOTS ((2, 2), (3, 2, 2, 2, 3), (-1.1143074701326, -0.0837074963896547), (0., 0.25, 0.5, 0.75, 1.), .UNSPECIFIED.)
   GEOMETRIC_REPRESENTATION_ITEM ()
   RATIONAL_B_SPLINE_SURFACE (((1., 0.707106781186548, 1., 0.707106781186548, 1., 0.707106781186548, 1., 0.707106781186548, 1.), (1., 0.707106781186548, 1., 0.707106781186548, 1., 0.707106781186548, 1., 0.707106781186548, 1.)))
   REPRESENTATION_ITEM ('')
   SURFACE ()
);
#156 = CARTESIAN_POINT('', (-7.93749999999996, 3.47164322215329E-15, -101.448));
#157 = CARTESIAN_POINT('', (-7.93749999999996, 7.9375, -101.448));
#158 = CARTESIAN_POINT('', (4.15763624160578E-14, 7.93750000000001, -101.448));
#159 = CARTESIAN_POINT('', (7.93750000000004, 7.93750000000001, -101.448));
#160 = CARTESIAN_POINT('', (7.93750000000005, 8.60265042092151E-15, -101.448));
#161 = CARTESIAN_POINT('', (7.93750000000005, -7.93749999999999, -101.448));
#162 = CARTESIAN_POINT('', (4.76794330116492E-14, -7.9375, -101.448));
#163 = CARTESIAN_POINT('', (-7.93749999999995, -7.9375, -101.448));
#164 = CARTESIAN_POINT('', (-7.93749999999996, 3.47164322215329E-15, -101.448));
#165 = CARTESIAN_POINT('', (-7.9375, 3.69368782707831E-15, -52.385));
#166 = CARTESIAN_POINT('', (-7.9375, 7.9375, -52.385));
#167 = CARTESIAN_POINT('', (-2.34345899445908E-15, 7.93750000000001, -52.385));
#168 = CARTESIAN_POINT('', (7.9375, 7.93750000000001, -52.385));
#169 = CARTESIAN_POINT('', (7.9375, 8.82469502584653E-15, -52.385));
#170 = CARTESIAN_POINT('', (7.9375, -7.93749999999999, -52.385));
#171 = CARTESIAN_POINT('', (3.75961160113235E-15, -7.93749999999999, -52.385));
#172 = CARTESIAN_POINT('', (-7.9375, -7.9375, -52.385));
#173 = CARTESIAN_POINT('', (-7.9375, 3.69368782707831E-15, -52.385));
#174 = ADVANCED_FACE('', (#175), #194, .T.);
#175 = FACE_OUTER_BOUND('', #176, .T.);
#176 = EDGE_LOOP('', (#177, #185, #186, #187));
#177 = ORIENTED_EDGE('', *, *, #178, .F.);
#178 = EDGE_CURVE('', #141, #179, #181, .T.);
#179 = VERTEX_POINT('', #180);
#180 = CARTESIAN_POINT('', (-7.7855, 6.69793012240664E-15, -101.6));
#181 = LINE('', #182, #183);
#182 = CARTESIAN_POINT('', (-7.9375, 6.69793012240664E-15, -101.448));
#183 = VECTOR('', #184, 0.214960461480711);
#184 = DIRECTION('', (0.152, 0., -0.152000000000001));
#185 = ORIENTED_EDGE('', *, *, #148, .T.);
#186 = ORIENTED_EDGE('', *, *, #178, .T.);
#187 = ORIENTED_EDGE('', *, *, #188, .F.);
#188 = EDGE_CURVE('', #179, #179, #189, .T.);
#189 = CIRCLE('', #190, 7.7855);
#190 = AXIS2_PLACEMENT_3D('', #191, #192, #193);
#191 = CARTESIAN_POINT('', (2.77555756156289E-16, 4.44089209850063E-15, -101.6));
#192 = DIRECTION('', (0., 0., -1.));
#193 = DIRECTION('', (-1., 2.89902771036673E-16, 0.));
#194 = (
   BOUNDED_SURFACE ()
   B_SPLINE_SURFACE (2, 1, ((#195, #196), (#197, #198), (#199, #200), (#201, #202), (#203, #204), (#205, #206), (#207, #208), (#209, #210), (#211, #212)), .UNSPECIFIED., .T., .F., .U.)
   B_SPLINE_SURFACE_WITH_KNOTS ((3, 2, 2, 2, 3), (2, 2), (0., 0.25, 0.5, 0.75, 1.), (0., 1.), .UNSPECIFIED.)
   GEOMETRIC_REPRESENTATION_ITEM ()
   RATIONAL_B_SPLINE_SURFACE (((1., 1.), (0.707106781186548, 0.707106781186548), (1., 1.), (0.707106781186548, 0.707106781186548), (1., 1.), (0.707106781186548, 0.707106781186548), (1., 1.), (0.707106781186548, 0.707106781186548), (1., 1.)))
   REPRESENTATION_ITEM ('')
   SURFACE ()
);
#195 = CARTESIAN_POINT('', (-7.9375, 6.69793012240664E-15, -101.448));
#196 = CARTESIAN_POINT('', (-7.7855, 8.02524496328328E-15, -101.6));
#197 = CARTESIAN_POINT('', (-7.9375, 7.93750000000001, -101.448));
#198 = CARTESIAN_POINT('', (-7.7855, 7.78550000000001, -101.6));
#199 = CARTESIAN_POINT('', (-3.3841742129339E-16, 7.93750000000001, -101.448));
#200 = CARTESIAN_POINT('', (-3.34062894293416E-16, 7.78550000000001, -101.6));
#201 = CARTESIAN_POINT('', (7.9375, 7.93750000000001, -101.448));
#202 = CARTESIAN_POINT('', (7.7855, 7.78550000000001, -101.6));
#203 = CARTESIAN_POINT('', (7.9375, 7.15272036006839E-15, -101.448));
#204 = CARTESIAN_POINT('', (7.7855, 8.47132614694508E-15, -101.6));
#205 = CARTESIAN_POINT('', (7.9375, -7.93749999999999, -101.448));
#206 = CARTESIAN_POINT('', (7.7855, -7.78549999999999, -101.6));
#207 = CARTESIAN_POINT('', (1.08843621319157E-15, -7.93749999999999, -101.448));
#208 = CARTESIAN_POINT('', (1.06546705484456E-15, -7.78549999999999, -101.6));
#209 = CARTESIAN_POINT('', (-7.9375, -7.93749999999999, -101.448));
#210 = CARTESIAN_POINT('', (-7.7855, -7.78549999999999, -101.6));
#211 = CARTESIAN_POINT('', (-7.9375, 6.69793012240664E-15, -101.448));
#212 = CARTESIAN_POINT('', (-7.7855, 8.02524496328328E-15, -101.6));
#213 = ADVANCED_FACE('', (#214), #217, .T.);
#214 = FACE_OUTER_BOUND('', #215, .T.);
#215 = EDGE_LOOP('', (#216));
#216 = ORIENTED_EDGE('', *, *, #188, .T.);
#217 = B_SPLINE_SURFACE_WITH_KNOTS('', 1, 1, ((#218, #219), (#220, #221)), .UNSPECIFIED., .F., .F., .U., (2, 2), (2, 2), (4.3258956588413, 19.8968956588413), (4.32589565884131, 19.8968956588413), .UNSPECIFIED.);
#218 = CARTESIAN_POINT('', (7.7855, -7.78549999999999, -101.6));
#219 = CARTESIAN_POINT('', (7.7855, 7.78550000000001, -101.6));
#220 = CARTESIAN_POINT('', (-7.7855, -7.78549999999999, -101.6));
#221 = CARTESIAN_POINT('', (-7.7855, 7.78550000000001, -101.6));
#222 = PRESENTATION_STYLE_ASSIGNMENT((#223));
#223 = SURFACE_STYLE_USAGE(.POSITIVE., #224);
#224 = SURFACE_SIDE_STYLE('', (#225));
#225 = SURFACE_STYLE_FILL_AREA(#226);
#226 = FILL_AREA_STYLE('', (#227));
#227 = FILL_AREA_STYLE_COLOUR('', #228);
#228 = COLOUR_RGB('', 0.8, 0.8, 0.8);
#229 = STYLED_ITEM('', (#222), #116);
#230 = TRIMMED_CURVE('cutting part line', #231, (#235), (#236), .T., .CARTESIAN.);
#231 = LINE('', #232, #233);
#232 = CARTESIAN_POINT('', (-5.8923687161056E-31, -3.2076561286667E-15, -52.385));
#233 = VECTOR('', #234, 7.9375);
#234 = DIRECTION('', (7.9375, -1.45809509523482E-15, 0.));
#235 = CARTESIAN_POINT('', (-5.8923687161056E-31, -3.2076561286667E-15, -52.385));
#236 = CARTESIAN_POINT('', (7.9375, -4.66575122390152E-15, -52.385));
#237 = TRIMMED_CURVE('cutting part line', #238, (#242), (#243), .T., .CARTESIAN.);
#238 = LINE('', #239, #240);
#239 = CARTESIAN_POINT('', (7.9375, -4.66575122390152E-15, -52.385));
#240 = VECTOR('', #241, 49.063);
#241 = DIRECTION('', (0., -3.00424229532833E-15, -49.063));
#242 = CARTESIAN_POINT('', (7.9375, -4.66575122390152E-15, -52.385));
#243 = CARTESIAN_POINT('', (7.9375, -7.66999351922985E-15, -101.448));
#244 = TRIMMED_CURVE('cutting part line', #245, (#249), (#250), .T., .CARTESIAN.);
#245 = LINE('', #246, #247);
#246 = CARTESIAN_POINT('', (7.9375, -7.66999351922985E-15, -101.448));
#247 = VECTOR('', #248, 0.214960461480711);
#248 = DIRECTION('', (-0.152, 1.86146313470396E-17, -0.152000000000001));
#249 = CARTESIAN_POINT('', (7.9375, -7.66999351922985E-15, -101.448));
#250 = CARTESIAN_POINT('', (7.7855, -7.65137888788281E-15, -101.6));
#251 = TRIMMED_CURVE('cutting part line', #252, (#256), (#257), .T., .CARTESIAN.);
#252 = LINE('', #253, #254);
#253 = CARTESIAN_POINT('', (7.7855, -7.65137888788281E-15, -101.6));
#254 = VECTOR('', #255, 7.7855);
#255 = DIRECTION('', (-7.7855, 1.43017314821426E-15, 0.));
#256 = CARTESIAN_POINT('', (7.7855, -7.65137888788281E-15, -101.6));
#257 = CARTESIAN_POINT('', (-7.61877969592223E-31, -6.22120573966855E-15, -101.6));
#258 = TRIMMED_CURVE('cutting part line', #259, (#263), (#264), .T., .CARTESIAN.);
#259 = LINE('', #260, #261);
#260 = CARTESIAN_POINT('', (-1.14281695438834E-30, -6.22120573966855E-15, -101.6));
#261 = VECTOR('', #262, 49.215);
#262 = DIRECTION('', (5.53580082777775E-31, 3.01354961100185E-15, 49.215));
#263 = CARTESIAN_POINT('', (-1.14281695438834E-30, -6.22120573966855E-15, -101.6));
#264 = CARTESIAN_POINT('', (-5.8923687161056E-31, -3.2076561286667E-15, -52.385));
#265 = COMPOSITE_CURVE('cutting part line', (#266, #267, #268, #269, #270), .U.);
#266 = COMPOSITE_CURVE_SEGMENT(.CONTINUOUS., .T., #230);
#267 = COMPOSITE_CURVE_SEGMENT(.CONTINUOUS., .T., #237);
#268 = COMPOSITE_CURVE_SEGMENT(.CONTINUOUS., .T., #244);
#269 = COMPOSITE_CURVE_SEGMENT(.CONTINUOUS., .T., #251);
#270 = COMPOSITE_CURVE_SEGMENT(.CONTINUOUS., .T., #258);
#271 = GEOMETRIC_SET('', (#265, #314));
#272 = PRESENTATION_STYLE_ASSIGNMENT((#273));
#273 = CURVE_STYLE('', #275, POSITIVE_LENGTH_MEASURE(1.E-6), #274);
#274 = COLOUR_RGB('', 0., 0., 1.);
#275 = DRAUGHTING_PRE_DEFINED_CURVE_FONT('continuous');
#276 = STYLED_ITEM('', (#272), #265);
#277 = PRESENTATION_STYLE_ASSIGNMENT((#278));
#278 = CURVE_STYLE('', #280, POSITIVE_LENGTH_MEASURE(1.E-6), #279);
#279 = COLOUR_RGB('', 0., 0., 1.);
#280 = DRAUGHTING_PRE_DEFINED_CURVE_FONT('continuous');
#281 = OVER_RIDING_STYLED_ITEM('', (#277), #230, #276);
#282 = PRESENTATION_STYLE_ASSIGNMENT((#283));
#283 = CURVE_STYLE('', #285, POSITIVE_LENGTH_MEASURE(1.E-6), #284);
#284 = COLOUR_RGB('', 0., 0., 1.);
#285 = DRAUGHTING_PRE_DEFINED_CURVE_FONT('continuous');
#286 = OVER_RIDING_STYLED_ITEM('', (#282), #237, #276);
#287 = PRESENTATION_STYLE_ASSIGNMENT((#288));
#288 = CURVE_STYLE('', #290, POSITIVE_LENGTH_MEASURE(1.E-6), #289);
#289 = COLOUR_RGB('', 0., 0., 1.);
#290 = DRAUGHTING_PRE_DEFINED_CURVE_FONT('continuous');
#291 = OVER_RIDING_STYLED_ITEM('', (#287), #244, #276);
#292 = PRESENTATION_STYLE_ASSIGNMENT((#293));
#293 = CURVE_STYLE('', #295, POSITIVE_LENGTH_MEASURE(1.E-6), #294);
#294 = COLOUR_RGB('', 0., 0., 1.);
#295 = DRAUGHTING_PRE_DEFINED_CURVE_FONT('continuous');
#296 = OVER_RIDING_STYLED_ITEM('', (#292), #251, #276);
#297 = PRESENTATION_STYLE_ASSIGNMENT((#298));
#298 = CURVE_STYLE('', #300, POSITIVE_LENGTH_MEASURE(1.E-6), #299);
#299 = COLOUR_RGB('', 0., 0., 1.);
#300 = DRAUGHTING_PRE_DEFINED_CURVE_FONT('continuous');
#301 = OVER_RIDING_STYLED_ITEM('', (#297), #258, #276);
#302 = AXIS2_PLACEMENT_3D('CIP', #303, #304, #305);
#303 = CARTESIAN_POINT('', (3.80938984796112E-31, 6.22120573966855E-15, -101.6));
#304 = DIRECTION('', (-3.74939945665465E-33, -6.12323399573677E-17, 1.));
#305 = DIRECTION('', (1., -6.12323399573677E-17, 0.));
#306 = AXIS2_PLACEMENT_3D('MCS', #307, #308, #309);
#307 = CARTESIAN_POINT('', (1.81470933702085E-31, 2.96364525393659E-15, -48.4));
#308 = DIRECTION('', (-3.74939945665465E-33, -6.12323399573677E-17, 1.));
#309 = DIRECTION('', (1., -6.12323399573677E-17, 0.));
#310 = AXIS2_PLACEMENT_3D('PCS', #311, #312, #313);
#311 = CARTESIAN_POINT('', (0., 0., 0.));
#312 = DIRECTION('', (0., 0., 1.));
#313 = DIRECTION('', (1., 0., 0.));
#314 = CARTESIAN_POINT('CRP', (7.9375, 0., -101.6));
#315 = (
   GEOMETRIC_REPRESENTATION_CONTEXT (3)
   GLOBAL_UNCERTAINTY_ASSIGNED_CONTEXT ((#317))
   GLOBAL_UNIT_ASSIGNED_CONTEXT ((#316, #318, #319))
   REPRESENTATION_CONTEXT ('', '3D')
);
#316 = (
   LENGTH_UNIT ()
   NAMED_UNIT (*)
   SI_UNIT (.MILLI., .METRE.)
);
#317 = UNCERTAINTY_MEASURE_WITH_UNIT(LENGTH_MEASURE(1.E-6), #316, 'DISTANCE_ACCURACY_VALUE', '');
#318 = (
   NAMED_UNIT (*)
   SI_UNIT ($, .STERADIAN.)
   SOLID_ANGLE_UNIT ()
);
#319 = (
   NAMED_UNIT (*)
   PLANE_ANGLE_UNIT ()
   SI_UNIT ($, .RADIAN.)
);
#320 = SHAPE_REPRESENTATION('', (), #315);
#321 = PRODUCT_DEFINITION_SHAPE('', '', #322);
#322 = PRODUCT_DEFINITION('', '', #325, #329);
#323 = APPLICATION_CONTEXT('configuration controlled 3D designs of mechanical parts and assemblies');
#324 = APPLICATION_PROTOCOL_DEFINITION('International Standard', 'automotive_design', 2002, #323);
#325 = PRODUCT_DEFINITION_FORMATION_WITH_SPECIFIED_SOURCE('', '', #326, .NOT_KNOWN.);
#326 = PRODUCT('NONE', '1P260-1588-XA       1620', '', (#327));
#327 = PRODUCT_CONTEXT('', #323, 'mechanical');
#328 = PRODUCT_RELATED_PRODUCT_CATEGORY('detail', '', (#326));
#329 = PRODUCT_DEFINITION_CONTEXT('part definition', #323, 'design');
#330 = SHAPE_DEFINITION_REPRESENTATION(#321, #320);
#331 = CONSTRUCTIVE_GEOMETRY_REPRESENTATION('supplemental geometry', (#302, #306, #310), #315);
#332 = CONSTRUCTIVE_GEOMETRY_REPRESENTATION_RELATIONSHIP('', '', #320, #331);
#333 = SHAPE_REPRESENTATION_RELATIONSHIP('', '', #320, #334);
#334 = SHAPE_REPRESENTATION('', (#271), #315);
#335 = SHAPE_REPRESENTATION_RELATIONSHIP('', '', #320, #336);
#336 = ADVANCED_BREP_SHAPE_REPRESENTATION('', (#1, #116), #315);
ENDSEC;
END-ISO-10303-21;
