ISO-10303-21;
HEADER;
FILE_DESCRIPTION(('STEP'), '1');
FILE_NAME('C:\\Users\\ds2002\\OneDrive - Sandvik\\HomeShare\\Documents\\Batchrepair\\CorSRT2\\NEW_MILSQ_SLD\\Output\\MOD000000000000000020082337000000.stp', '2019-01-02T12:06:24', (''), (''), 'Express v3.0.0.0', 'Express Tool', 'Unknown');
FILE_SCHEMA(('AUTOMOTIVE_DESIGN'));
ENDSEC;

DATA;
#1 = MANIFOLD_SOLID_BREP('NOCUT', #2);
#2 = CLOSED_SHELL('', (#3, #50, #59, #98));
#3 = ADVANCED_FACE('', (#4), #31, .T.);
#4 = FACE_OUTER_BOUND('', #5, .T.);
#5 = EDGE_LOOP('', (#6, #16, #23, #24));
#6 = ORIENTED_EDGE('', *, *, #7, .T.);
#7 = EDGE_CURVE('', #8, #10, #12, .T.);
#8 = VERTEX_POINT('', #9);
#9 = CARTESIAN_POINT('', (-7.9375, 5.34634868252767E-16, -0.793750000000003));
#10 = VERTEX_POINT('', #11);
#11 = CARTESIAN_POINT('', (-7.14375, 4.37428528570445E-16, 0.));
#12 = LINE('', #13, #14);
#13 = CARTESIAN_POINT('', (-7.9375, 5.34634868252767E-16, -0.793750000000003));
#14 = VECTOR('', #15, 1.12253201513365);
#15 = DIRECTION('', (0.79375, -9.72063396823219E-17, 0.793750000000003));
#16 = ORIENTED_EDGE('', *, *, #17, .T.);
#17 = EDGE_CURVE('', #10, #10, #18, .T.);
#18 = CIRCLE('', #19, 7.14375);
#19 = AXIS2_PLACEMENT_3D('', #20, #21, #22);
#20 = CARTESIAN_POINT('', (4.16333634234434E-16, 2.44249065417534E-15, 1.4791141972894E-31));
#21 = DIRECTION('', (3.51870852399057E-33, 6.12323399573676E-17, -1.));
#22 = DIRECTION('', (-1., -5.25602973212484E-16, -3.57026084623406E-32));
#23 = ORIENTED_EDGE('', *, *, #7, .F.);
#24 = ORIENTED_EDGE('', *, *, #25, .F.);
#25 = EDGE_CURVE('', #8, #8, #26, .T.);
#26 = CIRCLE('', #27, 7.9375);
#27 = AXIS2_PLACEMENT_3D('', #28, #29, #30);
#28 = CARTESIAN_POINT('', (1.11022302462516E-15, 2.22044604925031E-16, -0.793750000000003));
#29 = DIRECTION('', (1.3987061727561E-17, -4.55043397165478E-17, -1.));
#30 = DIRECTION('', (-1., 3.93814504979824E-17, -1.3987061727561E-17));
#31 = (
   BOUNDED_SURFACE ()
   B_SPLINE_SURFACE (1, 2, ((#32, #33, #34, #35, #36, #37, #38, #39, #40), (#41, #42, #43, #44, #45, #46, #47, #48, #49)), .UNSPECIFIED., .F., .T., .U.)
   B_SPLINE_SURFACE_WITH_KNOTS ((2, 2), (3, 2, 2, 2, 3), (0., 1.), (0., 0.25, 0.5, 0.75, 1.), .UNSPECIFIED.)
   GEOMETRIC_REPRESENTATION_ITEM ()
   RATIONAL_B_SPLINE_SURFACE (((1., 0.707106781186548, 1., 0.707106781186548, 1., 0.707106781186548, 1., 0.707106781186548, 1.), (1., 0.707106781186548, 1., 0.707106781186548, 1., 0.707106781186548, 1., 0.707106781186548, 1.)))
   REPRESENTATION_ITEM ('')
   SURFACE ()
);
#32 = CARTESIAN_POINT('', (-7.9375, 4.61360075642158E-16, -0.793750000000003));
#33 = CARTESIAN_POINT('', (-7.9375, 7.9375, -0.793750000000005));
#34 = CARTESIAN_POINT('', (2.11250769963398E-15, 7.9375, -0.793750000000005));
#35 = CARTESIAN_POINT('', (7.9375, 7.9375, -0.793750000000005));
#36 = CARTESIAN_POINT('', (7.9375, -3.48609956746951E-15, -0.793750000000003));
#37 = CARTESIAN_POINT('', (7.9375, -7.9375, -0.793750000000001));
#38 = CARTESIAN_POINT('', (-8.62888546654478E-16, -7.9375, -0.793750000000001));
#39 = CARTESIAN_POINT('', (-7.9375, -7.9375, -0.793750000000001));
#40 = CARTESIAN_POINT('', (-7.9375, 4.61360075642158E-16, -0.793750000000003));
#41 = CARTESIAN_POINT('', (-7.14375, 4.37428528570445E-16, 0.));
#42 = CARTESIAN_POINT('', (-7.14375, 7.14375, -1.99840144432527E-15));
#43 = CARTESIAN_POINT('', (1.9151347174784E-15, 7.14375, -1.99840144432527E-15));
#44 = CARTESIAN_POINT('', (7.14375, 7.14375, -1.99840144432527E-15));
#45 = CARTESIAN_POINT('', (7.14375, -3.11528515023006E-15, -4.41948819525692E-31));
#46 = CARTESIAN_POINT('', (7.14375, -7.14375, 1.99840144432527E-15));
#47 = CARTESIAN_POINT('', (-7.62721904181216E-16, -7.14375, 1.99840144432527E-15));
#48 = CARTESIAN_POINT('', (-7.14375, -7.14375, 1.99840144432527E-15));
#49 = CARTESIAN_POINT('', (-7.14375, 4.37428528570445E-16, 0.));
#50 = ADVANCED_FACE('', (#51), #54, .T.);
#51 = FACE_OUTER_BOUND('', #52, .T.);
#52 = EDGE_LOOP('', (#53));
#53 = ORIENTED_EDGE('', *, *, #17, .F.);
#54 = B_SPLINE_SURFACE_WITH_KNOTS('', 1, 1, ((#55, #56), (#57, #58)), .UNSPECIFIED., .F., .F., .U., (2, 2), (2, 2), (3.9693169498231, 18.2568169498231), (3.9693169498231, 18.2568169498231), .UNSPECIFIED.);
#55 = CARTESIAN_POINT('', (7.14375, -7.14375, -4.37428528570422E-16));
#56 = CARTESIAN_POINT('', (-7.14375, -7.14375, 1.37734261866316E-14));
#57 = CARTESIAN_POINT('', (7.14375, 7.14375, 4.37428528570467E-16));
#58 = CARTESIAN_POINT('', (-7.14375, 7.14375, 1.46482832437725E-14));
#59 = ADVANCED_FACE('', (#60), #79, .T.);
#60 = FACE_OUTER_BOUND('', #61, .T.);
#61 = EDGE_LOOP('', (#62, #71, #77, #78));
#62 = ORIENTED_EDGE('', *, *, #63, .F.);
#63 = EDGE_CURVE('', #64, #64, #66, .T.);
#64 = VERTEX_POINT('', #65);
#65 = CARTESIAN_POINT('', (-7.9375, 3.88442656604551E-15, -55.5));
#66 = CIRCLE('', #67, 7.9375);
#67 = AXIS2_PLACEMENT_3D('', #68, #69, #70);
#68 = CARTESIAN_POINT('', (8.32667268468867E-17, 3.10862446895044E-15, -55.5));
#69 = DIRECTION('', (2.97785974549608E-31, 3.04675146127873E-15, -1.));
#70 = DIRECTION('', (-1., 9.77388468781193E-17, 0.));
#71 = ORIENTED_EDGE('', *, *, #72, .T.);
#72 = EDGE_CURVE('', #64, #8, #73, .T.);
#73 = LINE('', #74, #75);
#74 = CARTESIAN_POINT('', (-7.9375, 3.88442656604551E-15, -55.5));
#75 = VECTOR('', #76, 54.70625);
#76 = DIRECTION('', (0., -3.34979169779274E-15, 54.70625));
#77 = ORIENTED_EDGE('', *, *, #25, .T.);
#78 = ORIENTED_EDGE('', *, *, #72, .F.);
#79 = (
   BOUNDED_SURFACE ()
   B_SPLINE_SURFACE (1, 2, ((#80, #81, #82, #83, #84, #85, #86, #87, #88), (#89, #90, #91, #92, #93, #94, #95, #96, #97)), .UNSPECIFIED., .F., .T., .U.)
   B_SPLINE_SURFACE_WITH_KNOTS ((2, 2), (3, 2, 2, 2, 3), (0.0806637958197667, 1.), (0., 0.25, 0.5, 0.75, 1.), .UNSPECIFIED.)
   GEOMETRIC_REPRESENTATION_ITEM ()
   RATIONAL_B_SPLINE_SURFACE (((1., 0.707106781186548, 1., 0.707106781186548, 1., 0.707106781186548, 1., 0.707106781186548, 1.), (1., 0.707106781186548, 1., 0.707106781186548, 1., 0.707106781186548, 1., 0.707106781186548, 1.)))
   REPRESENTATION_ITEM ('')
   SURFACE ()
);
#80 = CARTESIAN_POINT('', (-7.9375, 5.41961617660346E-15, -55.5));
#81 = CARTESIAN_POINT('', (-7.9375, 7.9375, -55.5));
#82 = CARTESIAN_POINT('', (3.75587388073121E-15, 7.9375, -55.5));
#83 = CARTESIAN_POINT('', (7.9375, 7.9375, -55.5));
#84 = CARTESIAN_POINT('', (7.9375, 1.32560694827057E-15, -55.5));
#85 = CARTESIAN_POINT('', (7.9375, -7.9375, -55.5));
#86 = CARTESIAN_POINT('', (6.33928049221539E-16, -7.9375, -55.5));
#87 = CARTESIAN_POINT('', (-7.9375, -7.9375, -55.5));
#88 = CARTESIAN_POINT('', (-7.9375, 5.41961617660346E-15, -55.5));
#89 = CARTESIAN_POINT('', (-7.9375, 5.34634868252767E-16, -0.793750000000003));
#90 = CARTESIAN_POINT('', (-7.9375, 7.9375, -0.793750000000002));
#91 = CARTESIAN_POINT('', (2.99069418509783E-15, 7.9375, -0.793750000000002));
#92 = CARTESIAN_POINT('', (7.9375, 7.9375, -0.793750000000002));
#93 = CARTESIAN_POINT('', (7.9375, -3.55937436008012E-15, -0.793750000000003));
#94 = CARTESIAN_POINT('', (7.9375, -7.9375, -0.793750000000003));
#95 = CARTESIAN_POINT('', (-1.31251646411848E-16, -7.9375, -0.793750000000004));
#96 = CARTESIAN_POINT('', (-7.9375, -7.9375, -0.793750000000004));
#97 = CARTESIAN_POINT('', (-7.9375, 5.34634868252767E-16, -0.793750000000003));
#98 = ADVANCED_FACE('', (#99), #102, .T.);
#99 = FACE_OUTER_BOUND('', #100, .T.);
#100 = EDGE_LOOP('', (#101));
#101 = ORIENTED_EDGE('', *, *, #63, .T.);
#102 = B_SPLINE_SURFACE_WITH_KNOTS('', 1, 1, ((#103, #104), (#105, #106)), .UNSPECIFIED., .F., .F., .U., (2, 2), (2, 2), (85.7267296039779, 101.601729603978), (81.7803002157408, 97.6553002157408), .UNSPECIFIED.);
#103 = CARTESIAN_POINT('', (-7.9375, 7.9375, -55.5));
#104 = CARTESIAN_POINT('', (-7.9375, -7.9375, -55.5));
#105 = CARTESIAN_POINT('', (7.9375, 7.9375, -55.5));
#106 = CARTESIAN_POINT('', (7.9375, -7.9375, -55.5));
#107 = DRAUGHTING_MODEL('', (#115, #239, #295, #300, #305, #310, #315, #320, #325), #339);
#108 = PRESENTATION_STYLE_ASSIGNMENT((#109));
#109 = SURFACE_STYLE_USAGE(.POSITIVE., #110);
#110 = SURFACE_SIDE_STYLE('', (#111));
#111 = SURFACE_STYLE_FILL_AREA(#112);
#112 = FILL_AREA_STYLE('', (#113));
#113 = FILL_AREA_STYLE_COLOUR('', #114);
#114 = COLOUR_RGB('', 0.50196078431373, 0.50196078431373, 0.50196078431373);
#115 = STYLED_ITEM('', (#108), #1);
#116 = MANIFOLD_SOLID_BREP('CUT', #117);
#117 = CLOSED_SHELL('', (#118, #135, #174, #223));
#118 = ADVANCED_FACE('', (#119), #130, .T.);
#119 = FACE_OUTER_BOUND('', #120, .T.);
#120 = EDGE_LOOP('', (#121));
#121 = ORIENTED_EDGE('', *, *, #122, .F.);
#122 = EDGE_CURVE('', #123, #123, #125, .T.);
#123 = VERTEX_POINT('', #124);
#124 = CARTESIAN_POINT('', (-7.9375, 3.88442656604551E-15, -55.5));
#125 = CIRCLE('', #126, 7.9375);
#126 = AXIS2_PLACEMENT_3D('', #127, #128, #129);
#127 = CARTESIAN_POINT('', (8.32667268468867E-17, 3.10862446895044E-15, -55.5));
#128 = DIRECTION('', (2.97785974549608E-31, 3.04675146127873E-15, -1.));
#129 = DIRECTION('', (-1., 9.77388468781193E-17, 0.));
#130 = B_SPLINE_SURFACE_WITH_KNOTS('', 1, 1, ((#131, #132), (#133, #134)), .UNSPECIFIED., .F., .F., .U., (2, 2), (2, 2), (81.7803002157408, 97.6553002157408), (85.7267296039779, 101.601729603978), .UNSPECIFIED.);
#131 = CARTESIAN_POINT('', (-7.9375, 7.9375, -55.5));
#132 = CARTESIAN_POINT('', (7.9375, 7.93749999999999, -55.5));
#133 = CARTESIAN_POINT('', (-7.9375, -7.9375, -55.5));
#134 = CARTESIAN_POINT('', (7.9375, -7.93750000000001, -55.5));
#135 = ADVANCED_FACE('', (#136), #155, .T.);
#136 = FACE_OUTER_BOUND('', #137, .T.);
#137 = EDGE_LOOP('', (#138, #139, #147, #154));
#138 = ORIENTED_EDGE('', *, *, #122, .T.);
#139 = ORIENTED_EDGE('', *, *, #140, .F.);
#140 = EDGE_CURVE('', #141, #123, #143, .T.);
#141 = VERTEX_POINT('', #142);
#142 = CARTESIAN_POINT('', (-7.9375, 5.83626863452656E-15, -87.376));
#143 = LINE('', #144, #145);
#144 = CARTESIAN_POINT('', (-7.9375, 5.83626863452656E-15, -87.376));
#145 = VECTOR('', #146, 31.876);
#146 = DIRECTION('', (0., -1.95184206848105E-15, 31.876));
#147 = ORIENTED_EDGE('', *, *, #148, .F.);
#148 = EDGE_CURVE('', #141, #141, #149, .T.);
#149 = CIRCLE('', #150, 7.9375);
#150 = AXIS2_PLACEMENT_3D('', #151, #152, #153);
#151 = CARTESIAN_POINT('', (1.58206781009085E-15, 3.33066907387547E-15, -87.376));
#152 = DIRECTION('', (0., 0., -1.));
#153 = DIRECTION('', (-1., 3.1566608638124E-16, 0.));
#154 = ORIENTED_EDGE('', *, *, #140, .T.);
#155 = (
   BOUNDED_SURFACE ()
   B_SPLINE_SURFACE (1, 2, ((#156, #157, #158, #159, #160, #161, #162, #163, #164), (#165, #166, #167, #168, #169, #170, #171, #172, #173)), .UNSPECIFIED., .F., .T., .U.)
   B_SPLINE_SURFACE_WITH_KNOTS ((2, 2), (3, 2, 2, 2, 3), (-0.455011028253335, 0.0806637958197668), (0., 0.25, 0.5, 0.75, 1.), .UNSPECIFIED.)
   GEOMETRIC_REPRESENTATION_ITEM ()
   RATIONAL_B_SPLINE_SURFACE (((1., 0.707106781186548, 1., 0.707106781186548, 1., 0.707106781186548, 1., 0.707106781186548, 1.), (1., 0.707106781186548, 1., 0.707106781186548, 1., 0.707106781186548, 1., 0.707106781186548, 1.)))
   REPRESENTATION_ITEM ('')
   SURFACE ()
);
#156 = CARTESIAN_POINT('', (-7.9375, 5.66078340544576E-15, -87.376));
#157 = CARTESIAN_POINT('', (-7.9375, 7.9375, -87.376));
#158 = CARTESIAN_POINT('', (1.0946820915367E-15, 7.9375, -87.376));
#159 = CARTESIAN_POINT('', (7.9375, 7.9375, -87.376));
#160 = CARTESIAN_POINT('', (7.9375, 4.63715339822877E-15, -87.376));
#161 = CARTESIAN_POINT('', (7.9375, -7.93749999999999, -87.376));
#162 = CARTESIAN_POINT('', (1.04311548114292E-15, -7.93749999999999, -87.376));
#163 = CARTESIAN_POINT('', (-7.9375, -7.93749999999999, -87.376));
#164 = CARTESIAN_POINT('', (-7.9375, 5.66078340544576E-15, -87.376));
#165 = CARTESIAN_POINT('', (-7.9375, 3.88442656604551E-15, -55.5));
#166 = CARTESIAN_POINT('', (-7.9375, 7.9375, -55.5));
#167 = CARTESIAN_POINT('', (1.0946820915367E-15, 7.9375, -55.5));
#168 = CARTESIAN_POINT('', (7.9375, 7.9375, -55.5));
#169 = CARTESIAN_POINT('', (7.9375, 2.86079655882852E-15, -55.5));
#170 = CARTESIAN_POINT('', (7.9375, -7.93749999999999, -55.5));
#171 = CARTESIAN_POINT('', (1.04311548114292E-15, -7.9375, -55.5));
#172 = CARTESIAN_POINT('', (-7.9375, -7.9375, -55.5));
#173 = CARTESIAN_POINT('', (-7.9375, 3.88442656604551E-15, -55.5));
#174 = ADVANCED_FACE('', (#175), #195, .T.);
#175 = FACE_OUTER_BOUND('', #176, .T.);
#176 = EDGE_LOOP('', (#177, #186, #187, #188));
#177 = ORIENTED_EDGE('', *, *, #178, .F.);
#178 = EDGE_CURVE('', #141, #179, #181, .T.);
#179 = VERTEX_POINT('', #180);
#180 = CARTESIAN_POINT('', (-6.4135, 5.83626863452656E-15, -88.9));
#181 = CIRCLE('', #182, 1.52400000000001);
#182 = AXIS2_PLACEMENT_3D('', #183, #184, #185);
#183 = CARTESIAN_POINT('', (-6.41349999999999, 5.74295054843153E-15, -87.376));
#184 = DIRECTION('', (-6.12323399573694E-17, -1., -6.12323399573693E-17));
#185 = DIRECTION('', (-1., 6.12323399573694E-17, 0.));
#186 = ORIENTED_EDGE('', *, *, #148, .T.);
#187 = ORIENTED_EDGE('', *, *, #178, .T.);
#188 = ORIENTED_EDGE('', *, *, #189, .F.);
#189 = EDGE_CURVE('', #179, #179, #190, .T.);
#190 = CIRCLE('', #191, 6.4135);
#191 = AXIS2_PLACEMENT_3D('', #192, #193, #194);
#192 = CARTESIAN_POINT('', (1.19348975147204E-15, 4.88498130835069E-15, -88.9));
#193 = DIRECTION('', (0., 0., -1.));
#194 = DIRECTION('', (-1., 1.48325770043794E-16, 0.));
#195 = (
   BOUNDED_SURFACE ()
   B_SPLINE_SURFACE (2, 2, ((#196, #197, #198), (#199, #200, #201), (#202, #203, #204), (#205, #206, #207), (#208, #209, #210), (#211, #212, #213), (#214, #215, #216), (#217, #218, #219), (#220, #221, #222)), .UNSPECIFIED., .T., .F., .U.)
   B_SPLINE_SURFACE_WITH_KNOTS ((3, 2, 2, 2, 3), (3, 3), (0., 0.25, 0.5, 0.75, 1.), (0., 1.), .UNSPECIFIED.)
   GEOMETRIC_REPRESENTATION_ITEM ()
   RATIONAL_B_SPLINE_SURFACE (((1., 0.707106781186548, 1.), (0.707106781186548, 0.5, 0.707106781186548), (1., 0.707106781186548, 1.), (0.707106781186548, 0.5, 0.707106781186548), (1., 0.707106781186548, 1.), (0.707106781186548, 0.5, 0.707106781186548), (1., 0.707106781186548, 1.), (0.707106781186548, 0.5, 0.707106781186548), (1., 0.707106781186548, 1.)))
   REPRESENTATION_ITEM ('')
   SURFACE ()
);
#196 = CARTESIAN_POINT('', (-7.9375, 5.83626863452656E-15, -87.376));
#197 = CARTESIAN_POINT('', (-7.9375, 5.92958672062159E-15, -88.9));
#198 = CARTESIAN_POINT('', (-6.4135, 5.83626863452656E-15, -88.9));
#199 = CARTESIAN_POINT('', (-7.9375, 7.93750000000001, -87.376));
#200 = CARTESIAN_POINT('', (-7.9375, 7.93750000000001, -88.9));
#201 = CARTESIAN_POINT('', (-6.4135, 6.41350000000001, -88.9));
#202 = CARTESIAN_POINT('', (3.51836894548345E-15, 7.9375, -87.376));
#203 = CARTESIAN_POINT('', (3.61168703157848E-15, 7.9375, -88.9));
#204 = CARTESIAN_POINT('', (3.61168703157847E-15, 6.4135, -88.9));
#205 = CARTESIAN_POINT('', (7.9375, 7.9375, -87.376));
#206 = CARTESIAN_POINT('', (7.9375, 7.9375, -88.9));
#207 = CARTESIAN_POINT('', (6.4135, 6.4135, -88.9));
#208 = CARTESIAN_POINT('', (7.9375, 4.64865280497403E-16, -87.376));
#209 = CARTESIAN_POINT('', (7.9375, 3.71547194402374E-16, -88.9));
#210 = CARTESIAN_POINT('', (6.4135, 2.78229108307346E-16, -88.9));
#211 = CARTESIAN_POINT('', (7.9375, -7.9375, -87.376));
#212 = CARTESIAN_POINT('', (7.9375, -7.9375, -88.9));
#213 = CARTESIAN_POINT('', (6.4135, -6.4135, -88.9));
#214 = CARTESIAN_POINT('', (-8.80971011722499E-16, -7.9375, -87.376));
#215 = CARTESIAN_POINT('', (-9.74289097817529E-16, -7.9375, -88.9));
#216 = CARTESIAN_POINT('', (-1.16092527000758E-15, -6.4135, -88.9));
#217 = CARTESIAN_POINT('', (-7.9375, -7.9375, -87.376));
#218 = CARTESIAN_POINT('', (-7.9375, -7.9375, -88.9));
#219 = CARTESIAN_POINT('', (-6.4135, -6.4135, -88.9));
#220 = CARTESIAN_POINT('', (-7.9375, 5.83626863452656E-15, -87.376));
#221 = CARTESIAN_POINT('', (-7.9375, 5.92958672062159E-15, -88.9));
#222 = CARTESIAN_POINT('', (-6.4135, 5.83626863452656E-15, -88.9));
#223 = ADVANCED_FACE('', (#224), #227, .T.);
#224 = FACE_OUTER_BOUND('', #225, .T.);
#225 = EDGE_LOOP('', (#226));
#226 = ORIENTED_EDGE('', *, *, #189, .T.);
#227 = B_SPLINE_SURFACE_WITH_KNOTS('', 1, 1, ((#228, #229), (#230, #231)), .UNSPECIFIED., .F., .F., .U., (2, 2), (2, 2), (3.56356455050783, 16.3905645505078), (3.56356455050782, 16.3905645505078), .UNSPECIFIED.);
#228 = CARTESIAN_POINT('', (6.4135, -6.4135, -88.9));
#229 = CARTESIAN_POINT('', (6.4135, 6.41350000000001, -88.9));
#230 = CARTESIAN_POINT('', (-6.4135, -6.4135, -88.9));
#231 = CARTESIAN_POINT('', (-6.4135, 6.41350000000001, -88.9));
#232 = PRESENTATION_STYLE_ASSIGNMENT((#233));
#233 = SURFACE_STYLE_USAGE(.POSITIVE., #234);
#234 = SURFACE_SIDE_STYLE('', (#235));
#235 = SURFACE_STYLE_FILL_AREA(#236);
#236 = FILL_AREA_STYLE('', (#237));
#237 = FILL_AREA_STYLE_COLOUR('', #238);
#238 = COLOUR_RGB('', 0.8, 0.8, 0.8);
#239 = STYLED_ITEM('', (#232), #116);
#240 = TRIMMED_CURVE('cutting part line', #241, (#245), (#246), .T., .CARTESIAN.);
#241 = LINE('', #242, #243);
#242 = CARTESIAN_POINT('', (-6.24275009532999E-31, -3.39839486763391E-15, -55.5));
#243 = VECTOR('', #244, 7.9375);
#244 = DIRECTION('', (7.9375, -1.45809509523481E-15, 0.));
#245 = CARTESIAN_POINT('', (-6.24275009532999E-31, -3.39839486763391E-15, -55.5));
#246 = CARTESIAN_POINT('', (7.9375, -4.85648996286872E-15, -55.5));
#247 = TRIMMED_CURVE('cutting part line', #248, (#252), (#253), .T., .CARTESIAN.);
#248 = LINE('', #249, #250);
#249 = CARTESIAN_POINT('', (7.9375, -4.85648996286872E-15, -55.5));
#250 = VECTOR('', #251, 4.8);
#251 = DIRECTION('', (0., -2.9391523179537E-16, -4.8));
#252 = CARTESIAN_POINT('', (7.9375, -4.85648996286872E-15, -55.5));
#253 = CARTESIAN_POINT('', (7.9375, -5.15040519466409E-15, -60.3));
#254 = TRIMMED_CURVE('cutting part line', #255, (#259), (#260), .T., .CARTESIAN.);
#255 = LINE('', #256, #257);
#256 = CARTESIAN_POINT('', (7.9375, -5.15040519466409E-15, -60.3));
#257 = VECTOR('', #258, 27.076);
#258 = DIRECTION('', (0., -1.65792683668568E-15, -27.076));
#259 = CARTESIAN_POINT('', (7.9375, -5.15040519466409E-15, -60.3));
#260 = CARTESIAN_POINT('', (7.9375, -6.80833203134977E-15, -87.376));
#261 = TRIMMED_CURVE('cutting part line', #262, (#267), (#268), .T., .CARTESIAN.);
#262 = CIRCLE('', #263, 1.52399999999995);
#263 = AXIS2_PLACEMENT_3D('', #264, #265, #266);
#264 = CARTESIAN_POINT('', (6.41350000000004, -6.52837777306469E-15, -87.376));
#265 = DIRECTION('', (1.83697019872104E-16, 1., -6.12323399573677E-17));
#266 = DIRECTION('', (1., -1.83697019872102E-16, 2.79741234551227E-14));
#267 = CARTESIAN_POINT('', (7.93749999999999, -6.80833203134977E-15, -87.376));
#268 = CARTESIAN_POINT('', (6.4135, -6.62169585915971E-15, -88.9));
#269 = TRIMMED_CURVE('cutting part line', #270, (#274), (#275), .T., .CARTESIAN.);
#270 = LINE('', #271, #272);
#271 = CARTESIAN_POINT('', (6.4135, -6.62169585915972E-15, -88.9));
#272 = VECTOR('', #273, 6.4135);
#273 = DIRECTION('', (-6.4135, 1.17814083694973E-15, 0.));
#274 = CARTESIAN_POINT('', (6.4135, -6.62169585915972E-15, -88.9));
#275 = CARTESIAN_POINT('', (-6.66643223393196E-31, -5.44355502220999E-15, -88.9));
#276 = TRIMMED_CURVE('cutting part line', #277, (#281), (#282), .T., .CARTESIAN.);
#277 = LINE('', #278, #279);
#278 = CARTESIAN_POINT('', (-9.99964835089794E-31, -5.44355502220999E-15, -88.9));
#279 = VECTOR('', #280, 33.4);
#280 = DIRECTION('', (3.75689825556795E-31, 2.04516015457608E-15, 33.4));
#281 = CARTESIAN_POINT('', (-9.99964835089794E-31, -5.44355502220999E-15, -88.9));
#282 = CARTESIAN_POINT('', (-6.24275009532999E-31, -3.39839486763391E-15, -55.5));
#283 = COMPOSITE_CURVE('cutting part line', (#284, #285, #286, #287, #288, #289), .U.);
#284 = COMPOSITE_CURVE_SEGMENT(.CONTINUOUS., .T., #240);
#285 = COMPOSITE_CURVE_SEGMENT(.CONTINUOUS., .T., #247);
#286 = COMPOSITE_CURVE_SEGMENT(.CONTINUOUS., .T., #254);
#287 = COMPOSITE_CURVE_SEGMENT(.CONTINUOUS., .T., #261);
#288 = COMPOSITE_CURVE_SEGMENT(.CONTINUOUS., .T., #269);
#289 = COMPOSITE_CURVE_SEGMENT(.CONTINUOUS., .T., #276);
#290 = GEOMETRIC_SET('', (#283, #338));
#291 = PRESENTATION_STYLE_ASSIGNMENT((#292));
#292 = CURVE_STYLE('', #294, POSITIVE_LENGTH_MEASURE(1.E-6), #293);
#293 = COLOUR_RGB('', 0., 0., 1.);
#294 = DRAUGHTING_PRE_DEFINED_CURVE_FONT('continuous');
#295 = STYLED_ITEM('', (#291), #283);
#296 = PRESENTATION_STYLE_ASSIGNMENT((#297));
#297 = CURVE_STYLE('', #299, POSITIVE_LENGTH_MEASURE(1.E-6), #298);
#298 = COLOUR_RGB('', 0., 0., 1.);
#299 = DRAUGHTING_PRE_DEFINED_CURVE_FONT('continuous');
#300 = OVER_RIDING_STYLED_ITEM('', (#296), #240, #295);
#301 = PRESENTATION_STYLE_ASSIGNMENT((#302));
#302 = CURVE_STYLE('', #304, POSITIVE_LENGTH_MEASURE(1.E-6), #303);
#303 = COLOUR_RGB('', 0., 0., 1.);
#304 = DRAUGHTING_PRE_DEFINED_CURVE_FONT('continuous');
#305 = OVER_RIDING_STYLED_ITEM('', (#301), #247, #295);
#306 = PRESENTATION_STYLE_ASSIGNMENT((#307));
#307 = CURVE_STYLE('', #309, POSITIVE_LENGTH_MEASURE(1.E-6), #308);
#308 = COLOUR_RGB('', 0., 0., 1.);
#309 = DRAUGHTING_PRE_DEFINED_CURVE_FONT('continuous');
#310 = OVER_RIDING_STYLED_ITEM('', (#306), #254, #295);
#311 = PRESENTATION_STYLE_ASSIGNMENT((#312));
#312 = CURVE_STYLE('', #314, POSITIVE_LENGTH_MEASURE(1.E-6), #313);
#313 = COLOUR_RGB('', 0., 0., 1.);
#314 = DRAUGHTING_PRE_DEFINED_CURVE_FONT('continuous');
#315 = OVER_RIDING_STYLED_ITEM('', (#311), #261, #295);
#316 = PRESENTATION_STYLE_ASSIGNMENT((#317));
#317 = CURVE_STYLE('', #319, POSITIVE_LENGTH_MEASURE(1.E-6), #318);
#318 = COLOUR_RGB('', 0., 0., 1.);
#319 = DRAUGHTING_PRE_DEFINED_CURVE_FONT('continuous');
#320 = OVER_RIDING_STYLED_ITEM('', (#316), #269, #295);
#321 = PRESENTATION_STYLE_ASSIGNMENT((#322));
#322 = CURVE_STYLE('', #324, POSITIVE_LENGTH_MEASURE(1.E-6), #323);
#323 = COLOUR_RGB('', 0., 0., 1.);
#324 = DRAUGHTING_PRE_DEFINED_CURVE_FONT('continuous');
#325 = OVER_RIDING_STYLED_ITEM('', (#321), #276, #295);
#326 = AXIS2_PLACEMENT_3D('CIP', #327, #328, #329);
#327 = CARTESIAN_POINT('', (3.33321611696598E-31, 5.44355502220998E-15, -88.9));
#328 = DIRECTION('', (-3.74939945665465E-33, -6.12323399573677E-17, 1.));
#329 = DIRECTION('', (1., -6.12323399573677E-17, 0.));
#330 = AXIS2_PLACEMENT_3D('MCS', #331, #332, #333);
#331 = CARTESIAN_POINT('', (1.81545921691218E-31, 2.96486990073574E-15, -48.42));
#332 = DIRECTION('', (-3.74939945665465E-33, -6.12323399573677E-17, 1.));
#333 = DIRECTION('', (1., -6.12323399573677E-17, 0.));
#334 = AXIS2_PLACEMENT_3D('PCS', #335, #336, #337);
#335 = CARTESIAN_POINT('', (0., 0., 0.));
#336 = DIRECTION('', (0., 0., 1.));
#337 = DIRECTION('', (1., 0., 0.));
#338 = CARTESIAN_POINT('CRP', (7.9375, 0., -88.9));
#339 = (
   GEOMETRIC_REPRESENTATION_CONTEXT (3)
   GLOBAL_UNCERTAINTY_ASSIGNED_CONTEXT ((#341))
   GLOBAL_UNIT_ASSIGNED_CONTEXT ((#340, #342, #343))
   REPRESENTATION_CONTEXT ('', '3D')
);
#340 = (
   LENGTH_UNIT ()
   NAMED_UNIT (*)
   SI_UNIT (.MILLI., .METRE.)
);
#341 = UNCERTAINTY_MEASURE_WITH_UNIT(LENGTH_MEASURE(1.E-6), #340, 'DISTANCE_ACCURACY_VALUE', '');
#342 = (
   NAMED_UNIT (*)
   SI_UNIT ($, .STERADIAN.)
   SOLID_ANGLE_UNIT ()
);
#343 = (
   NAMED_UNIT (*)
   PLANE_ANGLE_UNIT ()
   SI_UNIT ($, .RADIAN.)
);
#344 = SHAPE_REPRESENTATION('', (), #339);
#345 = PRODUCT_DEFINITION_SHAPE('', '', #346);
#346 = PRODUCT_DEFINITION('', '', #349, #353);
#347 = APPLICATION_CONTEXT('configuration controlled 3D designs of mechanical parts and assemblies');
#348 = APPLICATION_PROTOCOL_DEFINITION('International Standard', 'automotive_design', 2002, #347);
#349 = PRODUCT_DEFINITION_FORMATION_WITH_SPECIFIED_SOURCE('', '', #350, .NOT_KNOWN.);
#350 = PRODUCT('NONE', '2S342-1588-152-PA   1730', '', (#351));
#351 = PRODUCT_CONTEXT('', #347, 'mechanical');
#352 = PRODUCT_RELATED_PRODUCT_CATEGORY('detail', '', (#350));
#353 = PRODUCT_DEFINITION_CONTEXT('part definition', #347, 'design');
#354 = SHAPE_DEFINITION_REPRESENTATION(#345, #344);
#355 = CONSTRUCTIVE_GEOMETRY_REPRESENTATION('supplemental geometry', (#326, #330, #334), #339);
#356 = CONSTRUCTIVE_GEOMETRY_REPRESENTATION_RELATIONSHIP('', '', #344, #355);
#357 = SHAPE_REPRESENTATION_RELATIONSHIP('', '', #344, #358);
#358 = SHAPE_REPRESENTATION('', (#290), #339);
#359 = SHAPE_REPRESENTATION_RELATIONSHIP('', '', #344, #360);
#360 = ADVANCED_BREP_SHAPE_REPRESENTATION('', (#1, #116), #339);
ENDSEC;
END-ISO-10303-21;
