ISO-10303-21;
HEADER;
FILE_DESCRIPTION(('STEP'), '1');
FILE_NAME('C:\\Users\\ds2002\\OneDrive - Sandvik\\HomeShare\\Documents\\Batchrepair\\CorSRT2\\NEW_MILSQ_SLD\\Output\\MOD000000000000000020082269000000.stp', '2019-01-02T12:10:58', (''), (''), 'Express v3.0.0.0', 'Express Tool', 'Unknown');
FILE_SCHEMA(('AUTOMOTIVE_DESIGN'));
ENDSEC;

DATA;
#1 = MANIFOLD_SOLID_BREP('NOCUT', #2);
#2 = CLOSED_SHELL('', (#3, #50, #59, #98));
#3 = ADVANCED_FACE('', (#4), #31, .T.);
#4 = FACE_OUTER_BOUND('', #5, .T.);
#5 = EDGE_LOOP('', (#6, #16, #23, #24));
#6 = ORIENTED_EDGE('', *, *, #7, .T.);
#7 = EDGE_CURVE('', #8, #10, #12, .T.);
#8 = VERTEX_POINT('', #9);
#9 = CARTESIAN_POINT('', (-3.175, 2.13853947301107E-16, -0.317500000000003));
#10 = VERTEX_POINT('', #11);
#11 = CARTESIAN_POINT('', (-2.8575, 1.74971411428178E-16, 0.));
#12 = LINE('', #13, #14);
#13 = CARTESIAN_POINT('', (-3.175, 2.13853947301107E-16, -0.317500000000003));
#14 = VECTOR('', #15, 0.44901280605346);
#15 = DIRECTION('', (0.3175, -3.8882535872929E-17, 0.317500000000003));
#16 = ORIENTED_EDGE('', *, *, #17, .T.);
#17 = EDGE_CURVE('', #10, #10, #18, .T.);
#18 = CIRCLE('', #19, 2.8575);
#19 = AXIS2_PLACEMENT_3D('', #20, #21, #22);
#20 = CARTESIAN_POINT('', (-3.46944695195361E-16, -6.66133814775094E-16, -2.77333911991762E-32));
#21 = DIRECTION('', (8.31826769960494E-33, 6.12323399573676E-17, -1.));
#22 = DIRECTION('', (-1., 2.94350035416718E-16, 9.70547373549474E-33));
#23 = ORIENTED_EDGE('', *, *, #7, .F.);
#24 = ORIENTED_EDGE('', *, *, #25, .F.);
#25 = EDGE_CURVE('', #8, #8, #26, .T.);
#26 = CIRCLE('', #27, 3.17500000000001);
#27 = AXIS2_PLACEMENT_3D('', #28, #29, #30);
#28 = CARTESIAN_POINT('', (5.41233724504764E-16, 4.9960036108132E-16, -0.317500000000003));
#29 = DIRECTION('', (5.24514814783537E-17, 7.87931949724616E-18, -1.));
#30 = DIRECTION('', (-1., -3.34928230311427E-16, -5.24514814783537E-17));
#31 = (
   BOUNDED_SURFACE ()
   B_SPLINE_SURFACE (1, 2, ((#32, #33, #34, #35, #36, #37, #38, #39, #40), (#41, #42, #43, #44, #45, #46, #47, #48, #49)), .UNSPECIFIED., .F., .T., .U.)
   B_SPLINE_SURFACE_WITH_KNOTS ((2, 2), (3, 2, 2, 2, 3), (0., 1.), (0., 0.25, 0.5, 0.75, 1.), .UNSPECIFIED.)
   GEOMETRIC_REPRESENTATION_ITEM ()
   RATIONAL_B_SPLINE_SURFACE (((1., 0.707106781186548, 1., 0.707106781186548, 1., 0.707106781186548, 1., 0.707106781186548, 1.), (1., 0.707106781186548, 1., 0.707106781186548, 1., 0.707106781186548, 1., 0.707106781186548, 1.)))
   REPRESENTATION_ITEM ('')
   SURFACE ()
);
#32 = CARTESIAN_POINT('', (-3.175, -6.87597834643122E-16, -0.317500000000003));
#33 = CARTESIAN_POINT('', (-3.175, 3.175, -0.317500000000012));
#34 = CARTESIAN_POINT('', (1.74089138166917E-15, 3.175, -0.317500000000012));
#35 = CARTESIAN_POINT('', (3.175, 3.175, -0.317500000000012));
#36 = CARTESIAN_POINT('', (3.175, -1.92117897311552E-15, -0.317500000000003));
#37 = CARTESIAN_POINT('', (3.175, -3.175, -0.317499999999993));
#38 = CARTESIAN_POINT('', (8.96135601926058E-16, -3.175, -0.317499999999993));
#39 = CARTESIAN_POINT('', (-3.175, -3.175, -0.317499999999993));
#40 = CARTESIAN_POINT('', (-3.175, -6.87597834643122E-16, -0.317500000000003));
#41 = CARTESIAN_POINT('', (-2.8575, 1.74971411428178E-16, 0.));
#42 = CARTESIAN_POINT('', (-2.8575, 2.8575, -8.49320613838237E-15));
#43 = CARTESIAN_POINT('', (1.67921232474555E-15, 2.8575, -8.49320613838237E-15));
#44 = CARTESIAN_POINT('', (2.8575, 2.8575, -8.49320613838237E-15));
#45 = CARTESIAN_POINT('', (2.8575, -9.35251613196978E-16, -1.09558455358522E-30));
#46 = CARTESIAN_POINT('', (2.8575, -2.8575, 8.49320613838237E-15));
#47 = CARTESIAN_POINT('', (9.18932122976749E-16, -2.8575, 8.49320613838237E-15));
#48 = CARTESIAN_POINT('', (-2.8575, -2.8575, 8.49320613838237E-15));
#49 = CARTESIAN_POINT('', (-2.8575, 1.74971411428178E-16, 0.));
#50 = ADVANCED_FACE('', (#51), #54, .T.);
#51 = FACE_OUTER_BOUND('', #52, .T.);
#52 = EDGE_LOOP('', (#53));
#53 = ORIENTED_EDGE('', *, *, #17, .F.);
#54 = B_SPLINE_SURFACE_WITH_KNOTS('', 1, 1, ((#55, #56), (#57, #58)), .UNSPECIFIED., .F., .F., .U., (2, 2), (2, 2), (1.58772677992923, 7.30272677992923), (1.58772677992923, 7.30272677992923), .UNSPECIFIED.);
#55 = CARTESIAN_POINT('', (2.8575, -2.8575, 6.93045594617286E-15));
#56 = CARTESIAN_POINT('', (-2.8575, -2.8575, -7.28039876902917E-15));
#57 = CARTESIAN_POINT('', (2.8575, 2.8575, 7.28039876902922E-15));
#58 = CARTESIAN_POINT('', (-2.8575, 2.8575, -6.93045594617282E-15));
#59 = ADVANCED_FACE('', (#60), #79, .T.);
#60 = FACE_OUTER_BOUND('', #61, .T.);
#61 = EDGE_LOOP('', (#62, #71, #77, #78));
#62 = ORIENTED_EDGE('', *, *, #63, .F.);
#63 = EDGE_CURVE('', #64, #64, #66, .T.);
#64 = VERTEX_POINT('', #65);
#65 = CARTESIAN_POINT('', (-3.175, 2.62472425227256E-15, -39.69));
#66 = CIRCLE('', #67, 3.175);
#67 = AXIS2_PLACEMENT_3D('', #68, #69, #70);
#68 = CARTESIAN_POINT('', (-1.2490009027033E-16, 2.33146835171283E-15, -39.69));
#69 = DIRECTION('', (0., 0., -1.));
#70 = DIRECTION('', (-1., 9.23640631684225E-17, 0.));
#71 = ORIENTED_EDGE('', *, *, #72, .T.);
#72 = EDGE_CURVE('', #64, #8, #73, .T.);
#73 = LINE('', #74, #75);
#74 = CARTESIAN_POINT('', (-3.175, 2.62472425227256E-15, -39.69));
#75 = VECTOR('', #76, 39.3725);
#76 = DIRECTION('', (0., -2.41087030497145E-15, 39.3725));
#77 = ORIENTED_EDGE('', *, *, #25, .T.);
#78 = ORIENTED_EDGE('', *, *, #72, .F.);
#79 = (
   BOUNDED_SURFACE ()
   B_SPLINE_SURFACE (1, 2, ((#80, #81, #82, #83, #84, #85, #86, #87, #88), (#89, #90, #91, #92, #93, #94, #95, #96, #97)), .UNSPECIFIED., .F., .T., .U.)
   B_SPLINE_SURFACE_WITH_KNOTS ((2, 2), (3, 2, 2, 2, 3), (-0.103412036712674, 1.), (0., 0.25, 0.5, 0.75, 1.), .UNSPECIFIED.)
   GEOMETRIC_REPRESENTATION_ITEM ()
   RATIONAL_B_SPLINE_SURFACE (((1., 0.707106781186548, 1., 0.707106781186548, 1., 0.707106781186548, 1., 0.707106781186548, 1.), (1., 0.707106781186548, 1., 0.707106781186548, 1., 0.707106781186548, 1., 0.707106781186548, 1.)))
   REPRESENTATION_ITEM ('')
   SURFACE ()
);
#80 = CARTESIAN_POINT('', (-3.175, 1.49061042562004E-15, -39.69));
#81 = CARTESIAN_POINT('', (-3.175, 3.175, -39.69));
#82 = CARTESIAN_POINT('', (-4.07907177408424E-16, 3.175, -39.69));
#83 = CARTESIAN_POINT('', (3.175, 3.175, -39.69));
#84 = CARTESIAN_POINT('', (3.175, 5.00444156854761E-15, -39.69));
#85 = CARTESIAN_POINT('', (3.175, -3.17499999999999, -39.69));
#86 = CARTESIAN_POINT('', (3.49474932424843E-15, -3.17499999999999, -39.69));
#87 = CARTESIAN_POINT('', (-3.17499999999999, -3.175, -39.69));
#88 = CARTESIAN_POINT('', (-3.175, 1.49061042562004E-15, -39.69));
#89 = CARTESIAN_POINT('', (-3.175, 2.13853947301108E-16, -0.317500000000003));
#90 = CARTESIAN_POINT('', (-3.175, 3.175, -0.317500000000003));
#91 = CARTESIAN_POINT('', (-1.78467114707941E-15, 3.175, -0.317500000000003));
#92 = CARTESIAN_POINT('', (3.175, 3.175, -0.317500000000003));
#93 = CARTESIAN_POINT('', (3.175, 3.72768509022868E-15, -0.317500000000003));
#94 = CARTESIAN_POINT('', (3.175, -3.17499999999999, -0.317500000000003));
#95 = CARTESIAN_POINT('', (2.11798535457744E-15, -3.175, -0.317500000000003));
#96 = CARTESIAN_POINT('', (-3.175, -3.175, -0.317500000000003));
#97 = CARTESIAN_POINT('', (-3.175, 2.13853947301108E-16, -0.317500000000003));
#98 = ADVANCED_FACE('', (#99), #102, .T.);
#99 = FACE_OUTER_BOUND('', #100, .T.);
#100 = EDGE_LOOP('', (#101));
#101 = ORIENTED_EDGE('', *, *, #63, .T.);
#102 = B_SPLINE_SURFACE_WITH_KNOTS('', 1, 1, ((#103, #104), (#105, #106)), .UNSPECIFIED., .F., .F., .U., (2, 2), (2, 2), (61.7508615614493, 68.1008615614493), (60.1628606611659, 66.5128606611659), .UNSPECIFIED.);
#103 = CARTESIAN_POINT('', (-3.175, 3.175, -39.69));
#104 = CARTESIAN_POINT('', (-3.175, -3.175, -39.69));
#105 = CARTESIAN_POINT('', (3.175, 3.175, -39.69));
#106 = CARTESIAN_POINT('', (3.175, -3.175, -39.69));
#107 = DRAUGHTING_MODEL('', (#115, #190, #229, #234, #239, #244, #249), #263);
#108 = PRESENTATION_STYLE_ASSIGNMENT((#109));
#109 = SURFACE_STYLE_USAGE(.POSITIVE., #110);
#110 = SURFACE_SIDE_STYLE('', (#111));
#111 = SURFACE_STYLE_FILL_AREA(#112);
#112 = FILL_AREA_STYLE('', (#113));
#113 = FILL_AREA_STYLE_COLOUR('', #114);
#114 = COLOUR_RGB('', 0.50196078431373, 0.50196078431373, 0.50196078431373);
#115 = STYLED_ITEM('', (#108), #1);
#116 = MANIFOLD_SOLID_BREP('CUT', #117);
#117 = CLOSED_SHELL('', (#118, #135, #174));
#118 = ADVANCED_FACE('', (#119), #130, .T.);
#119 = FACE_OUTER_BOUND('', #120, .T.);
#120 = EDGE_LOOP('', (#121));
#121 = ORIENTED_EDGE('', *, *, #122, .F.);
#122 = EDGE_CURVE('', #123, #123, #125, .T.);
#123 = VERTEX_POINT('', #124);
#124 = CARTESIAN_POINT('', (-3.175, 2.62472425227256E-15, -39.69));
#125 = CIRCLE('', #126, 3.175);
#126 = AXIS2_PLACEMENT_3D('', #127, #128, #129);
#127 = CARTESIAN_POINT('', (-1.2490009027033E-16, 2.33146835171283E-15, -39.69));
#128 = DIRECTION('', (0., 0., -1.));
#129 = DIRECTION('', (-1., 9.23640631684194E-17, 0.));
#130 = B_SPLINE_SURFACE_WITH_KNOTS('', 1, 1, ((#131, #132), (#133, #134)), .UNSPECIFIED., .F., .F., .U., (2, 2), (2, 2), (60.1628606611659, 66.5128606611659), (61.7508615614493, 68.1008615614493), .UNSPECIFIED.);
#131 = CARTESIAN_POINT('', (-3.175, 3.175, -39.69));
#132 = CARTESIAN_POINT('', (3.175, 3.175, -39.69));
#133 = CARTESIAN_POINT('', (-3.175, -3.175, -39.69));
#134 = CARTESIAN_POINT('', (3.175, -3.175, -39.69));
#135 = ADVANCED_FACE('', (#136), #155, .T.);
#136 = FACE_OUTER_BOUND('', #137, .T.);
#137 = EDGE_LOOP('', (#138, #139, #147, #154));
#138 = ORIENTED_EDGE('', *, *, #122, .T.);
#139 = ORIENTED_EDGE('', *, *, #140, .F.);
#140 = EDGE_CURVE('', #141, #123, #143, .T.);
#141 = VERTEX_POINT('', #142);
#142 = CARTESIAN_POINT('', (-3.175, 4.08266626665749E-15, -63.5));
#143 = LINE('', #144, #145);
#144 = CARTESIAN_POINT('', (-3.175, 4.08266626665749E-15, -63.5));
#145 = VECTOR('', #146, 23.81);
#146 = DIRECTION('', (0., -1.45794201438493E-15, 23.81));
#147 = ORIENTED_EDGE('', *, *, #148, .F.);
#148 = EDGE_CURVE('', #141, #141, #149, .T.);
#149 = CIRCLE('', #150, 3.175);
#150 = AXIS2_PLACEMENT_3D('', #151, #152, #153);
#151 = CARTESIAN_POINT('', (5.68989300120393E-16, 3.05311331771918E-15, -63.5));
#152 = DIRECTION('', (0., 0., -1.));
#153 = DIRECTION('', (-1., 3.24268645334901E-16, 0.));
#154 = ORIENTED_EDGE('', *, *, #140, .T.);
#155 = (
   BOUNDED_SURFACE ()
   B_SPLINE_SURFACE (1, 2, ((#156, #157, #158, #159, #160, #161, #162, #163, #164), (#165, #166, #167, #168, #169, #170, #171, #172, #173)), .UNSPECIFIED., .F., .T., .U.)
   B_SPLINE_SURFACE_WITH_KNOTS ((2, 2), (3, 2, 2, 2, 3), (-0.77068591046031, -0.103412036712674), (0., 0.25, 0.5, 0.75, 1.), .UNSPECIFIED.)
   GEOMETRIC_REPRESENTATION_ITEM ()
   RATIONAL_B_SPLINE_SURFACE (((1., 0.707106781186548, 1., 0.707106781186548, 1., 0.707106781186548, 1., 0.707106781186548, 1.), (1., 0.707106781186548, 1., 0.707106781186548, 1., 0.707106781186548, 1., 0.707106781186548, 1.)))
   REPRESENTATION_ITEM ('')
   SURFACE ()
);
#156 = CARTESIAN_POINT('', (-3.175, 8.39788398032337E-15, -63.5));
#157 = CARTESIAN_POINT('', (-3.17499999999999, 3.17500000000001, -63.5));
#158 = CARTESIAN_POINT('', (4.47034638065665E-15, 3.175, -63.5));
#159 = CARTESIAN_POINT('', (3.175, 3.175, -63.5));
#160 = CARTESIAN_POINT('', (3.175, 1.42783708771974E-15, -63.5));
#161 = CARTESIAN_POINT('', (3.175, -3.175, -63.5));
#162 = CARTESIAN_POINT('', (-2.1108751532177E-15, -3.17499999999999, -63.5));
#163 = CARTESIAN_POINT('', (-3.175, -3.17499999999999, -63.5));
#164 = CARTESIAN_POINT('', (-3.175, 8.39788398032337E-15, -63.5));
#165 = CARTESIAN_POINT('', (-3.175, 2.62472425227256E-15, -39.69));
#166 = CARTESIAN_POINT('', (-3.17499999999999, 3.175, -39.69));
#167 = CARTESIAN_POINT('', (4.47034638065664E-15, 3.175, -39.69));
#168 = CARTESIAN_POINT('', (3.175, 3.17499999999999, -39.69));
#169 = CARTESIAN_POINT('', (3.175, -4.34532264033107E-15, -39.69));
#170 = CARTESIAN_POINT('', (3.175, -3.175, -39.69));
#171 = CARTESIAN_POINT('', (-2.1108751532177E-15, -3.175, -39.69));
#172 = CARTESIAN_POINT('', (-3.175, -3.175, -39.69));
#173 = CARTESIAN_POINT('', (-3.175, 2.62472425227256E-15, -39.69));
#174 = ADVANCED_FACE('', (#175), #178, .T.);
#175 = FACE_OUTER_BOUND('', #176, .T.);
#176 = EDGE_LOOP('', (#177));
#177 = ORIENTED_EDGE('', *, *, #148, .T.);
#178 = B_SPLINE_SURFACE_WITH_KNOTS('', 1, 1, ((#179, #180), (#181, #182)), .UNSPECIFIED., .F., .F., .U., (2, 2), (2, 2), (1.76414086658804, 8.11414086658804), (1.76414086658803, 8.11414086658803), .UNSPECIFIED.);
#179 = CARTESIAN_POINT('', (3.175, -3.175, -63.5));
#180 = CARTESIAN_POINT('', (3.175, 3.175, -63.5));
#181 = CARTESIAN_POINT('', (-3.175, -3.175, -63.5));
#182 = CARTESIAN_POINT('', (-3.175, 3.175, -63.5));
#183 = PRESENTATION_STYLE_ASSIGNMENT((#184));
#184 = SURFACE_STYLE_USAGE(.POSITIVE., #185);
#185 = SURFACE_SIDE_STYLE('', (#186));
#186 = SURFACE_STYLE_FILL_AREA(#187);
#187 = FILL_AREA_STYLE('', (#188));
#188 = FILL_AREA_STYLE_COLOUR('', #189);
#189 = COLOUR_RGB('', 0.8, 0.8, 0.8);
#190 = STYLED_ITEM('', (#183), #116);
#191 = TRIMMED_CURVE('cutting part line', #192, (#196), (#197), .T., .CARTESIAN.);
#192 = LINE('', #193, #194);
#193 = CARTESIAN_POINT('', (-4.46440993303868E-31, -2.43031157290792E-15, -39.69));
#194 = VECTOR('', #195, 3.175);
#195 = DIRECTION('', (3.175, -5.83238038093925E-16, 0.));
#196 = CARTESIAN_POINT('', (-4.46440993303868E-31, -2.43031157290792E-15, -39.69));
#197 = CARTESIAN_POINT('', (3.175, -3.01354961100184E-15, -39.69));
#198 = TRIMMED_CURVE('cutting part line', #199, (#203), (#204), .T., .CARTESIAN.);
#199 = LINE('', #200, #201);
#200 = CARTESIAN_POINT('', (3.175, -3.01354961100184E-15, -39.69));
#201 = VECTOR('', #202, 23.81);
#202 = DIRECTION('', (0., -1.45794201438493E-15, -23.81));
#203 = CARTESIAN_POINT('', (3.175, -3.01354961100184E-15, -39.69));
#204 = CARTESIAN_POINT('', (3.175, -4.47149162538677E-15, -63.5));
#205 = TRIMMED_CURVE('cutting part line', #206, (#210), (#211), .T., .CARTESIAN.);
#206 = LINE('', #207, #208);
#207 = CARTESIAN_POINT('', (3.175, -4.47149162538677E-15, -63.5));
#208 = VECTOR('', #209, 3.175);
#209 = DIRECTION('', (-3.175, 5.83238038093925E-16, 0.));
#210 = CARTESIAN_POINT('', (3.175, -4.47149162538677E-15, -63.5));
#211 = CARTESIAN_POINT('', (-4.7617373099514E-31, -3.88825358729285E-15, -63.5));
#212 = TRIMMED_CURVE('cutting part line', #213, (#217), (#218), .T., .CARTESIAN.);
#213 = LINE('', #214, #215);
#214 = CARTESIAN_POINT('', (-7.1426059649271E-31, -3.88825358729285E-15, -63.5));
#215 = VECTOR('', #216, 23.81);
#216 = DIRECTION('', (2.67819603188842E-31, 1.45794201438493E-15, 23.81));
#217 = CARTESIAN_POINT('', (-7.1426059649271E-31, -3.88825358729285E-15, -63.5));
#218 = CARTESIAN_POINT('', (-4.46440993303868E-31, -2.43031157290792E-15, -39.69));
#219 = COMPOSITE_CURVE('cutting part line', (#220, #221, #222, #223), .U.);
#220 = COMPOSITE_CURVE_SEGMENT(.CONTINUOUS., .T., #191);
#221 = COMPOSITE_CURVE_SEGMENT(.CONTINUOUS., .T., #198);
#222 = COMPOSITE_CURVE_SEGMENT(.CONTINUOUS., .T., #205);
#223 = COMPOSITE_CURVE_SEGMENT(.CONTINUOUS., .T., #212);
#224 = GEOMETRIC_SET('', (#219, #262));
#225 = PRESENTATION_STYLE_ASSIGNMENT((#226));
#226 = CURVE_STYLE('', #228, POSITIVE_LENGTH_MEASURE(1.E-6), #227);
#227 = COLOUR_RGB('', 0., 0., 1.);
#228 = DRAUGHTING_PRE_DEFINED_CURVE_FONT('continuous');
#229 = STYLED_ITEM('', (#225), #219);
#230 = PRESENTATION_STYLE_ASSIGNMENT((#231));
#231 = CURVE_STYLE('', #233, POSITIVE_LENGTH_MEASURE(1.E-6), #232);
#232 = COLOUR_RGB('', 0., 0., 1.);
#233 = DRAUGHTING_PRE_DEFINED_CURVE_FONT('continuous');
#234 = OVER_RIDING_STYLED_ITEM('', (#230), #191, #229);
#235 = PRESENTATION_STYLE_ASSIGNMENT((#236));
#236 = CURVE_STYLE('', #238, POSITIVE_LENGTH_MEASURE(1.E-6), #237);
#237 = COLOUR_RGB('', 0., 0., 1.);
#238 = DRAUGHTING_PRE_DEFINED_CURVE_FONT('continuous');
#239 = OVER_RIDING_STYLED_ITEM('', (#235), #198, #229);
#240 = PRESENTATION_STYLE_ASSIGNMENT((#241));
#241 = CURVE_STYLE('', #243, POSITIVE_LENGTH_MEASURE(1.E-6), #242);
#242 = COLOUR_RGB('', 0., 0., 1.);
#243 = DRAUGHTING_PRE_DEFINED_CURVE_FONT('continuous');
#244 = OVER_RIDING_STYLED_ITEM('', (#240), #205, #229);
#245 = PRESENTATION_STYLE_ASSIGNMENT((#246));
#246 = CURVE_STYLE('', #248, POSITIVE_LENGTH_MEASURE(1.E-6), #247);
#247 = COLOUR_RGB('', 0., 0., 1.);
#248 = DRAUGHTING_PRE_DEFINED_CURVE_FONT('continuous');
#249 = OVER_RIDING_STYLED_ITEM('', (#245), #212, #229);
#250 = AXIS2_PLACEMENT_3D('CIP', #251, #252, #253);
#251 = CARTESIAN_POINT('', (2.3808686549757E-31, 3.88825358729285E-15, -63.5));
#252 = DIRECTION('', (-3.74939945665465E-33, -6.12323399573677E-17, 1.));
#253 = DIRECTION('', (1., -6.12323399573677E-17, 0.));
#254 = AXIS2_PLACEMENT_3D('MCS', #255, #256, #257);
#255 = CARTESIAN_POINT('', (1.34978380439567E-31, 2.20436423846524E-15, -36.));
#256 = DIRECTION('', (-3.74939945665465E-33, -6.12323399573677E-17, 1.));
#257 = DIRECTION('', (1., -6.12323399573677E-17, 0.));
#258 = AXIS2_PLACEMENT_3D('PCS', #259, #260, #261);
#259 = CARTESIAN_POINT('', (0., 0., 0.));
#260 = DIRECTION('', (0., 0., 1.));
#261 = DIRECTION('', (1., 0., 0.));
#262 = CARTESIAN_POINT('CRP', (3.175, 0., -63.5));
#263 = (
   GEOMETRIC_REPRESENTATION_CONTEXT (3)
   GLOBAL_UNCERTAINTY_ASSIGNED_CONTEXT ((#265))
   GLOBAL_UNIT_ASSIGNED_CONTEXT ((#264, #266, #267))
   REPRESENTATION_CONTEXT ('', '3D')
);
#264 = (
   LENGTH_UNIT ()
   NAMED_UNIT (*)
   SI_UNIT (.MILLI., .METRE.)
);
#265 = UNCERTAINTY_MEASURE_WITH_UNIT(LENGTH_MEASURE(1.E-6), #264, 'DISTANCE_ACCURACY_VALUE', '');
#266 = (
   NAMED_UNIT (*)
   SI_UNIT ($, .STERADIAN.)
   SOLID_ANGLE_UNIT ()
);
#267 = (
   NAMED_UNIT (*)
   PLANE_ANGLE_UNIT ()
   SI_UNIT ($, .RADIAN.)
);
#268 = SHAPE_REPRESENTATION('', (), #263);
#269 = PRODUCT_DEFINITION_SHAPE('', '', #270);
#270 = PRODUCT_DEFINITION('', '', #273, #277);
#271 = APPLICATION_CONTEXT('configuration controlled 3D designs of mechanical parts and assemblies');
#272 = APPLICATION_PROTOCOL_DEFINITION('International Standard', 'automotive_design', 2002, #271);
#273 = PRODUCT_DEFINITION_FORMATION_WITH_SPECIFIED_SOURCE('', '', #274, .NOT_KNOWN.);
#274 = PRODUCT('NONE', '1P260-0635-XA       1620', '', (#275));
#275 = PRODUCT_CONTEXT('', #271, 'mechanical');
#276 = PRODUCT_RELATED_PRODUCT_CATEGORY('detail', '', (#274));
#277 = PRODUCT_DEFINITION_CONTEXT('part definition', #271, 'design');
#278 = SHAPE_DEFINITION_REPRESENTATION(#269, #268);
#279 = CONSTRUCTIVE_GEOMETRY_REPRESENTATION('supplemental geometry', (#250, #254, #258), #263);
#280 = CONSTRUCTIVE_GEOMETRY_REPRESENTATION_RELATIONSHIP('', '', #268, #279);
#281 = SHAPE_REPRESENTATION_RELATIONSHIP('', '', #268, #282);
#282 = SHAPE_REPRESENTATION('', (#224), #263);
#283 = SHAPE_REPRESENTATION_RELATIONSHIP('', '', #268, #284);
#284 = ADVANCED_BREP_SHAPE_REPRESENTATION('', (#1, #116), #263);
ENDSEC;
END-ISO-10303-21;
