ISO-10303-21;
HEADER;
FILE_DESCRIPTION(('STEP'), '1');
FILE_NAME('C:\\Users\\ds2002\\OneDrive - Sandvik\\HomeShare\\Documents\\Batchrepair\\CorSRT2\\NEW_MILSQ_SLD\\Output\\MOD000000000000000020084947400000.stp', '2019-01-02T12:08:16', (''), (''), 'Express v3.0.0.0', 'Express Tool', 'Unknown');
FILE_SCHEMA(('AUTOMOTIVE_DESIGN'));
ENDSEC;

DATA;
#1 = MANIFOLD_SOLID_BREP('NOCUT', #2);
#2 = CLOSED_SHELL('', (#3, #50, #97, #106, #137, #176));
#3 = ADVANCED_FACE('', (#4), #31, .T.);
#4 = FACE_OUTER_BOUND('', #5, .T.);
#5 = EDGE_LOOP('', (#6, #16, #23, #24));
#6 = ORIENTED_EDGE('', *, *, #7, .F.);
#7 = EDGE_CURVE('', #8, #10, #12, .T.);
#8 = VERTEX_POINT('', #9);
#9 = CARTESIAN_POINT('', (-4.7625, 4.48787127632537E-15, -68.53));
#10 = VERTEX_POINT('', #11);
#11 = CARTESIAN_POINT('', (-3.969, 4.52317172031079E-15, -69.9));
#12 = LINE('', #13, #14);
#13 = CARTESIAN_POINT('', (-4.7625, 4.48787127632537E-15, -68.53));
#14 = VECTOR('', #15, 1.58320631946693);
#15 = DIRECTION('', (0.7935, 3.53004439854203E-17, -1.37));
#16 = ORIENTED_EDGE('', *, *, #17, .T.);
#17 = EDGE_CURVE('', #8, #8, #18, .T.);
#18 = CIRCLE('', #19, 4.7625);
#19 = AXIS2_PLACEMENT_3D('', #20, #21, #22);
#20 = CARTESIAN_POINT('', (6.93889390390723E-16, 3.33066907387547E-16, -68.53));
#21 = DIRECTION('', (0., 0., -1.));
#22 = DIRECTION('', (-1., 6.27470507664036E-16, 0.));
#23 = ORIENTED_EDGE('', *, *, #7, .T.);
#24 = ORIENTED_EDGE('', *, *, #25, .F.);
#25 = EDGE_CURVE('', #10, #10, #26, .T.);
#26 = CIRCLE('', #27, 3.969);
#27 = AXIS2_PLACEMENT_3D('', #28, #29, #30);
#28 = CARTESIAN_POINT('', (7.7715611723761E-16, -8.88178419700125E-16, -69.9));
#29 = DIRECTION('', (0., 0., -1.));
#30 = DIRECTION('', (-1., 1.36340391534667E-15, 0.));
#31 = (
   BOUNDED_SURFACE ()
   B_SPLINE_SURFACE (2, 1, ((#32, #33), (#34, #35), (#36, #37), (#38, #39), (#40, #41), (#42, #43), (#44, #45), (#46, #47), (#48, #49)), .UNSPECIFIED., .T., .F., .U.)
   B_SPLINE_SURFACE_WITH_KNOTS ((3, 2, 2, 2, 3), (2, 2), (0., 0.25, 0.5, 0.75, 1.), (0., 1.), .UNSPECIFIED.)
   GEOMETRIC_REPRESENTATION_ITEM ()
   RATIONAL_B_SPLINE_SURFACE (((1., 1.), (0.707106781186548, 0.707106781186548), (1., 1.), (0.707106781186548, 0.707106781186548), (1., 1.), (0.707106781186548, 0.707106781186548), (1., 1.), (0.707106781186548, 0.707106781186548), (1., 1.)))
   REPRESENTATION_ITEM ('')
   SURFACE ()
);
#32 = CARTESIAN_POINT('', (-4.7625, 4.48787127632537E-15, -68.53));
#33 = CARTESIAN_POINT('', (-3.969, 2.96286729386461E-15, -69.9));
#34 = CARTESIAN_POINT('', (-4.7625, 4.7625, -68.53));
#35 = CARTESIAN_POINT('', (-3.969, 3.969, -69.9));
#36 = CARTESIAN_POINT('', (3.50236286688768E-15, 4.7625, -68.53));
#37 = CARTESIAN_POINT('', (3.13616977080825E-15, 3.969, -69.9));
#38 = CARTESIAN_POINT('', (4.7625, 4.7625, -68.53));
#39 = CARTESIAN_POINT('', (3.969, 3.969, -69.9));
#40 = CARTESIAN_POINT('', (4.7625, 9.21696504191215E-17, -68.53));
#41 = CARTESIAN_POINT('', (3.969, -7.00448139882773E-16, -69.9));
#42 = CARTESIAN_POINT('', (4.7625, -4.7625, -68.53));
#43 = CARTESIAN_POINT('', (3.969, -3.969, -69.9));
#44 = CARTESIAN_POINT('', (-3.10100720924638E-16, -4.7625, -68.53));
#45 = CARTESIAN_POINT('', (-4.10833483575467E-17, -3.969, -69.9));
#46 = CARTESIAN_POINT('', (-4.7625, -4.7625, -68.53));
#47 = CARTESIAN_POINT('', (-3.969, -3.969, -69.9));
#48 = CARTESIAN_POINT('', (-4.7625, 4.48787127632537E-15, -68.53));
#49 = CARTESIAN_POINT('', (-3.969, 2.96286729386461E-15, -69.9));
#50 = ADVANCED_FACE('', (#51), #78, .T.);
#51 = FACE_OUTER_BOUND('', #52, .T.);
#52 = EDGE_LOOP('', (#53, #63, #70, #71));
#53 = ORIENTED_EDGE('', *, *, #54, .T.);
#54 = EDGE_CURVE('', #55, #57, #59, .T.);
#55 = VERTEX_POINT('', #56);
#56 = CARTESIAN_POINT('', (-4.7625, 3.20780920951659E-16, -0.476249999999993));
#57 = VERTEX_POINT('', #58);
#58 = CARTESIAN_POINT('', (-4.28625, 2.62457117142267E-16, 0.));
#59 = LINE('', #60, #61);
#60 = CARTESIAN_POINT('', (-4.7625, 3.2078092095166E-16, -0.476249999999993));
#61 = VECTOR('', #62, 0.673519209080182);
#62 = DIRECTION('', (0.47625, -5.8323803809393E-17, 0.476249999999993));
#63 = ORIENTED_EDGE('', *, *, #64, .T.);
#64 = EDGE_CURVE('', #57, #57, #65, .T.);
#65 = CIRCLE('', #66, 4.28625);
#66 = AXIS2_PLACEMENT_3D('', #67, #68, #69);
#67 = CARTESIAN_POINT('', (2.08166817117217E-16, 2.22044604925031E-15, 1.41748443906901E-31));
#68 = DIRECTION('', (5.09914260327735E-33, 6.12323399573676E-17, -1.));
#69 = DIRECTION('', (-1., -7.01736343115104E-16, -4.80681009253414E-32));
#70 = ORIENTED_EDGE('', *, *, #54, .F.);
#71 = ORIENTED_EDGE('', *, *, #72, .F.);
#72 = EDGE_CURVE('', #55, #55, #73, .T.);
#73 = CIRCLE('', #74, 4.76249999999998);
#74 = AXIS2_PLACEMENT_3D('', #75, #76, #77);
#75 = CARTESIAN_POINT('', (3.19189119579733E-16, -1.88737914186277E-15, -0.476249999999993));
#76 = DIRECTION('', (0., 0., -1.));
#77 = DIRECTION('', (-1., 4.63655656234002E-16, 0.));
#78 = (
   BOUNDED_SURFACE ()
   B_SPLINE_SURFACE (1, 2, ((#79, #80, #81, #82, #83, #84, #85, #86, #87), (#88, #89, #90, #91, #92, #93, #94, #95, #96)), .UNSPECIFIED., .F., .T., .U.)
   B_SPLINE_SURFACE_WITH_KNOTS ((2, 2), (3, 2, 2, 2, 3), (0., 1.), (0., 0.25, 0.5, 0.75, 1.), .UNSPECIFIED.)
   GEOMETRIC_REPRESENTATION_ITEM ()
   RATIONAL_B_SPLINE_SURFACE (((1., 0.707106781186548, 1., 0.707106781186548, 1., 0.707106781186548, 1., 0.707106781186548, 1.), (1., 0.707106781186548, 1., 0.707106781186548, 1., 0.707106781186548, 1., 0.707106781186548, 1.)))
   REPRESENTATION_ITEM ('')
   SURFACE ()
);
#79 = CARTESIAN_POINT('', (-4.7625, 1.85826706490691E-15, -0.476249999999993));
#80 = CARTESIAN_POINT('', (-4.7625, 4.7625, -0.476249999999981));
#81 = CARTESIAN_POINT('', (1.91359274105531E-15, 4.7625, -0.476249999999981));
#82 = CARTESIAN_POINT('', (4.7625, 4.7625, -0.476249999999981));
#83 = CARTESIAN_POINT('', (4.7625, -5.04978731053851E-15, -0.476249999999993));
#84 = CARTESIAN_POINT('', (4.7625, -4.76250000000001, -0.476250000000005));
#85 = CARTESIAN_POINT('', (-4.41122359629619E-15, -4.7625, -0.476250000000005));
#86 = CARTESIAN_POINT('', (-4.76250000000001, -4.7625, -0.476250000000005));
#87 = CARTESIAN_POINT('', (-4.7625, 1.85826706490691E-15, -0.476249999999993));
#88 = CARTESIAN_POINT('', (-4.28625, 2.62457117142269E-16, 1.09476442525376E-46));
#89 = CARTESIAN_POINT('', (-4.28625, 4.28625, 1.09912079437892E-14));
#90 = CARTESIAN_POINT('', (1.56819002228304E-15, 4.28625, 1.09912079437892E-14));
#91 = CARTESIAN_POINT('', (4.28625, 4.28625, 1.09912079437892E-14));
#92 = CARTESIAN_POINT('', (4.28625, -5.95479182075861E-15, 9.76256213390095E-31));
#93 = CARTESIAN_POINT('', (4.28625, -4.28625000000001, -1.09912079437892E-14));
#94 = CARTESIAN_POINT('', (-4.12414468133331E-15, -4.28625, -1.09912079437892E-14));
#95 = CARTESIAN_POINT('', (-4.28625000000001, -4.28625, -1.09912079437892E-14));
#96 = CARTESIAN_POINT('', (-4.28625, 2.62457117142269E-16, 1.09476442525376E-46));
#97 = ADVANCED_FACE('', (#98), #101, .T.);
#98 = FACE_OUTER_BOUND('', #99, .T.);
#99 = EDGE_LOOP('', (#100));
#100 = ORIENTED_EDGE('', *, *, #64, .F.);
#101 = B_SPLINE_SURFACE_WITH_KNOTS('', 1, 1, ((#102, #103), (#104, #105)), .UNSPECIFIED., .F., .F., .U., (2, 2), (2, 2), (2.38159016989385, 10.9540901698938), (2.38159016989385, 10.9540901698938), .UNSPECIFIED.);
#102 = CARTESIAN_POINT('', (4.28625, -4.28625, -2.62457117142263E-16));
#103 = CARTESIAN_POINT('', (-4.28625, -4.28625, -1.44733118323442E-14));
#104 = CARTESIAN_POINT('', (4.28625, 4.28625, 1.44733118323443E-14));
#105 = CARTESIAN_POINT('', (-4.28625, 4.28625, 2.62457117142297E-16));
#106 = ADVANCED_FACE('', (#107), #118, .T.);
#107 = FACE_OUTER_BOUND('', #108, .T.);
#108 = EDGE_LOOP('', (#109, #115, #116, #117));
#109 = ORIENTED_EDGE('', *, *, #110, .T.);
#110 = EDGE_CURVE('', #8, #55, #111, .T.);
#111 = LINE('', #112, #113);
#112 = CARTESIAN_POINT('', (-4.7625, 4.48787127632537E-15, -68.53));
#113 = VECTOR('', #114, 68.05375);
#114 = DIRECTION('', (0., -4.16709035537371E-15, 68.05375));
#115 = ORIENTED_EDGE('', *, *, #72, .T.);
#116 = ORIENTED_EDGE('', *, *, #110, .F.);
#117 = ORIENTED_EDGE('', *, *, #17, .F.);
#118 = (
   BOUNDED_SURFACE ()
   B_SPLINE_SURFACE (1, 2, ((#119, #120, #121, #122, #123, #124, #125, #126, #127), (#128, #129, #130, #131, #132, #133, #134, #135, #136)), .UNSPECIFIED., .F., .T., .U.)
   B_SPLINE_SURFACE_WITH_KNOTS ((2, 2), (3, 2, 2, 2, 3), (0., 1.), (0., 7.4809175063607, 14.9618350127214, 22.4427525190821, 29.9236700254428), .UNSPECIFIED.)
   GEOMETRIC_REPRESENTATION_ITEM ()
   RATIONAL_B_SPLINE_SURFACE (((1., 0.707106781186548, 1., 0.707106781186548, 1., 0.707106781186548, 1., 0.707106781186548, 1.), (1., 0.707106781186548, 1., 0.707106781186548, 1., 0.707106781186548, 1., 0.707106781186548, 1.)))
   REPRESENTATION_ITEM ('')
   SURFACE ()
);
#119 = CARTESIAN_POINT('', (-4.7625, 1.98611545788939E-15, -68.53));
#120 = CARTESIAN_POINT('', (-4.7625, 4.7625, -68.53));
#121 = CARTESIAN_POINT('', (2.26348573896282E-15, 4.7625, -68.53));
#122 = CARTESIAN_POINT('', (4.7625, 4.7625, -68.53));
#123 = CARTESIAN_POINT('', (4.7625, 3.73479419604783E-16, -68.53));
#124 = CARTESIAN_POINT('', (4.7625, -4.7625, -68.53));
#125 = CARTESIAN_POINT('', (1.23408773877214E-15, -4.7625, -68.53));
#126 = CARTESIAN_POINT('', (-4.7625, -4.7625, -68.53));
#127 = CARTESIAN_POINT('', (-4.7625, 1.98611545788939E-15, -68.53));
#128 = CARTESIAN_POINT('', (-4.7625, 3.2078092095166E-16, -0.476249999999993));
#129 = CARTESIAN_POINT('', (-4.7625, 4.7625, -0.476249999999993));
#130 = CARTESIAN_POINT('', (2.26348573896282E-15, 4.7625, -0.476249999999993));
#131 = CARTESIAN_POINT('', (4.7625, 4.7625, -0.476249999999993));
#132 = CARTESIAN_POINT('', (4.7625, -1.29185511733295E-15, -0.476249999999993));
#133 = CARTESIAN_POINT('', (4.7625, -4.7625, -0.476249999999993));
#134 = CARTESIAN_POINT('', (1.23408773877214E-15, -4.7625, -0.476249999999993));
#135 = CARTESIAN_POINT('', (-4.7625, -4.7625, -0.476249999999993));
#136 = CARTESIAN_POINT('', (-4.7625, 3.2078092095166E-16, -0.476249999999993));
#137 = ADVANCED_FACE('', (#138), #157, .T.);
#138 = FACE_OUTER_BOUND('', #139, .T.);
#139 = EDGE_LOOP('', (#140, #149, #155, #156));
#140 = ORIENTED_EDGE('', *, *, #141, .F.);
#141 = EDGE_CURVE('', #142, #142, #144, .T.);
#142 = VERTEX_POINT('', #143);
#143 = CARTESIAN_POINT('', (-3.969, 5.05466843114074E-15, -78.58));
#144 = CIRCLE('', #145, 3.969);
#145 = AXIS2_PLACEMENT_3D('', #146, #147, #148);
#146 = CARTESIAN_POINT('', (7.35522753814166E-16, -3.33066907387547E-16, -78.58));
#147 = DIRECTION('', (0., 0., -1.));
#148 = DIRECTION('', (-1., 1.35745410393759E-15, 0.));
#149 = ORIENTED_EDGE('', *, *, #150, .F.);
#150 = EDGE_CURVE('', #10, #142, #151, .T.);
#151 = LINE('', #152, #153);
#152 = CARTESIAN_POINT('', (-3.969, 4.52317172031079E-15, -69.9));
#153 = VECTOR('', #154, 8.67999999999999);
#154 = DIRECTION('', (0., 5.3149671082995E-16, -8.67999999999999));
#155 = ORIENTED_EDGE('', *, *, #25, .T.);
#156 = ORIENTED_EDGE('', *, *, #150, .T.);
#157 = (
   BOUNDED_SURFACE ()
   B_SPLINE_SURFACE (2, 1, ((#158, #159), (#160, #161), (#162, #163), (#164, #165), (#166, #167), (#168, #169), (#170, #171), (#172, #173), (#174, #175)), .UNSPECIFIED., .T., .F., .U.)
   B_SPLINE_SURFACE_WITH_KNOTS ((3, 2, 2, 2, 3), (2, 2), (0., 6.23449062104895, 12.4689812420979, 18.7034718631468, 24.9379624841958), (0., 0.199055175893226), .UNSPECIFIED.)
   GEOMETRIC_REPRESENTATION_ITEM ()
   RATIONAL_B_SPLINE_SURFACE (((1., 1.), (0.707106781186548, 0.707106781186548), (1., 1.), (0.707106781186548, 0.707106781186548), (1., 1.), (0.707106781186548, 0.707106781186548), (1., 1.), (0.707106781186548, 0.707106781186548), (1., 1.)))
   REPRESENTATION_ITEM ('')
   SURFACE ()
);
#158 = CARTESIAN_POINT('', (-3.969, 4.52317172031079E-15, -69.9));
#159 = CARTESIAN_POINT('', (-3.969, 3.07988178829809E-15, -78.58));
#160 = CARTESIAN_POINT('', (-3.969, 3.969, -69.9));
#161 = CARTESIAN_POINT('', (-3.969, 3.969, -78.58));
#162 = CARTESIAN_POINT('', (2.69807275292915E-15, 3.969, -69.9));
#163 = CARTESIAN_POINT('', (2.69807275292915E-15, 3.969, -78.58));
#164 = CARTESIAN_POINT('', (3.969, 3.969, -69.9));
#165 = CARTESIAN_POINT('', (3.969, 3.969, -78.58));
#166 = CARTESIAN_POINT('', (3.969, -7.06440331853736E-16, -69.9));
#167 = CARTESIAN_POINT('', (3.969, -2.14973026386644E-15, -78.58));
#168 = CARTESIAN_POINT('', (3.969, -3.969, -69.9));
#169 = CARTESIAN_POINT('', (3.969, -3.969, -78.58));
#170 = CARTESIAN_POINT('', (-2.04547698465379E-15, -3.969, -69.9));
#171 = CARTESIAN_POINT('', (-2.04547698465379E-15, -3.969, -78.58));
#172 = CARTESIAN_POINT('', (-3.969, -3.969, -69.9));
#173 = CARTESIAN_POINT('', (-3.969, -3.969, -78.58));
#174 = CARTESIAN_POINT('', (-3.969, 4.52317172031079E-15, -69.9));
#175 = CARTESIAN_POINT('', (-3.969, 3.07988178829809E-15, -78.58));
#176 = ADVANCED_FACE('', (#177), #180, .T.);
#177 = FACE_OUTER_BOUND('', #178, .T.);
#178 = EDGE_LOOP('', (#179));
#179 = ORIENTED_EDGE('', *, *, #141, .T.);
#180 = B_SPLINE_SURFACE_WITH_KNOTS('', 1, 1, ((#181, #182), (#183, #184)), .UNSPECIFIED., .F., .F., .U., (2, 2), (2, 2), (112.907851553875, 120.845851553875), (109.336183512288, 117.274183512288), .UNSPECIFIED.);
#181 = CARTESIAN_POINT('', (-3.96899999999999, 3.96899999999999, -78.58));
#182 = CARTESIAN_POINT('', (-3.96899999999999, -3.96899999999999, -78.58));
#183 = CARTESIAN_POINT('', (3.969, 3.96899999999999, -78.58));
#184 = CARTESIAN_POINT('', (3.969, -3.96899999999999, -78.58));
#185 = DRAUGHTING_MODEL('', (#193, #317, #365, #370, #375, #380, #385, #390), #404);
#186 = PRESENTATION_STYLE_ASSIGNMENT((#187));
#187 = SURFACE_STYLE_USAGE(.POSITIVE., #188);
#188 = SURFACE_SIDE_STYLE('', (#189));
#189 = SURFACE_STYLE_FILL_AREA(#190);
#190 = FILL_AREA_STYLE('', (#191));
#191 = FILL_AREA_STYLE_COLOUR('', #192);
#192 = COLOUR_RGB('', 0.50196078431373, 0.50196078431373, 0.50196078431373);
#193 = STYLED_ITEM('', (#186), #1);
#194 = MANIFOLD_SOLID_BREP('CUT', #195);
#195 = CLOSED_SHELL('', (#196, #213, #252, #301));
#196 = ADVANCED_FACE('', (#197), #208, .T.);
#197 = FACE_OUTER_BOUND('', #198, .T.);
#198 = EDGE_LOOP('', (#199));
#199 = ORIENTED_EDGE('', *, *, #200, .F.);
#200 = EDGE_CURVE('', #201, #201, #203, .T.);
#201 = VERTEX_POINT('', #202);
#202 = CARTESIAN_POINT('', (-3.969, 5.05466843114074E-15, -78.58));
#203 = CIRCLE('', #204, 3.969);
#204 = AXIS2_PLACEMENT_3D('', #205, #206, #207);
#205 = CARTESIAN_POINT('', (7.35522753814166E-16, -3.33066907387547E-16, -78.58));
#206 = DIRECTION('', (0., 0., -1.));
#207 = DIRECTION('', (-1., 1.35745410393759E-15, 0.));
#208 = B_SPLINE_SURFACE_WITH_KNOTS('', 1, 1, ((#209, #210), (#211, #212)), .UNSPECIFIED., .F., .F., .U., (2, 2), (2, 2), (109.336183512288, 117.274183512288), (112.907851553875, 120.845851553875), .UNSPECIFIED.);
#209 = CARTESIAN_POINT('', (-3.96899999999999, 3.96899999999999, -78.58));
#210 = CARTESIAN_POINT('', (3.96899999999999, 3.96899999999999, -78.58));
#211 = CARTESIAN_POINT('', (-3.96899999999999, -3.969, -78.58));
#212 = CARTESIAN_POINT('', (3.96899999999999, -3.969, -78.58));
#213 = ADVANCED_FACE('', (#214), #233, .T.);
#214 = FACE_OUTER_BOUND('', #215, .T.);
#215 = EDGE_LOOP('', (#216, #217, #225, #232));
#216 = ORIENTED_EDGE('', *, *, #200, .T.);
#217 = ORIENTED_EDGE('', *, *, #218, .T.);
#218 = EDGE_CURVE('', #201, #219, #221, .T.);
#219 = VERTEX_POINT('', #220);
#220 = CARTESIAN_POINT('', (-3.969, 7.19326913649177E-15, -113.506));
#221 = LINE('', #222, #223);
#222 = CARTESIAN_POINT('', (-3.969, 5.05466843114074E-15, -78.58));
#223 = VECTOR('', #224, 34.926);
#224 = DIRECTION('', (0., 2.13860070535103E-15, -34.926));
#225 = ORIENTED_EDGE('', *, *, #226, .F.);
#226 = EDGE_CURVE('', #219, #219, #227, .T.);
#227 = CIRCLE('', #228, 3.96899999999999);
#228 = AXIS2_PLACEMENT_3D('', #229, #230, #231);
#229 = CARTESIAN_POINT('', (-4.9960036108132E-16, 8.10462807976364E-15, -113.506));
#230 = DIRECTION('', (2.79819530757349E-30, -1.21862382080625E-14, -1.));
#231 = DIRECTION('', (-1., -2.2961928527888E-16, 0.));
#232 = ORIENTED_EDGE('', *, *, #218, .F.);
#233 = (
   BOUNDED_SURFACE ()
   B_SPLINE_SURFACE (2, 1, ((#234, #235), (#236, #237), (#238, #239), (#240, #241), (#242, #243), (#244, #245), (#246, #247), (#248, #249), (#250, #251)), .UNSPECIFIED., .T., .F., .U.)
   B_SPLINE_SURFACE_WITH_KNOTS ((3, 2, 2, 2, 3), (2, 2), (0., 6.23449062104895, 12.4689812420979, 18.7034718631468, 24.9379624841958), (0.199055175893226, 1.), .UNSPECIFIED.)
   GEOMETRIC_REPRESENTATION_ITEM ()
   RATIONAL_B_SPLINE_SURFACE (((1., 1.), (0.707106781186548, 0.707106781186548), (1., 1.), (0.707106781186548, 0.707106781186548), (1., 1.), (0.707106781186548, 0.707106781186548), (1., 1.), (0.707106781186548, 0.707106781186548), (1., 1.)))
   REPRESENTATION_ITEM ('')
   SURFACE ()
);
#234 = CARTESIAN_POINT('', (-3.969, 5.05466843114074E-15, -78.58));
#235 = CARTESIAN_POINT('', (-3.969, 1.21600957887417E-14, -113.506));
#236 = CARTESIAN_POINT('', (-3.96899999999999, 3.969, -78.58));
#237 = CARTESIAN_POINT('', (-3.96899999999999, 3.96900000000001, -113.506));
#238 = CARTESIAN_POINT('', (4.43693700303896E-15, 3.969, -78.58));
#239 = CARTESIAN_POINT('', (4.43693700303897E-15, 3.96900000000001, -113.506));
#240 = CARTESIAN_POINT('', (3.969, 3.969, -78.58));
#241 = CARTESIAN_POINT('', (3.969, 3.969, -113.506));
#242 = CARTESIAN_POINT('', (3.969, -4.12451690670909E-15, -78.58));
#243 = CARTESIAN_POINT('', (3.969, 2.98091045089191E-15, -113.506));
#244 = CARTESIAN_POINT('', (3.969, -3.969, -78.58));
#245 = CARTESIAN_POINT('', (3.969, -3.969, -113.506));
#246 = CARTESIAN_POINT('', (-4.25618602022929E-15, -3.969, -78.58));
#247 = CARTESIAN_POINT('', (-4.25618602022928E-15, -3.96899999999999, -113.506));
#248 = CARTESIAN_POINT('', (-3.969, -3.969, -78.58));
#249 = CARTESIAN_POINT('', (-3.969, -3.96899999999999, -113.506));
#250 = CARTESIAN_POINT('', (-3.969, 5.05466843114074E-15, -78.58));
#251 = CARTESIAN_POINT('', (-3.969, 1.21600957887417E-14, -113.506));
#252 = ADVANCED_FACE('', (#253), #273, .T.);
#253 = FACE_OUTER_BOUND('', #254, .T.);
#254 = EDGE_LOOP('', (#255, #264, #265, #266));
#255 = ORIENTED_EDGE('', *, *, #256, .F.);
#256 = EDGE_CURVE('', #219, #257, #259, .T.);
#257 = VERTEX_POINT('', #258);
#258 = CARTESIAN_POINT('', (-3.175, 7.19326913649177E-15, -114.3));
#259 = CIRCLE('', #260, 0.793999999999954);
#260 = AXIS2_PLACEMENT_3D('', #261, #262, #263);
#261 = CARTESIAN_POINT('', (-3.17500000000005, 7.14465065856563E-15, -113.506));
#262 = DIRECTION('', (-6.12323399573626E-17, -1., -6.12323399573646E-17));
#263 = DIRECTION('', (-1., 6.12323399573604E-17, 3.57956038166318E-14));
#264 = ORIENTED_EDGE('', *, *, #226, .T.);
#265 = ORIENTED_EDGE('', *, *, #256, .T.);
#266 = ORIENTED_EDGE('', *, *, #267, .F.);
#267 = EDGE_CURVE('', #257, #257, #268, .T.);
#268 = CIRCLE('', #269, 3.175);
#269 = AXIS2_PLACEMENT_3D('', #270, #271, #272);
#270 = CARTESIAN_POINT('', (1.19348975147204E-15, 9.93649607039515E-15, -114.3));
#271 = DIRECTION('', (0., 0., -1.));
#272 = DIRECTION('', (-1., -8.64008483119175E-16, 0.));
#273 = (
   BOUNDED_SURFACE ()
   B_SPLINE_SURFACE (2, 2, ((#274, #275, #276), (#277, #278, #279), (#280, #281, #282), (#283, #284, #285), (#286, #287, #288), (#289, #290, #291), (#292, #293, #294), (#295, #296, #297), (#298, #299, #300)), .UNSPECIFIED., .T., .F., .U.)
   B_SPLINE_SURFACE_WITH_KNOTS ((3, 2, 2, 2, 3), (3, 3), (0., 0.25, 0.5, 0.75, 1.), (0., 1.), .UNSPECIFIED.)
   GEOMETRIC_REPRESENTATION_ITEM ()
   RATIONAL_B_SPLINE_SURFACE (((1., 0.707106781186547, 1.), (0.707106781186548, 0.5, 0.707106781186548), (1., 0.707106781186547, 1.), (0.707106781186548, 0.5, 0.707106781186548), (1., 0.707106781186547, 1.), (0.707106781186548, 0.5, 0.707106781186548), (1., 0.707106781186547, 1.), (0.707106781186548, 0.5, 0.707106781186548), (1., 0.707106781186547, 1.)))
   REPRESENTATION_ITEM ('')
   SURFACE ()
);
#274 = CARTESIAN_POINT('', (-3.969, 7.19326913649177E-15, -113.506));
#275 = CARTESIAN_POINT('', (-3.969, 7.24188761441792E-15, -114.3));
#276 = CARTESIAN_POINT('', (-3.175, 7.19326913649177E-15, -114.3));
#277 = CARTESIAN_POINT('', (-3.969, 3.96900000000001, -113.506));
#278 = CARTESIAN_POINT('', (-3.969, 3.96900000000001, -114.3));
#279 = CARTESIAN_POINT('', (-3.175, 3.17500000000001, -114.3));
#280 = CARTESIAN_POINT('', (-1.30704576644862E-15, 3.96900000000001, -113.506));
#281 = CARTESIAN_POINT('', (-1.25842728852247E-15, 3.96900000000001, -114.3));
#282 = CARTESIAN_POINT('', (-1.25842728852247E-15, 3.17500000000001, -114.3));
#283 = CARTESIAN_POINT('', (3.969, 3.96900000000001, -113.506));
#284 = CARTESIAN_POINT('', (3.969, 3.96900000000001, -114.3));
#285 = CARTESIAN_POINT('', (3.175, 3.17500000000001, -114.3));
#286 = CARTESIAN_POINT('', (3.969, 8.83591552284201E-15, -113.506));
#287 = CARTESIAN_POINT('', (3.969, 8.78729704491586E-15, -114.3));
#288 = CARTESIAN_POINT('', (3.175, 8.73867856698971E-15, -114.3));
#289 = CARTESIAN_POINT('', (3.969, -3.96899999999999, -113.506));
#290 = CARTESIAN_POINT('', (3.969, -3.96899999999999, -114.3));
#291 = CARTESIAN_POINT('', (3.175, -3.17499999999999, -114.3));
#292 = CARTESIAN_POINT('', (8.21662934483196E-16, -3.96899999999999, -113.506));
#293 = CARTESIAN_POINT('', (7.73044456557047E-16, -3.96899999999999, -114.3));
#294 = CARTESIAN_POINT('', (6.75807500704746E-16, -3.17499999999999, -114.3));
#295 = CARTESIAN_POINT('', (-3.969, -3.96899999999999, -113.506));
#296 = CARTESIAN_POINT('', (-3.969, -3.96899999999999, -114.3));
#297 = CARTESIAN_POINT('', (-3.175, -3.17499999999999, -114.3));
#298 = CARTESIAN_POINT('', (-3.969, 7.19326913649177E-15, -113.506));
#299 = CARTESIAN_POINT('', (-3.969, 7.24188761441792E-15, -114.3));
#300 = CARTESIAN_POINT('', (-3.175, 7.19326913649177E-15, -114.3));
#301 = ADVANCED_FACE('', (#302), #305, .T.);
#302 = FACE_OUTER_BOUND('', #303, .T.);
#303 = EDGE_LOOP('', (#304));
#304 = ORIENTED_EDGE('', *, *, #267, .T.);
#305 = B_SPLINE_SURFACE_WITH_KNOTS('', 1, 1, ((#306, #307), (#308, #309)), .UNSPECIFIED., .F., .F., .U., (2, 2), (2, 2), (1.76414086658804, 8.11414086658804), (1.76414086658804, 8.11414086658804), .UNSPECIFIED.);
#306 = CARTESIAN_POINT('', (3.175, -3.17499999999999, -114.3));
#307 = CARTESIAN_POINT('', (3.175, 3.17500000000001, -114.3));
#308 = CARTESIAN_POINT('', (-3.175, -3.17499999999999, -114.3));
#309 = CARTESIAN_POINT('', (-3.175, 3.17500000000001, -114.3));
#310 = PRESENTATION_STYLE_ASSIGNMENT((#311));
#311 = SURFACE_STYLE_USAGE(.POSITIVE., #312);
#312 = SURFACE_SIDE_STYLE('', (#313));
#313 = SURFACE_STYLE_FILL_AREA(#314);
#314 = FILL_AREA_STYLE('', (#315));
#315 = FILL_AREA_STYLE_COLOUR('', #316);
#316 = COLOUR_RGB('', 0.8, 0.8, 0.8);
#317 = STYLED_ITEM('', (#310), #194);
#318 = TRIMMED_CURVE('cutting part line', #319, (#323), (#324), .T., .CARTESIAN.);
#319 = LINE('', #320, #321);
#320 = CARTESIAN_POINT('', (-8.83883427911766E-31, -4.81163727384995E-15, -78.58));
#321 = VECTOR('', #322, 3.969);
#322 = DIRECTION('', (3.969, -7.29093471872374E-16, 0.));
#323 = CARTESIAN_POINT('', (-8.83883427911766E-31, -4.81163727384995E-15, -78.58));
#324 = CARTESIAN_POINT('', (3.969, -5.54073074572232E-15, -78.58));
#325 = TRIMMED_CURVE('cutting part line', #326, (#330), (#331), .T., .CARTESIAN.);
#326 = LINE('', #327, #328);
#327 = CARTESIAN_POINT('', (3.969, -5.54073074572232E-15, -78.58));
#328 = VECTOR('', #329, 34.926);
#329 = DIRECTION('', (0., -2.13860070535103E-15, -34.926));
#330 = CARTESIAN_POINT('', (3.969, -5.54073074572232E-15, -78.58));
#331 = CARTESIAN_POINT('', (3.969, -7.67933145107335E-15, -113.506));
#332 = TRIMMED_CURVE('cutting part line', #333, (#338), (#339), .T., .CARTESIAN.);
#333 = CIRCLE('', #334, 0.79399999999998);
#334 = AXIS2_PLACEMENT_3D('', #335, #336, #337);
#335 = CARTESIAN_POINT('', (3.17500000000001, -7.53347601729491E-15, -113.506));
#336 = DIRECTION('', (1.83697019872106E-16, 1., -6.12323399573696E-17));
#337 = DIRECTION('', (1., -1.83697019872105E-16, 1.78978019083151E-14));
#338 = CARTESIAN_POINT('', (3.96899999999999, -7.67933145107335E-15, -113.506));
#339 = CARTESIAN_POINT('', (3.175, -7.58209449522105E-15, -114.3));
#340 = TRIMMED_CURVE('cutting part line', #341, (#345), (#346), .T., .CARTESIAN.);
#341 = LINE('', #342, #343);
#342 = CARTESIAN_POINT('', (3.175, -7.58209449522105E-15, -114.3));
#343 = VECTOR('', #344, 3.175);
#344 = DIRECTION('', (-3.175, 5.83238038093935E-16, 0.));
#345 = CARTESIAN_POINT('', (3.175, -7.58209449522105E-15, -114.3));
#346 = CARTESIAN_POINT('', (-8.57112715791251E-31, -6.99885645712712E-15, -114.3));
#347 = TRIMMED_CURVE('cutting part line', #348, (#352), (#353), .T., .CARTESIAN.);
#348 = LINE('', #349, #350);
#349 = CARTESIAN_POINT('', (-1.28566907368688E-30, -6.99885645712712E-15, -114.3));
#350 = VECTOR('', #351, 35.72);
#351 = DIRECTION('', (4.01785645775111E-31, 2.18721918327717E-15, 35.72));
#352 = CARTESIAN_POINT('', (-1.28566907368688E-30, -6.99885645712712E-15, -114.3));
#353 = CARTESIAN_POINT('', (-8.83883427911766E-31, -4.81163727384995E-15, -78.58));
#354 = COMPOSITE_CURVE('cutting part line', (#355, #356, #357, #358, #359), .U.);
#355 = COMPOSITE_CURVE_SEGMENT(.CONTINUOUS., .T., #318);
#356 = COMPOSITE_CURVE_SEGMENT(.CONTINUOUS., .T., #325);
#357 = COMPOSITE_CURVE_SEGMENT(.CONTINUOUS., .T., #332);
#358 = COMPOSITE_CURVE_SEGMENT(.CONTINUOUS., .T., #340);
#359 = COMPOSITE_CURVE_SEGMENT(.CONTINUOUS., .T., #347);
#360 = GEOMETRIC_SET('', (#354, #403));
#361 = PRESENTATION_STYLE_ASSIGNMENT((#362));
#362 = CURVE_STYLE('', #364, POSITIVE_LENGTH_MEASURE(1.E-6), #363);
#363 = COLOUR_RGB('', 0., 0., 1.);
#364 = DRAUGHTING_PRE_DEFINED_CURVE_FONT('continuous');
#365 = STYLED_ITEM('', (#361), #354);
#366 = PRESENTATION_STYLE_ASSIGNMENT((#367));
#367 = CURVE_STYLE('', #369, POSITIVE_LENGTH_MEASURE(1.E-6), #368);
#368 = COLOUR_RGB('', 0., 0., 1.);
#369 = DRAUGHTING_PRE_DEFINED_CURVE_FONT('continuous');
#370 = OVER_RIDING_STYLED_ITEM('', (#366), #318, #365);
#371 = PRESENTATION_STYLE_ASSIGNMENT((#372));
#372 = CURVE_STYLE('', #374, POSITIVE_LENGTH_MEASURE(1.E-6), #373);
#373 = COLOUR_RGB('', 0., 0., 1.);
#374 = DRAUGHTING_PRE_DEFINED_CURVE_FONT('continuous');
#375 = OVER_RIDING_STYLED_ITEM('', (#371), #325, #365);
#376 = PRESENTATION_STYLE_ASSIGNMENT((#377));
#377 = CURVE_STYLE('', #379, POSITIVE_LENGTH_MEASURE(1.E-6), #378);
#378 = COLOUR_RGB('', 0., 0., 1.);
#379 = DRAUGHTING_PRE_DEFINED_CURVE_FONT('continuous');
#380 = OVER_RIDING_STYLED_ITEM('', (#376), #332, #365);
#381 = PRESENTATION_STYLE_ASSIGNMENT((#382));
#382 = CURVE_STYLE('', #384, POSITIVE_LENGTH_MEASURE(1.E-6), #383);
#383 = COLOUR_RGB('', 0., 0., 1.);
#384 = DRAUGHTING_PRE_DEFINED_CURVE_FONT('continuous');
#385 = OVER_RIDING_STYLED_ITEM('', (#381), #340, #365);
#386 = PRESENTATION_STYLE_ASSIGNMENT((#387));
#387 = CURVE_STYLE('', #389, POSITIVE_LENGTH_MEASURE(1.E-6), #388);
#388 = COLOUR_RGB('', 0., 0., 1.);
#389 = DRAUGHTING_PRE_DEFINED_CURVE_FONT('continuous');
#390 = OVER_RIDING_STYLED_ITEM('', (#386), #347, #365);
#391 = AXIS2_PLACEMENT_3D('CIP', #392, #393, #394);
#392 = CARTESIAN_POINT('', (4.28556357895626E-31, 6.99885645712712E-15, -114.3));
#393 = DIRECTION('', (-3.74939945665465E-33, -6.12323399573677E-17, 1.));
#394 = DIRECTION('', (1., -6.12323399573677E-17, 0.));
#395 = AXIS2_PLACEMENT_3D('MCS', #396, #397, #398);
#396 = CARTESIAN_POINT('', (1.34978380439567E-31, 2.20436423846524E-15, -36.));
#397 = DIRECTION('', (-3.74939945665465E-33, -6.12323399573677E-17, 1.));
#398 = DIRECTION('', (1., -6.12323399573677E-17, 0.));
#399 = AXIS2_PLACEMENT_3D('PCS', #400, #401, #402);
#400 = CARTESIAN_POINT('', (0., 0., 0.));
#401 = DIRECTION('', (0., 0., 1.));
#402 = DIRECTION('', (1., 0., 0.));
#403 = CARTESIAN_POINT('CRP', (3.969, 0., -114.3));
#404 = (
   GEOMETRIC_REPRESENTATION_CONTEXT (3)
   GLOBAL_UNCERTAINTY_ASSIGNED_CONTEXT ((#406))
   GLOBAL_UNIT_ASSIGNED_CONTEXT ((#405, #407, #408))
   REPRESENTATION_CONTEXT ('', '3D')
);
#405 = (
   LENGTH_UNIT ()
   NAMED_UNIT (*)
   SI_UNIT (.MILLI., .METRE.)
);
#406 = UNCERTAINTY_MEASURE_WITH_UNIT(LENGTH_MEASURE(1.E-6), #405, 'DISTANCE_ACCURACY_VALUE', '');
#407 = (
   NAMED_UNIT (*)
   SI_UNIT ($, .STERADIAN.)
   SOLID_ANGLE_UNIT ()
);
#408 = (
   NAMED_UNIT (*)
   PLANE_ANGLE_UNIT ()
   SI_UNIT ($, .RADIAN.)
);
#409 = SHAPE_REPRESENTATION('', (), #404);
#410 = PRODUCT_DEFINITION_SHAPE('', '', #411);
#411 = PRODUCT_DEFINITION('', '', #414, #418);
#412 = APPLICATION_CONTEXT('configuration controlled 3D designs of mechanical parts and assemblies');
#413 = APPLICATION_PROTOCOL_DEFINITION('International Standard', 'automotive_design', 2002, #412);
#414 = PRODUCT_DEFINITION_FORMATION_WITH_SPECIFIED_SOURCE('', '', #415, .NOT_KNOWN.);
#415 = PRODUCT('EmptyName', 'EmptyName', '', (#416));
#416 = PRODUCT_CONTEXT('', #412, 'mechanical');
#417 = PRODUCT_RELATED_PRODUCT_CATEGORY('detail', '', (#415));
#418 = PRODUCT_DEFINITION_CONTEXT('part definition', #412, 'design');
#419 = SHAPE_DEFINITION_REPRESENTATION(#410, #409);
#420 = CONSTRUCTIVE_GEOMETRY_REPRESENTATION('supplemental geometry', (#391, #395, #399), #404);
#421 = CONSTRUCTIVE_GEOMETRY_REPRESENTATION_RELATIONSHIP('', '', #409, #420);
#422 = SHAPE_REPRESENTATION_RELATIONSHIP('', '', #409, #423);
#423 = SHAPE_REPRESENTATION('', (#360), #404);
#424 = SHAPE_REPRESENTATION_RELATIONSHIP('', '', #409, #425);
#425 = ADVANCED_BREP_SHAPE_REPRESENTATION('', (#1, #194), #404);
ENDSEC;
END-ISO-10303-21;
