ISO-10303-21;
HEADER;
FILE_DESCRIPTION(('STEP'), '1');
FILE_NAME('C:\\Users\\ds2002\\OneDrive - Sandvik\\HomeShare\\Documents\\Batchrepair\\CorSRT2\\NEW_MILSQ_SLD\\Output\\MOD000000000000000020084946600000.stp', '2019-01-02T12:07:53', (''), (''), 'Express v3.0.0.0', 'Express Tool', 'Unknown');
FILE_SCHEMA(('AUTOMOTIVE_DESIGN'));
ENDSEC;

DATA;
#1 = MANIFOLD_SOLID_BREP('NOCUT', #2);
#2 = CLOSED_SHELL('', (#3, #50, #97, #106, #137, #176));
#3 = ADVANCED_FACE('', (#4), #31, .T.);
#4 = FACE_OUTER_BOUND('', #5, .T.);
#5 = EDGE_LOOP('', (#6, #16, #23, #24));
#6 = ORIENTED_EDGE('', *, *, #7, .F.);
#7 = EDGE_CURVE('', #8, #10, #12, .T.);
#8 = VERTEX_POINT('', #9);
#9 = CARTESIAN_POINT('', (-3.175, 3.61117724898576E-15, -55.8));
#10 = VERTEX_POINT('', #11);
#11 = CARTESIAN_POINT('', (-2.3815, 3.64709001637075E-15, -57.18));
#12 = LINE('', #13, #14);
#13 = CARTESIAN_POINT('', (-3.175, 3.61117724898576E-15, -55.8));
#14 = VECTOR('', #15, 1.59186753531819);
#15 = DIRECTION('', (0.7935, 3.59127673849897E-17, -1.38));
#16 = ORIENTED_EDGE('', *, *, #17, .T.);
#17 = EDGE_CURVE('', #8, #8, #18, .T.);
#18 = CIRCLE('', #19, 3.175);
#19 = AXIS2_PLACEMENT_3D('', #20, #21, #22);
#20 = CARTESIAN_POINT('', (5.82867087928207E-16, 2.60902410786912E-15, -55.8));
#21 = DIRECTION('', (0., 0., -1.));
#22 = DIRECTION('', (-1., 3.15638784603667E-16, 0.));
#23 = ORIENTED_EDGE('', *, *, #7, .T.);
#24 = ORIENTED_EDGE('', *, *, #25, .F.);
#25 = EDGE_CURVE('', #10, #10, #26, .T.);
#26 = CIRCLE('', #27, 2.3815);
#27 = AXIS2_PLACEMENT_3D('', #28, #29, #30);
#28 = CARTESIAN_POINT('', (8.60422844084496E-16, 1.60982338570648E-15, -57.18));
#29 = DIRECTION('', (0., 0., -1.));
#30 = DIRECTION('', (-1., 8.55455230176054E-16, 0.));
#31 = (
   BOUNDED_SURFACE ()
   B_SPLINE_SURFACE (2, 1, ((#32, #33), (#34, #35), (#36, #37), (#38, #39), (#40, #41), (#42, #43), (#44, #45), (#46, #47), (#48, #49)), .UNSPECIFIED., .T., .F., .U.)
   B_SPLINE_SURFACE_WITH_KNOTS ((3, 2, 2, 2, 3), (2, 2), (0., 0.25, 0.5, 0.75, 1.), (0., 1.), .UNSPECIFIED.)
   GEOMETRIC_REPRESENTATION_ITEM ()
   RATIONAL_B_SPLINE_SURFACE (((1., 1.), (0.707106781186548, 0.707106781186548), (1., 1.), (0.707106781186548, 0.707106781186548), (1., 1.), (0.707106781186548, 0.707106781186548), (1., 1.), (0.707106781186548, 0.707106781186548), (1., 1.)))
   REPRESENTATION_ITEM ('')
   SURFACE ()
);
#32 = CARTESIAN_POINT('', (-3.175, 3.61117724898576E-15, -55.8));
#33 = CARTESIAN_POINT('', (-2.3815, 4.22139423298106E-15, -57.18));
#34 = CARTESIAN_POINT('', (-3.175, 3.175, -55.8));
#35 = CARTESIAN_POINT('', (-2.3815, 2.3815, -57.18));
#36 = CARTESIAN_POINT('', (4.47147644301502E-15, 3.175, -55.8));
#37 = CARTESIAN_POINT('', (3.46494675182875E-15, 2.3815, -57.18));
#38 = CARTESIAN_POINT('', (3.175, 3.175, -55.8));
#39 = CARTESIAN_POINT('', (2.3815, 2.3815, -57.18));
#40 = CARTESIAN_POINT('', (3.175, -4.44359721734415E-15, -55.8));
#41 = CARTESIAN_POINT('', (2.3815, -1.82032085097632E-15, -57.18));
#42 = CARTESIAN_POINT('', (3.175, -3.175, -55.8));
#43 = CARTESIAN_POINT('', (2.3815, -2.3815, -57.18));
#44 = CARTESIAN_POINT('', (-3.19447266458561E-15, -3.175, -55.8));
#45 = CARTESIAN_POINT('', (-2.28511869691168E-15, -2.3815, -57.18));
#46 = CARTESIAN_POINT('', (-3.175, -3.175, -55.8));
#47 = CARTESIAN_POINT('', (-2.3815, -2.3815, -57.18));
#48 = CARTESIAN_POINT('', (-3.175, 3.61117724898576E-15, -55.8));
#49 = CARTESIAN_POINT('', (-2.3815, 4.22139423298106E-15, -57.18));
#50 = ADVANCED_FACE('', (#51), #78, .T.);
#51 = FACE_OUTER_BOUND('', #52, .T.);
#52 = EDGE_LOOP('', (#53, #63, #70, #71));
#53 = ORIENTED_EDGE('', *, *, #54, .T.);
#54 = EDGE_CURVE('', #55, #57, #59, .T.);
#55 = VERTEX_POINT('', #56);
#56 = CARTESIAN_POINT('', (-3.175, 2.13853947301107E-16, -0.317500000000003));
#57 = VERTEX_POINT('', #58);
#58 = CARTESIAN_POINT('', (-2.8575, 1.74971411428178E-16, 0.));
#59 = LINE('', #60, #61);
#60 = CARTESIAN_POINT('', (-3.175, 2.13853947301107E-16, -0.317500000000003));
#61 = VECTOR('', #62, 0.44901280605346);
#62 = DIRECTION('', (0.3175, -3.8882535872929E-17, 0.317500000000003));
#63 = ORIENTED_EDGE('', *, *, #64, .T.);
#64 = EDGE_CURVE('', #57, #57, #65, .T.);
#65 = CIRCLE('', #66, 2.8575);
#66 = AXIS2_PLACEMENT_3D('', #67, #68, #69);
#67 = CARTESIAN_POINT('', (-3.46944695195361E-16, -6.66133814775094E-16, -2.77333911991762E-32));
#68 = DIRECTION('', (8.31826769960494E-33, 6.12323399573676E-17, -1.));
#69 = DIRECTION('', (-1., 2.94350035416718E-16, 9.70547373549474E-33));
#70 = ORIENTED_EDGE('', *, *, #54, .F.);
#71 = ORIENTED_EDGE('', *, *, #72, .F.);
#72 = EDGE_CURVE('', #55, #55, #73, .T.);
#73 = CIRCLE('', #74, 3.17500000000001);
#74 = AXIS2_PLACEMENT_3D('', #75, #76, #77);
#75 = CARTESIAN_POINT('', (5.41233724504764E-16, 4.9960036108132E-16, -0.317500000000003));
#76 = DIRECTION('', (5.24514814783537E-17, 7.87931949724616E-18, -1.));
#77 = DIRECTION('', (-1., -3.34928230311427E-16, -5.24514814783537E-17));
#78 = (
   BOUNDED_SURFACE ()
   B_SPLINE_SURFACE (1, 2, ((#79, #80, #81, #82, #83, #84, #85, #86, #87), (#88, #89, #90, #91, #92, #93, #94, #95, #96)), .UNSPECIFIED., .F., .T., .U.)
   B_SPLINE_SURFACE_WITH_KNOTS ((2, 2), (3, 2, 2, 2, 3), (0., 1.), (0., 0.25, 0.5, 0.75, 1.), .UNSPECIFIED.)
   GEOMETRIC_REPRESENTATION_ITEM ()
   RATIONAL_B_SPLINE_SURFACE (((1., 0.707106781186548, 1., 0.707106781186548, 1., 0.707106781186548, 1., 0.707106781186548, 1.), (1., 0.707106781186548, 1., 0.707106781186548, 1., 0.707106781186548, 1., 0.707106781186548, 1.)))
   REPRESENTATION_ITEM ('')
   SURFACE ()
);
#79 = CARTESIAN_POINT('', (-3.175, -6.87597834643122E-16, -0.317500000000003));
#80 = CARTESIAN_POINT('', (-3.175, 3.175, -0.317500000000012));
#81 = CARTESIAN_POINT('', (1.74089138166917E-15, 3.175, -0.317500000000012));
#82 = CARTESIAN_POINT('', (3.175, 3.175, -0.317500000000012));
#83 = CARTESIAN_POINT('', (3.175, -1.92117897311552E-15, -0.317500000000003));
#84 = CARTESIAN_POINT('', (3.175, -3.175, -0.317499999999993));
#85 = CARTESIAN_POINT('', (8.96135601926058E-16, -3.175, -0.317499999999993));
#86 = CARTESIAN_POINT('', (-3.175, -3.175, -0.317499999999993));
#87 = CARTESIAN_POINT('', (-3.175, -6.87597834643122E-16, -0.317500000000003));
#88 = CARTESIAN_POINT('', (-2.8575, 1.74971411428178E-16, 0.));
#89 = CARTESIAN_POINT('', (-2.8575, 2.8575, -8.49320613838237E-15));
#90 = CARTESIAN_POINT('', (1.67921232474555E-15, 2.8575, -8.49320613838237E-15));
#91 = CARTESIAN_POINT('', (2.8575, 2.8575, -8.49320613838237E-15));
#92 = CARTESIAN_POINT('', (2.8575, -9.35251613196978E-16, -1.09558455358522E-30));
#93 = CARTESIAN_POINT('', (2.8575, -2.8575, 8.49320613838237E-15));
#94 = CARTESIAN_POINT('', (9.18932122976749E-16, -2.8575, 8.49320613838237E-15));
#95 = CARTESIAN_POINT('', (-2.8575, -2.8575, 8.49320613838237E-15));
#96 = CARTESIAN_POINT('', (-2.8575, 1.74971411428178E-16, 0.));
#97 = ADVANCED_FACE('', (#98), #101, .T.);
#98 = FACE_OUTER_BOUND('', #99, .T.);
#99 = EDGE_LOOP('', (#100));
#100 = ORIENTED_EDGE('', *, *, #64, .F.);
#101 = B_SPLINE_SURFACE_WITH_KNOTS('', 1, 1, ((#102, #103), (#104, #105)), .UNSPECIFIED., .F., .F., .U., (2, 2), (2, 2), (1.58772677992923, 7.30272677992923), (1.58772677992923, 7.30272677992923), .UNSPECIFIED.);
#102 = CARTESIAN_POINT('', (2.8575, -2.8575, 6.93045594617286E-15));
#103 = CARTESIAN_POINT('', (-2.8575, -2.8575, -7.28039876902917E-15));
#104 = CARTESIAN_POINT('', (2.8575, 2.8575, 7.28039876902922E-15));
#105 = CARTESIAN_POINT('', (-2.8575, 2.8575, -6.93045594617282E-15));
#106 = ADVANCED_FACE('', (#107), #118, .T.);
#107 = FACE_OUTER_BOUND('', #108, .T.);
#108 = EDGE_LOOP('', (#109, #115, #116, #117));
#109 = ORIENTED_EDGE('', *, *, #110, .T.);
#110 = EDGE_CURVE('', #8, #55, #111, .T.);
#111 = LINE('', #112, #113);
#112 = CARTESIAN_POINT('', (-3.175, 3.61117724898576E-15, -55.8));
#113 = VECTOR('', #114, 55.4825);
#114 = DIRECTION('', (0., -3.39732330168465E-15, 55.4825));
#115 = ORIENTED_EDGE('', *, *, #72, .T.);
#116 = ORIENTED_EDGE('', *, *, #110, .F.);
#117 = ORIENTED_EDGE('', *, *, #17, .F.);
#118 = (
   BOUNDED_SURFACE ()
   B_SPLINE_SURFACE (1, 2, ((#119, #120, #121, #122, #123, #124, #125, #126, #127), (#128, #129, #130, #131, #132, #133, #134, #135, #136)), .UNSPECIFIED., .F., .T., .U.)
   B_SPLINE_SURFACE_WITH_KNOTS ((2, 2), (3, 2, 2, 2, 3), (0., 1.), (0., 4.9872783375738, 9.97455667514761, 14.9618350127214, 19.9491133502952), .UNSPECIFIED.)
   GEOMETRIC_REPRESENTATION_ITEM ()
   RATIONAL_B_SPLINE_SURFACE (((1., 0.707106781186548, 1., 0.707106781186548, 1., 0.707106781186548, 1., 0.707106781186548, 1.), (1., 0.707106781186548, 1., 0.707106781186548, 1., 0.707106781186548, 1., 0.707106781186548, 1.)))
   REPRESENTATION_ITEM ('')
   SURFACE ()
);
#119 = CARTESIAN_POINT('', (-3.175, 3.43350071871406E-15, -55.8));
#120 = CARTESIAN_POINT('', (-3.17499999999999, 3.175, -55.8));
#121 = CARTESIAN_POINT('', (6.73209444840039E-15, 3.175, -55.8));
#122 = CARTESIAN_POINT('', (3.17500000000001, 3.175, -55.8));
#123 = CARTESIAN_POINT('', (3.175, -1.26831852058453E-15, -55.8));
#124 = CARTESIAN_POINT('', (3.175, -3.175, -55.8));
#125 = CARTESIAN_POINT('', (2.41910056783109E-15, -3.175, -55.8));
#126 = CARTESIAN_POINT('', (-3.175, -3.175, -55.8));
#127 = CARTESIAN_POINT('', (-3.175, 3.43350071871406E-15, -55.8));
#128 = CARTESIAN_POINT('', (-3.175, 2.13853947301106E-16, -0.317500000000003));
#129 = CARTESIAN_POINT('', (-3.175, 3.175, -0.317500000000003));
#130 = CARTESIAN_POINT('', (3.82195512727762E-15, 3.175, -0.317500000000003));
#131 = CARTESIAN_POINT('', (3.175, 3.175, -0.317500000000003));
#132 = CARTESIAN_POINT('', (3.175, -4.48796529199748E-15, -0.317500000000003));
#133 = CARTESIAN_POINT('', (3.175, -3.175, -0.317500000000003));
#134 = CARTESIAN_POINT('', (-4.91038753291676E-16, -3.175, -0.317500000000003));
#135 = CARTESIAN_POINT('', (-3.175, -3.175, -0.317500000000003));
#136 = CARTESIAN_POINT('', (-3.175, 2.13853947301106E-16, -0.317500000000003));
#137 = ADVANCED_FACE('', (#138), #157, .T.);
#138 = FACE_OUTER_BOUND('', #139, .T.);
#139 = EDGE_LOOP('', (#140, #149, #155, #156));
#140 = ORIENTED_EDGE('', *, *, #141, .F.);
#141 = EDGE_CURVE('', #142, #142, #144, .T.);
#142 = VERTEX_POINT('', #143);
#143 = CARTESIAN_POINT('', (-2.3815, 3.93684144904902E-15, -61.912));
#144 = CIRCLE('', #145, 2.3815);
#145 = AXIS2_PLACEMENT_3D('', #146, #147, #148);
#146 = CARTESIAN_POINT('', (8.39606162372775E-16, 1.99840144432528E-15, -61.912));
#147 = DIRECTION('', (2.98359326374175E-15, -9.70657341003828E-15, -1.));
#148 = DIRECTION('', (-1., 8.1395759173787E-16, -2.98359326374176E-15));
#149 = ORIENTED_EDGE('', *, *, #150, .F.);
#150 = EDGE_CURVE('', #10, #142, #151, .T.);
#151 = LINE('', #152, #153);
#152 = CARTESIAN_POINT('', (-2.3815, 3.64709001637075E-15, -57.18));
#153 = VECTOR('', #154, 4.732);
#154 = DIRECTION('', (0., 2.8975143267827E-16, -4.732));
#155 = ORIENTED_EDGE('', *, *, #25, .T.);
#156 = ORIENTED_EDGE('', *, *, #150, .T.);
#157 = (
   BOUNDED_SURFACE ()
   B_SPLINE_SURFACE (2, 1, ((#158, #159), (#160, #161), (#162, #163), (#164, #165), (#166, #167), (#168, #169), (#170, #171), (#172, #173), (#174, #175)), .UNSPECIFIED., .T., .F., .U.)
   B_SPLINE_SURFACE_WITH_KNOTS ((3, 2, 2, 2, 3), (2, 2), (0., 3.74085145226205, 7.4817029045241, 11.2225543567862, 14.9634058090482), (0., 0.254094399398593), .UNSPECIFIED.)
   GEOMETRIC_REPRESENTATION_ITEM ()
   RATIONAL_B_SPLINE_SURFACE (((1., 1.), (0.707106781186548, 0.707106781186548), (1., 1.), (0.707106781186548, 0.707106781186548), (1., 1.), (0.707106781186548, 0.707106781186548), (1., 1.), (0.707106781186548, 0.707106781186548), (1., 1.)))
   REPRESENTATION_ITEM ('')
   SURFACE ()
);
#158 = CARTESIAN_POINT('', (-2.3815, 3.64709001637075E-15, -57.18));
#159 = CARTESIAN_POINT('', (-2.3815, 3.59157886513949E-15, -61.912));
#160 = CARTESIAN_POINT('', (-2.3815, 2.3815, -57.18));
#161 = CARTESIAN_POINT('', (-2.3815, 2.3815, -61.912));
#162 = CARTESIAN_POINT('', (2.64778124858169E-15, 2.3815, -57.18));
#163 = CARTESIAN_POINT('', (2.64778124858169E-15, 2.3815, -61.912));
#164 = CARTESIAN_POINT('', (2.3815, 2.3815, -57.18));
#165 = CARTESIAN_POINT('', (2.3815, 2.3815, -61.912));
#166 = CARTESIAN_POINT('', (2.3815, -2.47713072783373E-17, -57.18));
#167 = CARTESIAN_POINT('', (2.3815, -8.02824585095951E-17, -61.912));
#168 = CARTESIAN_POINT('', (2.3815, -2.3815, -57.18));
#169 = CARTESIAN_POINT('', (2.3815, -2.3815, -61.912));
#170 = CARTESIAN_POINT('', (-7.32430439850455E-16, -2.3815, -57.18));
#171 = CARTESIAN_POINT('', (-7.32430439850455E-16, -2.3815, -61.912));
#172 = CARTESIAN_POINT('', (-2.3815, -2.3815, -57.18));
#173 = CARTESIAN_POINT('', (-2.3815, -2.3815, -61.912));
#174 = CARTESIAN_POINT('', (-2.3815, 3.64709001637075E-15, -57.18));
#175 = CARTESIAN_POINT('', (-2.3815, 3.59157886513949E-15, -61.912));
#176 = ADVANCED_FACE('', (#177), #180, .T.);
#177 = FACE_OUTER_BOUND('', #178, .T.);
#178 = EDGE_LOOP('', (#179));
#179 = ORIENTED_EDGE('', *, *, #141, .T.);
#180 = B_SPLINE_SURFACE_WITH_KNOTS('', 1, 1, ((#181, #182), (#183, #184)), .UNSPECIFIED., .F., .F., .U., (2, 2), (2, 2), (76.3301810460612, 81.0931810460612), (72.3615120877761, 77.1245120877761), .UNSPECIFIED.);
#181 = CARTESIAN_POINT('', (-2.3815, 2.3815, -61.912));
#182 = CARTESIAN_POINT('', (-2.3815, -2.3815, -61.912));
#183 = CARTESIAN_POINT('', (2.38150000000001, 2.3815, -61.912));
#184 = CARTESIAN_POINT('', (2.38150000000001, -2.3815, -61.912));
#185 = DRAUGHTING_MODEL('', (#193, #317, #365, #370, #375, #380, #385, #390), #404);
#186 = PRESENTATION_STYLE_ASSIGNMENT((#187));
#187 = SURFACE_STYLE_USAGE(.POSITIVE., #188);
#188 = SURFACE_SIDE_STYLE('', (#189));
#189 = SURFACE_STYLE_FILL_AREA(#190);
#190 = FILL_AREA_STYLE('', (#191));
#191 = FILL_AREA_STYLE_COLOUR('', #192);
#192 = COLOUR_RGB('', 0.50196078431373, 0.50196078431373, 0.50196078431373);
#193 = STYLED_ITEM('', (#186), #1);
#194 = MANIFOLD_SOLID_BREP('CUT', #195);
#195 = CLOSED_SHELL('', (#196, #213, #252, #301));
#196 = ADVANCED_FACE('', (#197), #208, .T.);
#197 = FACE_OUTER_BOUND('', #198, .T.);
#198 = EDGE_LOOP('', (#199));
#199 = ORIENTED_EDGE('', *, *, #200, .F.);
#200 = EDGE_CURVE('', #201, #201, #203, .T.);
#201 = VERTEX_POINT('', #202);
#202 = CARTESIAN_POINT('', (-2.3815, 3.93684144904902E-15, -61.912));
#203 = CIRCLE('', #204, 2.3815);
#204 = AXIS2_PLACEMENT_3D('', #205, #206, #207);
#205 = CARTESIAN_POINT('', (8.39606162372775E-16, 1.99840144432528E-15, -61.912));
#206 = DIRECTION('', (2.98359326374175E-15, -9.70657341003828E-15, -1.));
#207 = DIRECTION('', (-1., 8.1395759173787E-16, -2.98359326374176E-15));
#208 = B_SPLINE_SURFACE_WITH_KNOTS('', 1, 1, ((#209, #210), (#211, #212)), .UNSPECIFIED., .F., .F., .U., (2, 2), (2, 2), (72.3615120877761, 77.1245120877761), (76.3301810460612, 81.0931810460612), .UNSPECIFIED.);
#209 = CARTESIAN_POINT('', (-2.3815, 2.3815, -61.912));
#210 = CARTESIAN_POINT('', (2.3815, 2.3815, -61.912));
#211 = CARTESIAN_POINT('', (-2.3815, -2.3815, -61.912));
#212 = CARTESIAN_POINT('', (2.3815, -2.3815, -61.912));
#213 = ADVANCED_FACE('', (#214), #233, .T.);
#214 = FACE_OUTER_BOUND('', #215, .T.);
#215 = EDGE_LOOP('', (#216, #217, #225, #232));
#216 = ORIENTED_EDGE('', *, *, #200, .T.);
#217 = ORIENTED_EDGE('', *, *, #218, .T.);
#218 = EDGE_CURVE('', #201, #219, #221, .T.);
#219 = VERTEX_POINT('', #220);
#220 = CARTESIAN_POINT('', (-2.3815, 4.78741988339681E-15, -75.803));
#221 = LINE('', #222, #223);
#222 = CARTESIAN_POINT('', (-2.3815, 3.93684144904902E-15, -61.912));
#223 = VECTOR('', #224, 13.891);
#224 = DIRECTION('', (0., 8.5057843434779E-16, -13.891));
#225 = ORIENTED_EDGE('', *, *, #226, .F.);
#226 = EDGE_CURVE('', #219, #219, #227, .T.);
#227 = CIRCLE('', #228, 2.3815);
#228 = AXIS2_PLACEMENT_3D('', #229, #230, #231);
#229 = CARTESIAN_POINT('', (1.03389519168218E-15, 1.22124532708767E-15, -75.803));
#230 = DIRECTION('', (0., 0., -1.));
#231 = DIRECTION('', (-1., 1.49744890040274E-15, 0.));
#232 = ORIENTED_EDGE('', *, *, #218, .F.);
#233 = (
   BOUNDED_SURFACE ()
   B_SPLINE_SURFACE (2, 1, ((#234, #235), (#236, #237), (#238, #239), (#240, #241), (#242, #243), (#244, #245), (#246, #247), (#248, #249), (#250, #251)), .UNSPECIFIED., .T., .F., .U.)
   B_SPLINE_SURFACE_WITH_KNOTS ((3, 2, 2, 2, 3), (2, 2), (0., 3.74085145226205, 7.4817029045241, 11.2225543567862, 14.9634058090482), (0.254094399398593, 1.), .UNSPECIFIED.)
   GEOMETRIC_REPRESENTATION_ITEM ()
   RATIONAL_B_SPLINE_SURFACE (((1., 1.), (0.707106781186548, 0.707106781186548), (1., 1.), (0.707106781186548, 0.707106781186548), (1., 1.), (0.707106781186548, 0.707106781186548), (1., 1.), (0.707106781186548, 0.707106781186548), (1., 1.)))
   REPRESENTATION_ITEM ('')
   SURFACE ()
);
#234 = CARTESIAN_POINT('', (-2.3815, 3.93684144904902E-15, -61.912));
#235 = CARTESIAN_POINT('', (-2.3815, 5.15808677613669E-15, -75.803));
#236 = CARTESIAN_POINT('', (-2.3815, 2.3815, -61.912));
#237 = CARTESIAN_POINT('', (-2.3815, 2.3815, -75.803));
#238 = CARTESIAN_POINT('', (2.94447157516387E-15, 2.3815, -61.912));
#239 = CARTESIAN_POINT('', (2.94447157516387E-15, 2.3815, -75.803));
#240 = CARTESIAN_POINT('', (2.3815, 2.3815, -61.912));
#241 = CARTESIAN_POINT('', (2.3815, 2.3815, -75.803));
#242 = CARTESIAN_POINT('', (2.3815, -4.25545042419123E-16, -61.912));
#243 = CARTESIAN_POINT('', (2.3815, 7.95700284668549E-16, -75.803));
#244 = CARTESIAN_POINT('', (2.3815, -2.3815, -61.912));
#245 = CARTESIAN_POINT('', (2.3815, -2.3815, -75.803));
#246 = CARTESIAN_POINT('', (-1.12626528108733E-15, -2.3815, -61.912));
#247 = CARTESIAN_POINT('', (-1.12626528108733E-15, -2.3815, -75.803));
#248 = CARTESIAN_POINT('', (-2.3815, -2.3815, -61.912));
#249 = CARTESIAN_POINT('', (-2.3815, -2.3815, -75.803));
#250 = CARTESIAN_POINT('', (-2.3815, 3.93684144904902E-15, -61.912));
#251 = CARTESIAN_POINT('', (-2.3815, 5.15808677613669E-15, -75.803));
#252 = ADVANCED_FACE('', (#253), #273, .T.);
#253 = FACE_OUTER_BOUND('', #254, .T.);
#254 = EDGE_LOOP('', (#255, #264, #265, #266));
#255 = ORIENTED_EDGE('', *, *, #256, .F.);
#256 = EDGE_CURVE('', #219, #257, #259, .T.);
#257 = VERTEX_POINT('', #258);
#258 = CARTESIAN_POINT('', (-1.9845, 4.78741988339681E-15, -76.2));
#259 = CIRCLE('', #260, 0.396999999999991);
#260 = AXIS2_PLACEMENT_3D('', #261, #262, #263);
#261 = CARTESIAN_POINT('', (-1.9845, 4.76311064443374E-15, -75.803));
#262 = DIRECTION('', (-6.12323399573588E-17, -1., -6.12323399573547E-17));
#263 = DIRECTION('', (-1., 6.12323399573567E-17, 3.57956038166296E-14));
#264 = ORIENTED_EDGE('', *, *, #226, .T.);
#265 = ORIENTED_EDGE('', *, *, #256, .T.);
#266 = ORIENTED_EDGE('', *, *, #267, .F.);
#267 = EDGE_CURVE('', #257, #257, #268, .T.);
#268 = CIRCLE('', #269, 1.9845);
#269 = AXIS2_PLACEMENT_3D('', #270, #271, #272);
#270 = CARTESIAN_POINT('', (6.03683769639929E-16, 1.38777878078145E-15, -76.2));
#271 = DIRECTION('', (0., 0., -1.));
#272 = DIRECTION('', (-1., 1.71309705347209E-15, 0.));
#273 = (
   BOUNDED_SURFACE ()
   B_SPLINE_SURFACE (2, 2, ((#274, #275, #276), (#277, #278, #279), (#280, #281, #282), (#283, #284, #285), (#286, #287, #288), (#289, #290, #291), (#292, #293, #294), (#295, #296, #297), (#298, #299, #300)), .UNSPECIFIED., .T., .F., .U.)
   B_SPLINE_SURFACE_WITH_KNOTS ((3, 2, 2, 2, 3), (3, 3), (0., 0.25, 0.5, 0.75, 1.), (0., 1.), .UNSPECIFIED.)
   GEOMETRIC_REPRESENTATION_ITEM ()
   RATIONAL_B_SPLINE_SURFACE (((1., 0.707106781186547, 1.), (0.707106781186548, 0.5, 0.707106781186548), (1., 0.707106781186547, 1.), (0.707106781186548, 0.5, 0.707106781186548), (1., 0.707106781186547, 1.), (0.707106781186548, 0.5, 0.707106781186548), (1., 0.707106781186547, 1.), (0.707106781186548, 0.5, 0.707106781186548), (1., 0.707106781186547, 1.)))
   REPRESENTATION_ITEM ('')
   SURFACE ()
);
#274 = CARTESIAN_POINT('', (-2.3815, 4.78741988339681E-15, -75.803));
#275 = CARTESIAN_POINT('', (-2.3815, 4.81172912235989E-15, -76.2));
#276 = CARTESIAN_POINT('', (-1.9845, 4.78741988339681E-15, -76.2));
#277 = CARTESIAN_POINT('', (-2.3815, 2.3815, -75.803));
#278 = CARTESIAN_POINT('', (-2.3815, 2.3815, -76.2));
#279 = CARTESIAN_POINT('', (-1.9845, 1.9845, -76.2));
#280 = CARTESIAN_POINT('', (3.47586088993192E-15, 2.3815, -75.803));
#281 = CARTESIAN_POINT('', (-4.56271890775266E-15, 2.38150000000001, -76.2));
#282 = CARTESIAN_POINT('', (-4.56271890775266E-15, 1.98450000000001, -76.2));
#283 = CARTESIAN_POINT('', (2.3815, 2.3815, -75.803));
#284 = CARTESIAN_POINT('', (2.3815, 2.38150000000001, -76.2));
#285 = CARTESIAN_POINT('', (1.9845, 1.98450000000001, -76.2));
#286 = CARTESIAN_POINT('', (2.3815, -2.05327959400452E-15, -75.803));
#287 = CARTESIAN_POINT('', (2.3815, 1.40481892403277E-14, -76.2));
#288 = CARTESIAN_POINT('', (1.9845, 1.40238800013647E-14, -76.2));
#289 = CARTESIAN_POINT('', (2.3815, -2.3815, -75.803));
#290 = CARTESIAN_POINT('', (2.3815, -2.38149999999999, -76.2));
#291 = CARTESIAN_POINT('', (1.9845, -1.98449999999999, -76.2));
#292 = CARTESIAN_POINT('', (-3.07318895225247E-15, -2.3815, -75.803));
#293 = CARTESIAN_POINT('', (4.96539084543214E-15, -2.38149999999999, -76.2));
#294 = CARTESIAN_POINT('', (4.91677236750599E-15, -1.98449999999999, -76.2));
#295 = CARTESIAN_POINT('', (-2.3815, -2.3815, -75.803));
#296 = CARTESIAN_POINT('', (-2.3815, -2.3815, -76.2));
#297 = CARTESIAN_POINT('', (-1.98449999999999, -1.9845, -76.2));
#298 = CARTESIAN_POINT('', (-2.3815, 4.78741988339681E-15, -75.803));
#299 = CARTESIAN_POINT('', (-2.3815, 4.81172912235989E-15, -76.2));
#300 = CARTESIAN_POINT('', (-1.9845, 4.78741988339681E-15, -76.2));
#301 = ADVANCED_FACE('', (#302), #305, .T.);
#302 = FACE_OUTER_BOUND('', #303, .T.);
#303 = EDGE_LOOP('', (#304));
#304 = ORIENTED_EDGE('', *, *, #267, .T.);
#305 = B_SPLINE_SURFACE_WITH_KNOTS('', 1, 1, ((#306, #307), (#308, #309)), .UNSPECIFIED., .F., .F., .U., (2, 2), (2, 2), (1.10265749598235, 5.07165749598235), (1.10265749598234, 5.07165749598234), .UNSPECIFIED.);
#306 = CARTESIAN_POINT('', (1.9845, -1.9845, -76.2));
#307 = CARTESIAN_POINT('', (1.9845, 1.9845, -76.2));
#308 = CARTESIAN_POINT('', (-1.9845, -1.9845, -76.2));
#309 = CARTESIAN_POINT('', (-1.9845, 1.9845, -76.2));
#310 = PRESENTATION_STYLE_ASSIGNMENT((#311));
#311 = SURFACE_STYLE_USAGE(.POSITIVE., #312);
#312 = SURFACE_SIDE_STYLE('', (#313));
#313 = SURFACE_STYLE_FILL_AREA(#314);
#314 = FILL_AREA_STYLE('', (#315));
#315 = FILL_AREA_STYLE_COLOUR('', #316);
#316 = COLOUR_RGB('', 0.8, 0.8, 0.8);
#317 = STYLED_ITEM('', (#310), #194);
#318 = TRIMMED_CURVE('cutting part line', #319, (#323), (#324), .T., .CARTESIAN.);
#319 = LINE('', #320, #321);
#320 = CARTESIAN_POINT('', (-6.96398457481207E-31, -3.79101663144055E-15, -61.912));
#321 = VECTOR('', #322, 2.3815);
#322 = DIRECTION('', (2.3815, -4.37474452825412E-16, 0.));
#323 = CARTESIAN_POINT('', (-6.96398457481207E-31, -3.79101663144055E-15, -61.912));
#324 = CARTESIAN_POINT('', (2.3815, -4.22849108426596E-15, -61.912));
#325 = TRIMMED_CURVE('cutting part line', #326, (#330), (#331), .T., .CARTESIAN.);
#326 = LINE('', #327, #328);
#327 = CARTESIAN_POINT('', (2.3815, -4.22849108426596E-15, -61.912));
#328 = VECTOR('', #329, 13.891);
#329 = DIRECTION('', (0., -8.5057843434779E-16, -13.891));
#330 = CARTESIAN_POINT('', (2.3815, -4.22849108426596E-15, -61.912));
#331 = CARTESIAN_POINT('', (2.3815, -5.07906951861375E-15, -75.803));
#332 = TRIMMED_CURVE('cutting part line', #333, (#338), (#339), .T., .CARTESIAN.);
#333 = CIRCLE('', #334, 0.396999999999998);
#334 = AXIS2_PLACEMENT_3D('', #335, #336, #337);
#335 = CARTESIAN_POINT('', (1.9845, -5.00614180172452E-15, -75.803));
#336 = DIRECTION('', (1.83697019872119E-16, 1., -6.12323399573807E-17));
#337 = DIRECTION('', (1., -1.83697019872119E-16, 0.));
#338 = CARTESIAN_POINT('', (2.3815, -5.07906951861375E-15, -75.803));
#339 = CARTESIAN_POINT('', (1.9845, -5.0304510406876E-15, -76.2));
#340 = TRIMMED_CURVE('cutting part line', #341, (#345), (#346), .T., .CARTESIAN.);
#341 = LINE('', #342, #343);
#342 = CARTESIAN_POINT('', (1.9845, -5.0304510406876E-15, -76.2));
#343 = VECTOR('', #344, 1.9845);
#344 = DIRECTION('', (-1.9845, 3.64546735936182E-16, 0.));
#345 = CARTESIAN_POINT('', (1.9845, -5.0304510406876E-15, -76.2));
#346 = CARTESIAN_POINT('', (-5.71408477194168E-31, -4.66590430475142E-15, -76.2));
#347 = TRIMMED_CURVE('cutting part line', #348, (#352), (#353), .T., .CARTESIAN.);
#348 = LINE('', #349, #350);
#349 = CARTESIAN_POINT('', (-8.57112715791252E-31, -4.66590430475142E-15, -76.2));
#350 = VECTOR('', #351, 14.288);
#351 = DIRECTION('', (1.60714258310045E-31, 8.7488767331087E-16, 14.288));
#352 = CARTESIAN_POINT('', (-8.57112715791252E-31, -4.66590430475142E-15, -76.2));
#353 = CARTESIAN_POINT('', (-6.96398457481207E-31, -3.79101663144055E-15, -61.912));
#354 = COMPOSITE_CURVE('cutting part line', (#355, #356, #357, #358, #359), .U.);
#355 = COMPOSITE_CURVE_SEGMENT(.CONTINUOUS., .T., #318);
#356 = COMPOSITE_CURVE_SEGMENT(.CONTINUOUS., .T., #325);
#357 = COMPOSITE_CURVE_SEGMENT(.CONTINUOUS., .T., #332);
#358 = COMPOSITE_CURVE_SEGMENT(.CONTINUOUS., .T., #340);
#359 = COMPOSITE_CURVE_SEGMENT(.CONTINUOUS., .T., #347);
#360 = GEOMETRIC_SET('', (#354, #403));
#361 = PRESENTATION_STYLE_ASSIGNMENT((#362));
#362 = CURVE_STYLE('', #364, POSITIVE_LENGTH_MEASURE(1.E-6), #363);
#363 = COLOUR_RGB('', 0., 0., 1.);
#364 = DRAUGHTING_PRE_DEFINED_CURVE_FONT('continuous');
#365 = STYLED_ITEM('', (#361), #354);
#366 = PRESENTATION_STYLE_ASSIGNMENT((#367));
#367 = CURVE_STYLE('', #369, POSITIVE_LENGTH_MEASURE(1.E-6), #368);
#368 = COLOUR_RGB('', 0., 0., 1.);
#369 = DRAUGHTING_PRE_DEFINED_CURVE_FONT('continuous');
#370 = OVER_RIDING_STYLED_ITEM('', (#366), #318, #365);
#371 = PRESENTATION_STYLE_ASSIGNMENT((#372));
#372 = CURVE_STYLE('', #374, POSITIVE_LENGTH_MEASURE(1.E-6), #373);
#373 = COLOUR_RGB('', 0., 0., 1.);
#374 = DRAUGHTING_PRE_DEFINED_CURVE_FONT('continuous');
#375 = OVER_RIDING_STYLED_ITEM('', (#371), #325, #365);
#376 = PRESENTATION_STYLE_ASSIGNMENT((#377));
#377 = CURVE_STYLE('', #379, POSITIVE_LENGTH_MEASURE(1.E-6), #378);
#378 = COLOUR_RGB('', 0., 0., 1.);
#379 = DRAUGHTING_PRE_DEFINED_CURVE_FONT('continuous');
#380 = OVER_RIDING_STYLED_ITEM('', (#376), #332, #365);
#381 = PRESENTATION_STYLE_ASSIGNMENT((#382));
#382 = CURVE_STYLE('', #384, POSITIVE_LENGTH_MEASURE(1.E-6), #383);
#383 = COLOUR_RGB('', 0., 0., 1.);
#384 = DRAUGHTING_PRE_DEFINED_CURVE_FONT('continuous');
#385 = OVER_RIDING_STYLED_ITEM('', (#381), #340, #365);
#386 = PRESENTATION_STYLE_ASSIGNMENT((#387));
#387 = CURVE_STYLE('', #389, POSITIVE_LENGTH_MEASURE(1.E-6), #388);
#388 = COLOUR_RGB('', 0., 0., 1.);
#389 = DRAUGHTING_PRE_DEFINED_CURVE_FONT('continuous');
#390 = OVER_RIDING_STYLED_ITEM('', (#386), #347, #365);
#391 = AXIS2_PLACEMENT_3D('CIP', #392, #393, #394);
#392 = CARTESIAN_POINT('', (2.85704238597084E-31, 4.66590430475142E-15, -76.2));
#393 = DIRECTION('', (-3.74939945665465E-33, -6.12323399573677E-17, 1.));
#394 = DIRECTION('', (1., -6.12323399573677E-17, 0.));
#395 = AXIS2_PLACEMENT_3D('MCS', #396, #397, #398);
#396 = CARTESIAN_POINT('', (1.34978380439567E-31, 2.20436423846524E-15, -36.));
#397 = DIRECTION('', (-3.74939945665465E-33, -6.12323399573677E-17, 1.));
#398 = DIRECTION('', (1., -6.12323399573677E-17, 0.));
#399 = AXIS2_PLACEMENT_3D('PCS', #400, #401, #402);
#400 = CARTESIAN_POINT('', (0., 0., 0.));
#401 = DIRECTION('', (0., 0., 1.));
#402 = DIRECTION('', (1., 0., 0.));
#403 = CARTESIAN_POINT('CRP', (2.3815, 0., -76.2));
#404 = (
   GEOMETRIC_REPRESENTATION_CONTEXT (3)
   GLOBAL_UNCERTAINTY_ASSIGNED_CONTEXT ((#406))
   GLOBAL_UNIT_ASSIGNED_CONTEXT ((#405, #407, #408))
   REPRESENTATION_CONTEXT ('', '3D')
);
#405 = (
   LENGTH_UNIT ()
   NAMED_UNIT (*)
   SI_UNIT (.MILLI., .METRE.)
);
#406 = UNCERTAINTY_MEASURE_WITH_UNIT(LENGTH_MEASURE(1.E-6), #405, 'DISTANCE_ACCURACY_VALUE', '');
#407 = (
   NAMED_UNIT (*)
   SI_UNIT ($, .STERADIAN.)
   SOLID_ANGLE_UNIT ()
);
#408 = (
   NAMED_UNIT (*)
   PLANE_ANGLE_UNIT ()
   SI_UNIT ($, .RADIAN.)
);
#409 = SHAPE_REPRESENTATION('', (), #404);
#410 = PRODUCT_DEFINITION_SHAPE('', '', #411);
#411 = PRODUCT_DEFINITION('', '', #414, #418);
#412 = APPLICATION_CONTEXT('configuration controlled 3D designs of mechanical parts and assemblies');
#413 = APPLICATION_PROTOCOL_DEFINITION('International Standard', 'automotive_design', 2002, #412);
#414 = PRODUCT_DEFINITION_FORMATION_WITH_SPECIFIED_SOURCE('', '', #415, .NOT_KNOWN.);
#415 = PRODUCT('EmptyName', 'EmptyName', '', (#416));
#416 = PRODUCT_CONTEXT('', #412, 'mechanical');
#417 = PRODUCT_RELATED_PRODUCT_CATEGORY('detail', '', (#415));
#418 = PRODUCT_DEFINITION_CONTEXT('part definition', #412, 'design');
#419 = SHAPE_DEFINITION_REPRESENTATION(#410, #409);
#420 = CONSTRUCTIVE_GEOMETRY_REPRESENTATION('supplemental geometry', (#391, #395, #399), #404);
#421 = CONSTRUCTIVE_GEOMETRY_REPRESENTATION_RELATIONSHIP('', '', #409, #420);
#422 = SHAPE_REPRESENTATION_RELATIONSHIP('', '', #409, #423);
#423 = SHAPE_REPRESENTATION('', (#360), #404);
#424 = SHAPE_REPRESENTATION_RELATIONSHIP('', '', #409, #425);
#425 = ADVANCED_BREP_SHAPE_REPRESENTATION('', (#1, #194), #404);
ENDSEC;
END-ISO-10303-21;
