ISO-10303-21;
HEADER;
FILE_DESCRIPTION(('STEP'), '1');
FILE_NAME('C:\\Users\\ds2002\\OneDrive - Sandvik\\HomeShare\\Documents\\Batchrepair\\CorSRT2\\NEW_MILSQ_SLD\\Output\\MOD000000000000000020084946400000.stp', '2019-01-02T12:08:31', (''), (''), 'Express v3.0.0.0', 'Express Tool', 'Unknown');
FILE_SCHEMA(('AUTOMOTIVE_DESIGN'));
ENDSEC;

DATA;
#1 = MANIFOLD_SOLID_BREP('NOCUT', #2);
#2 = CLOSED_SHELL('', (#3, #50, #97, #106, #137, #176));
#3 = ADVANCED_FACE('', (#4), #31, .T.);
#4 = FACE_OUTER_BOUND('', #5, .T.);
#5 = EDGE_LOOP('', (#6, #16, #23, #24));
#6 = ORIENTED_EDGE('', *, *, #7, .F.);
#7 = EDGE_CURVE('', #8, #10, #12, .T.);
#8 = VERTEX_POINT('', #9);
#9 = CARTESIAN_POINT('', (-3.175, 3.76119648188131E-15, -58.25));
#10 = VERTEX_POINT('', #11);
#11 = CARTESIAN_POINT('', (-1.9845, 3.81443800147424E-15, -60.31));
#12 = LINE('', #13, #14);
#13 = CARTESIAN_POINT('', (-3.175, 3.76119648188131E-15, -58.25));
#14 = VECTOR('', #15, 2.37926254331043);
#15 = DIRECTION('', (1.1905, 5.32415195929302E-17, -2.06));
#16 = ORIENTED_EDGE('', *, *, #17, .T.);
#17 = EDGE_CURVE('', #8, #8, #18, .T.);
#18 = CIRCLE('', #19, 3.175);
#19 = AXIS2_PLACEMENT_3D('', #20, #21, #22);
#20 = CARTESIAN_POINT('', (5.68989300120393E-16, 2.83106871279415E-15, -58.25));
#21 = DIRECTION('', (0., 0., -1.));
#22 = DIRECTION('', (-1., 2.92953628058948E-16, 0.));
#23 = ORIENTED_EDGE('', *, *, #7, .T.);
#24 = ORIENTED_EDGE('', *, *, #25, .F.);
#25 = EDGE_CURVE('', #10, #10, #26, .T.);
#26 = CIRCLE('', #27, 1.9845);
#27 = AXIS2_PLACEMENT_3D('', #28, #29, #30);
#28 = CARTESIAN_POINT('', (4.37150315946155E-16, 3.33066907387547E-16, -60.31));
#29 = DIRECTION('', (-2.13780889106591E-29, -1.21862382080623E-14, -1.));
#30 = DIRECTION('', (-1., 1.7542812265491E-15, 0.));
#31 = (
   BOUNDED_SURFACE ()
   B_SPLINE_SURFACE (2, 1, ((#32, #33), (#34, #35), (#36, #37), (#38, #39), (#40, #41), (#42, #43), (#44, #45), (#46, #47), (#48, #49)), .UNSPECIFIED., .T., .F., .U.)
   B_SPLINE_SURFACE_WITH_KNOTS ((3, 2, 2, 2, 3), (2, 2), (0., 0.25, 0.5, 0.75, 1.), (0., 1.), .UNSPECIFIED.)
   GEOMETRIC_REPRESENTATION_ITEM ()
   RATIONAL_B_SPLINE_SURFACE (((1., 1.), (0.707106781186548, 0.707106781186548), (1., 1.), (0.707106781186548, 0.707106781186548), (1., 1.), (0.707106781186548, 0.707106781186548), (1., 1.), (0.707106781186548, 0.707106781186548), (1., 1.)))
   REPRESENTATION_ITEM ('')
   SURFACE ()
);
#32 = CARTESIAN_POINT('', (-3.175, 3.76119648188131E-15, -58.25));
#33 = CARTESIAN_POINT('', (-1.9845, 3.84971444684859E-15, -60.31));
#34 = CARTESIAN_POINT('', (-3.175, 3.175, -58.25));
#35 = CARTESIAN_POINT('', (-1.9845, 1.9845, -60.31));
#36 = CARTESIAN_POINT('', (4.45496222221679E-15, 3.175, -58.25));
#37 = CARTESIAN_POINT('', (2.95104275096558E-15, 1.9845, -60.31));
#38 = CARTESIAN_POINT('', (3.175, 3.175, -58.25));
#39 = CARTESIAN_POINT('', (1.9845, 1.9845, -60.31));
#40 = CARTESIAN_POINT('', (3.175, -4.26054954285215E-15, -58.25));
#41 = CARTESIAN_POINT('', (1.9845, -1.16419263538245E-15, -60.31));
#42 = CARTESIAN_POINT('', (3.175, -3.175, -58.25));
#43 = CARTESIAN_POINT('', (1.9845, -1.9845, -60.31));
#44 = CARTESIAN_POINT('', (-3.17795844378738E-15, -3.175, -58.25));
#45 = CARTESIAN_POINT('', (-1.81983317397466E-15, -1.9845, -60.31));
#46 = CARTESIAN_POINT('', (-3.175, -3.175, -58.25));
#47 = CARTESIAN_POINT('', (-1.9845, -1.9845, -60.31));
#48 = CARTESIAN_POINT('', (-3.175, 3.76119648188131E-15, -58.25));
#49 = CARTESIAN_POINT('', (-1.9845, 3.84971444684859E-15, -60.31));
#50 = ADVANCED_FACE('', (#51), #78, .T.);
#51 = FACE_OUTER_BOUND('', #52, .T.);
#52 = EDGE_LOOP('', (#53, #63, #70, #71));
#53 = ORIENTED_EDGE('', *, *, #54, .T.);
#54 = EDGE_CURVE('', #55, #57, #59, .T.);
#55 = VERTEX_POINT('', #56);
#56 = CARTESIAN_POINT('', (-3.175, 2.13853947301107E-16, -0.31750000000001));
#57 = VERTEX_POINT('', #58);
#58 = CARTESIAN_POINT('', (-2.8575, 1.74971411428178E-16, 0.));
#59 = LINE('', #60, #61);
#60 = CARTESIAN_POINT('', (-3.175, 2.13853947301107E-16, -0.31750000000001));
#61 = VECTOR('', #62, 0.449012806053465);
#62 = DIRECTION('', (0.3175, -3.8882535872929E-17, 0.31750000000001));
#63 = ORIENTED_EDGE('', *, *, #64, .T.);
#64 = EDGE_CURVE('', #57, #57, #65, .T.);
#65 = CIRCLE('', #66, 2.8575);
#66 = AXIS2_PLACEMENT_3D('', #67, #68, #69);
#67 = CARTESIAN_POINT('', (-3.46944695195361E-16, -6.66133814775094E-16, -2.77333911991762E-32));
#68 = DIRECTION('', (8.31826769960494E-33, 6.12323399573676E-17, -1.));
#69 = DIRECTION('', (-1., 2.94350035416718E-16, 9.70547373549474E-33));
#70 = ORIENTED_EDGE('', *, *, #54, .F.);
#71 = ORIENTED_EDGE('', *, *, #72, .F.);
#72 = EDGE_CURVE('', #55, #55, #73, .T.);
#73 = CIRCLE('', #74, 3.17500000000001);
#74 = AXIS2_PLACEMENT_3D('', #75, #76, #77);
#75 = CARTESIAN_POINT('', (5.41233724504764E-16, 4.9960036108132E-16, -0.31750000000001));
#76 = DIRECTION('', (5.24514814783537E-17, 7.87931949724616E-18, -1.));
#77 = DIRECTION('', (-1., -3.34928230311427E-16, -5.24514814783537E-17));
#78 = (
   BOUNDED_SURFACE ()
   B_SPLINE_SURFACE (1, 2, ((#79, #80, #81, #82, #83, #84, #85, #86, #87), (#88, #89, #90, #91, #92, #93, #94, #95, #96)), .UNSPECIFIED., .F., .T., .U.)
   B_SPLINE_SURFACE_WITH_KNOTS ((2, 2), (3, 2, 2, 2, 3), (0., 1.), (0., 0.25, 0.5, 0.75, 1.), .UNSPECIFIED.)
   GEOMETRIC_REPRESENTATION_ITEM ()
   RATIONAL_B_SPLINE_SURFACE (((1., 0.707106781186548, 1., 0.707106781186548, 1., 0.707106781186548, 1., 0.707106781186548, 1.), (1., 0.707106781186548, 1., 0.707106781186548, 1., 0.707106781186548, 1., 0.707106781186548, 1.)))
   REPRESENTATION_ITEM ('')
   SURFACE ()
);
#79 = CARTESIAN_POINT('', (-3.175, -6.87597834643122E-16, -0.31750000000001));
#80 = CARTESIAN_POINT('', (-3.175, 3.175, -0.317500000000019));
#81 = CARTESIAN_POINT('', (1.74089138166917E-15, 3.175, -0.317500000000019));
#82 = CARTESIAN_POINT('', (3.175, 3.175, -0.317500000000019));
#83 = CARTESIAN_POINT('', (3.175, -1.92117897311552E-15, -0.31750000000001));
#84 = CARTESIAN_POINT('', (3.175, -3.175, -0.3175));
#85 = CARTESIAN_POINT('', (8.96135601926058E-16, -3.175, -0.3175));
#86 = CARTESIAN_POINT('', (-3.175, -3.175, -0.3175));
#87 = CARTESIAN_POINT('', (-3.175, -6.87597834643122E-16, -0.31750000000001));
#88 = CARTESIAN_POINT('', (-2.8575, 1.74971411428178E-16, 0.));
#89 = CARTESIAN_POINT('', (-2.8575, 2.8575, -8.49320613838219E-15));
#90 = CARTESIAN_POINT('', (1.67921232474555E-15, 2.8575, -8.49320613838219E-15));
#91 = CARTESIAN_POINT('', (2.8575, 2.8575, -8.49320613838219E-15));
#92 = CARTESIAN_POINT('', (2.8575, -9.35251613196978E-16, -1.09558455358519E-30));
#93 = CARTESIAN_POINT('', (2.8575, -2.8575, 8.49320613838219E-15));
#94 = CARTESIAN_POINT('', (9.18932122976749E-16, -2.8575, 8.49320613838219E-15));
#95 = CARTESIAN_POINT('', (-2.8575, -2.8575, 8.49320613838219E-15));
#96 = CARTESIAN_POINT('', (-2.8575, 1.74971411428178E-16, 0.));
#97 = ADVANCED_FACE('', (#98), #101, .T.);
#98 = FACE_OUTER_BOUND('', #99, .T.);
#99 = EDGE_LOOP('', (#100));
#100 = ORIENTED_EDGE('', *, *, #64, .F.);
#101 = B_SPLINE_SURFACE_WITH_KNOTS('', 1, 1, ((#102, #103), (#104, #105)), .UNSPECIFIED., .F., .F., .U., (2, 2), (2, 2), (1.58772677992923, 7.30272677992923), (1.58772677992923, 7.30272677992923), .UNSPECIFIED.);
#102 = CARTESIAN_POINT('', (2.8575, -2.8575, 6.93045594617286E-15));
#103 = CARTESIAN_POINT('', (-2.8575, -2.8575, -7.28039876902917E-15));
#104 = CARTESIAN_POINT('', (2.8575, 2.8575, 7.28039876902922E-15));
#105 = CARTESIAN_POINT('', (-2.8575, 2.8575, -6.93045594617282E-15));
#106 = ADVANCED_FACE('', (#107), #118, .T.);
#107 = FACE_OUTER_BOUND('', #108, .T.);
#108 = EDGE_LOOP('', (#109, #115, #116, #117));
#109 = ORIENTED_EDGE('', *, *, #110, .T.);
#110 = EDGE_CURVE('', #8, #55, #111, .T.);
#111 = LINE('', #112, #113);
#112 = CARTESIAN_POINT('', (-3.175, 3.76119648188131E-15, -58.25));
#113 = VECTOR('', #114, 57.9325);
#114 = DIRECTION('', (0., -3.5473425345802E-15, 57.9325));
#115 = ORIENTED_EDGE('', *, *, #72, .T.);
#116 = ORIENTED_EDGE('', *, *, #110, .F.);
#117 = ORIENTED_EDGE('', *, *, #17, .F.);
#118 = (
   BOUNDED_SURFACE ()
   B_SPLINE_SURFACE (1, 2, ((#119, #120, #121, #122, #123, #124, #125, #126, #127), (#128, #129, #130, #131, #132, #133, #134, #135, #136)), .UNSPECIFIED., .F., .T., .U.)
   B_SPLINE_SURFACE_WITH_KNOTS ((2, 2), (3, 2, 2, 2, 3), (0., 1.), (0., 4.9872783375738, 9.9745566751476, 14.9618350127214, 19.9491133502952), .UNSPECIFIED.)
   GEOMETRIC_REPRESENTATION_ITEM ()
   RATIONAL_B_SPLINE_SURFACE (((1., 0.707106781186548, 1., 0.707106781186548, 1., 0.707106781186548, 1., 0.707106781186548, 1.), (1., 0.707106781186548, 1., 0.707106781186548, 1., 0.707106781186548, 1., 0.707106781186548, 1.)))
   REPRESENTATION_ITEM ('')
   SURFACE ()
);
#119 = CARTESIAN_POINT('', (-3.175, 3.65554532363909E-15, -58.25));
#120 = CARTESIAN_POINT('', (-3.17499999999999, 3.175, -58.25));
#121 = CARTESIAN_POINT('', (6.86060057802236E-15, 3.175, -58.25));
#122 = CARTESIAN_POINT('', (3.17500000000001, 3.175, -58.25));
#123 = CARTESIAN_POINT('', (3.175, -1.0462739156595E-15, -58.25));
#124 = CARTESIAN_POINT('', (3.175, -3.175, -58.25));
#125 = CARTESIAN_POINT('', (2.54760669745306E-15, -3.175, -58.25));
#126 = CARTESIAN_POINT('', (-3.175, -3.175, -58.25));
#127 = CARTESIAN_POINT('', (-3.175, 3.65554532363909E-15, -58.25));
#128 = CARTESIAN_POINT('', (-3.175, 2.13853947301106E-16, -0.31750000000001));
#129 = CARTESIAN_POINT('', (-3.175, 3.175, -0.31750000000001));
#130 = CARTESIAN_POINT('', (3.82195512727762E-15, 3.175, -0.31750000000001));
#131 = CARTESIAN_POINT('', (3.175, 3.175, -0.317500000000009));
#132 = CARTESIAN_POINT('', (3.175, -4.48796529199748E-15, -0.31750000000001));
#133 = CARTESIAN_POINT('', (3.175, -3.175, -0.31750000000001));
#134 = CARTESIAN_POINT('', (-4.91038753291676E-16, -3.175, -0.31750000000001));
#135 = CARTESIAN_POINT('', (-3.175, -3.175, -0.31750000000001));
#136 = CARTESIAN_POINT('', (-3.175, 2.13853947301106E-16, -0.31750000000001));
#137 = ADVANCED_FACE('', (#138), #157, .T.);
#138 = FACE_OUTER_BOUND('', #139, .T.);
#139 = EDGE_LOOP('', (#140, #149, #155, #156));
#140 = ORIENTED_EDGE('', *, *, #141, .F.);
#141 = EDGE_CURVE('', #142, #142, #144, .T.);
#142 = VERTEX_POINT('', #143);
#143 = CARTESIAN_POINT('', (-1.9845, 4.00976916593824E-15, -63.5));
#144 = CIRCLE('', #145, 1.9845);
#145 = AXIS2_PLACEMENT_3D('', #146, #147, #148);
#146 = CARTESIAN_POINT('', (2.0122792321331E-16, 4.44089209850063E-16, -63.5));
#147 = DIRECTION('', (0., 0., -1.));
#148 = DIRECTION('', (-1., 1.7967649060661E-15, 0.));
#149 = ORIENTED_EDGE('', *, *, #150, .F.);
#150 = EDGE_CURVE('', #10, #142, #151, .T.);
#151 = LINE('', #152, #153);
#152 = CARTESIAN_POINT('', (-1.9845, 3.81443800147424E-15, -60.31));
#153 = VECTOR('', #154, 3.19);
#154 = DIRECTION('', (0., 1.95331164464E-16, -3.19));
#155 = ORIENTED_EDGE('', *, *, #25, .T.);
#156 = ORIENTED_EDGE('', *, *, #150, .T.);
#157 = (
   BOUNDED_SURFACE ()
   B_SPLINE_SURFACE (2, 1, ((#158, #159), (#160, #161), (#162, #163), (#164, #165), (#166, #167), (#168, #169), (#170, #171), (#172, #173), (#174, #175)), .UNSPECIFIED., .T., .F., .U.)
   B_SPLINE_SURFACE_WITH_KNOTS ((3, 2, 2, 2, 3), (2, 2), (0., 3.11724531052448, 6.23449062104895, 9.35173593157343, 12.4689812420979), (0., 0.211314255431902), .UNSPECIFIED.)
   GEOMETRIC_REPRESENTATION_ITEM ()
   RATIONAL_B_SPLINE_SURFACE (((1., 1.), (0.707106781186548, 0.707106781186548), (1., 1.), (0.707106781186548, 0.707106781186548), (1., 1.), (0.707106781186548, 0.707106781186548), (1., 1.), (0.707106781186548, 0.707106781186548), (1., 1.)))
   REPRESENTATION_ITEM ('')
   SURFACE ()
);
#158 = CARTESIAN_POINT('', (-1.9845, 3.81443800147424E-15, -60.31));
#159 = CARTESIAN_POINT('', (-1.9845, 3.14830418669915E-15, -63.5));
#160 = CARTESIAN_POINT('', (-1.9845, 1.9845, -60.31));
#161 = CARTESIAN_POINT('', (-1.9845, 1.9845, -63.5));
#162 = CARTESIAN_POINT('', (3.51251118132726E-15, 1.9845, -60.31));
#163 = CARTESIAN_POINT('', (3.51251118132725E-15, 1.9845, -63.5));
#164 = CARTESIAN_POINT('', (1.9845, 1.9845, -60.31));
#165 = CARTESIAN_POINT('', (1.9845, 1.9845, -63.5));
#166 = CARTESIAN_POINT('', (1.9845, -1.7950500047832E-15, -60.31));
#167 = CARTESIAN_POINT('', (1.9845, -2.46118381955829E-15, -63.5));
#168 = CARTESIAN_POINT('', (1.9845, -1.9845, -60.31));
#169 = CARTESIAN_POINT('', (1.9845, -1.9845, -63.5));
#170 = CARTESIAN_POINT('', (-1.85394566763939E-15, -1.9845, -60.31));
#171 = CARTESIAN_POINT('', (-1.85394566763939E-15, -1.9845, -63.5));
#172 = CARTESIAN_POINT('', (-1.9845, -1.9845, -60.31));
#173 = CARTESIAN_POINT('', (-1.9845, -1.9845, -63.5));
#174 = CARTESIAN_POINT('', (-1.9845, 3.81443800147424E-15, -60.31));
#175 = CARTESIAN_POINT('', (-1.9845, 3.14830418669915E-15, -63.5));
#176 = ADVANCED_FACE('', (#177), #180, .T.);
#177 = FACE_OUTER_BOUND('', #178, .T.);
#178 = EDGE_LOOP('', (#179));
#179 = ORIENTED_EDGE('', *, *, #141, .T.);
#180 = B_SPLINE_SURFACE_WITH_KNOTS('', 1, 1, ((#181, #182), (#183, #184)), .UNSPECIFIED., .F., .F., .U., (2, 2), (2, 2), (76.8595144558075, 80.8285144558075), (72.6261786780298, 76.5951786780298), .UNSPECIFIED.);
#181 = CARTESIAN_POINT('', (-1.9845, 1.9845, -63.5));
#182 = CARTESIAN_POINT('', (-1.9845, -1.9845, -63.5));
#183 = CARTESIAN_POINT('', (1.9845, 1.9845, -63.5));
#184 = CARTESIAN_POINT('', (1.9845, -1.9845, -63.5));
#185 = DRAUGHTING_MODEL('', (#193, #317, #365, #370, #375, #380, #385, #390), #404);
#186 = PRESENTATION_STYLE_ASSIGNMENT((#187));
#187 = SURFACE_STYLE_USAGE(.POSITIVE., #188);
#188 = SURFACE_SIDE_STYLE('', (#189));
#189 = SURFACE_STYLE_FILL_AREA(#190);
#190 = FILL_AREA_STYLE('', (#191));
#191 = FILL_AREA_STYLE_COLOUR('', #192);
#192 = COLOUR_RGB('', 0.50196078431373, 0.50196078431373, 0.50196078431373);
#193 = STYLED_ITEM('', (#186), #1);
#194 = MANIFOLD_SOLID_BREP('CUT', #195);
#195 = CLOSED_SHELL('', (#196, #213, #252, #301));
#196 = ADVANCED_FACE('', (#197), #208, .T.);
#197 = FACE_OUTER_BOUND('', #198, .T.);
#198 = EDGE_LOOP('', (#199));
#199 = ORIENTED_EDGE('', *, *, #200, .F.);
#200 = EDGE_CURVE('', #201, #201, #203, .T.);
#201 = VERTEX_POINT('', #202);
#202 = CARTESIAN_POINT('', (-1.9845, 4.00976916593824E-15, -63.5));
#203 = CIRCLE('', #204, 1.9845);
#204 = AXIS2_PLACEMENT_3D('', #205, #206, #207);
#205 = CARTESIAN_POINT('', (2.0122792321331E-16, 4.44089209850063E-16, -63.5));
#206 = DIRECTION('', (0., 0., -1.));
#207 = DIRECTION('', (-1., 1.7967649060661E-15, 0.));
#208 = B_SPLINE_SURFACE_WITH_KNOTS('', 1, 1, ((#209, #210), (#211, #212)), .UNSPECIFIED., .F., .F., .U., (2, 2), (2, 2), (72.6261786780299, 76.5951786780299), (76.8595144558075, 80.8285144558075), .UNSPECIFIED.);
#209 = CARTESIAN_POINT('', (-1.9845, 1.9845, -63.5));
#210 = CARTESIAN_POINT('', (1.9845, 1.9845, -63.5));
#211 = CARTESIAN_POINT('', (-1.9845, -1.98449999999999, -63.5));
#212 = CARTESIAN_POINT('', (1.9845, -1.98449999999999, -63.5));
#213 = ADVANCED_FACE('', (#214), #233, .T.);
#214 = FACE_OUTER_BOUND('', #215, .T.);
#215 = EDGE_LOOP('', (#216, #217, #225, #232));
#216 = ORIENTED_EDGE('', *, *, #200, .T.);
#217 = ORIENTED_EDGE('', *, *, #218, .T.);
#218 = EDGE_CURVE('', #201, #219, #221, .T.);
#219 = VERTEX_POINT('', #220);
#220 = CARTESIAN_POINT('', (-1.9845, 4.73880140547066E-15, -75.406));
#221 = LINE('', #222, #223);
#222 = CARTESIAN_POINT('', (-1.9845, 4.00976916593824E-15, -63.5));
#223 = VECTOR('', #224, 11.906);
#224 = DIRECTION('', (0., 7.2903223953242E-16, -11.906));
#225 = ORIENTED_EDGE('', *, *, #226, .F.);
#226 = EDGE_CURVE('', #219, #219, #227, .T.);
#227 = CIRCLE('', #228, 1.98449999999999);
#228 = AXIS2_PLACEMENT_3D('', #229, #230, #231);
#229 = CARTESIAN_POINT('', (3.60822483003176E-16, 1.22124532708767E-15, -75.406));
#230 = DIRECTION('', (0., 0., -1.));
#231 = DIRECTION('', (-1., 1.77251503067927E-15, 0.));
#232 = ORIENTED_EDGE('', *, *, #218, .F.);
#233 = (
   BOUNDED_SURFACE ()
   B_SPLINE_SURFACE (2, 1, ((#234, #235), (#236, #237), (#238, #239), (#240, #241), (#242, #243), (#244, #245), (#246, #247), (#248, #249), (#250, #251)), .UNSPECIFIED., .T., .F., .U.)
   B_SPLINE_SURFACE_WITH_KNOTS ((3, 2, 2, 2, 3), (2, 2), (0., 3.11724531052448, 6.23449062104895, 9.35173593157343, 12.4689812420979), (0.211314255431902, 1.), .UNSPECIFIED.)
   GEOMETRIC_REPRESENTATION_ITEM ()
   RATIONAL_B_SPLINE_SURFACE (((1., 1.), (0.707106781186548, 0.707106781186548), (1., 1.), (0.707106781186548, 0.707106781186548), (1., 1.), (0.707106781186548, 0.707106781186548), (1., 1.), (0.707106781186548, 0.707106781186548), (1., 1.)))
   REPRESENTATION_ITEM ('')
   SURFACE ()
);
#234 = CARTESIAN_POINT('', (-1.9845, 4.00976916593824E-15, -63.5));
#235 = CARTESIAN_POINT('', (-1.9845, 6.00817061026352E-15, -75.406));
#236 = CARTESIAN_POINT('', (-1.9845, 1.9845, -63.5));
#237 = CARTESIAN_POINT('', (-1.9845, 1.98450000000001, -75.406));
#238 = CARTESIAN_POINT('', (4.47805956912496E-15, 1.9845, -63.5));
#239 = CARTESIAN_POINT('', (4.47805956912496E-15, 1.9845, -75.406));
#240 = CARTESIAN_POINT('', (1.9845, 1.9845, -63.5));
#241 = CARTESIAN_POINT('', (1.9845, 1.9845, -75.406));
#242 = CARTESIAN_POINT('', (1.9845, -3.32264879879738E-15, -63.5));
#243 = CARTESIAN_POINT('', (1.9845, -1.3242473544721E-15, -75.406));
#244 = CARTESIAN_POINT('', (1.9845, -1.9845, -63.5));
#245 = CARTESIAN_POINT('', (1.9845, -1.9845, -75.406));
#246 = CARTESIAN_POINT('', (-2.61132723831987E-15, -1.9845, -63.5));
#247 = CARTESIAN_POINT('', (-2.61132723831987E-15, -1.9845, -75.406));
#248 = CARTESIAN_POINT('', (-1.9845, -1.9845, -63.5));
#249 = CARTESIAN_POINT('', (-1.9845, -1.98449999999999, -75.406));
#250 = CARTESIAN_POINT('', (-1.9845, 4.00976916593824E-15, -63.5));
#251 = CARTESIAN_POINT('', (-1.9845, 6.00817061026352E-15, -75.406));
#252 = ADVANCED_FACE('', (#253), #273, .T.);
#253 = FACE_OUTER_BOUND('', #254, .T.);
#254 = EDGE_LOOP('', (#255, #264, #265, #266));
#255 = ORIENTED_EDGE('', *, *, #256, .F.);
#256 = EDGE_CURVE('', #219, #257, #259, .T.);
#257 = VERTEX_POINT('', #258);
#258 = CARTESIAN_POINT('', (-1.1905, 4.73880140547066E-15, -76.2));
#259 = CIRCLE('', #260, 0.793999999999965);
#260 = AXIS2_PLACEMENT_3D('', #261, #262, #263);
#261 = CARTESIAN_POINT('', (-1.19050000000002, 4.69018292754452E-15, -75.406));
#262 = DIRECTION('', (-6.12323399573633E-17, -1., -6.12323399573626E-17));
#263 = DIRECTION('', (-1., 6.12323399573611E-17, 3.57956038166311E-14));
#264 = ORIENTED_EDGE('', *, *, #226, .T.);
#265 = ORIENTED_EDGE('', *, *, #256, .T.);
#266 = ORIENTED_EDGE('', *, *, #267, .F.);
#267 = EDGE_CURVE('', #257, #257, #268, .T.);
#268 = CIRCLE('', #269, 1.1905);
#269 = AXIS2_PLACEMENT_3D('', #270, #271, #272);
#270 = CARTESIAN_POINT('', (5.20417042793042E-17, 2.19269047363468E-15, -76.2));
#271 = DIRECTION('', (0., 0., -1.));
#272 = DIRECTION('', (-1., 2.13869040893404E-15, 0.));
#273 = (
   BOUNDED_SURFACE ()
   B_SPLINE_SURFACE (2, 2, ((#274, #275, #276), (#277, #278, #279), (#280, #281, #282), (#283, #284, #285), (#286, #287, #288), (#289, #290, #291), (#292, #293, #294), (#295, #296, #297), (#298, #299, #300)), .UNSPECIFIED., .T., .F., .U.)
   B_SPLINE_SURFACE_WITH_KNOTS ((3, 2, 2, 2, 3), (3, 3), (0., 0.25, 0.5, 0.75, 1.), (0., 1.), .UNSPECIFIED.)
   GEOMETRIC_REPRESENTATION_ITEM ()
   RATIONAL_B_SPLINE_SURFACE (((1., 0.707106781186548, 1.), (0.707106781186548, 0.5, 0.707106781186548), (1., 0.707106781186548, 1.), (0.707106781186548, 0.5, 0.707106781186548), (1., 0.707106781186548, 1.), (0.707106781186548, 0.5, 0.707106781186548), (1., 0.707106781186548, 1.), (0.707106781186548, 0.5, 0.707106781186548), (1., 0.707106781186548, 1.)))
   REPRESENTATION_ITEM ('')
   SURFACE ()
);
#274 = CARTESIAN_POINT('', (-1.9845, 4.73880140547066E-15, -75.406));
#275 = CARTESIAN_POINT('', (-1.9845, 4.78741988339681E-15, -76.2));
#276 = CARTESIAN_POINT('', (-1.1905, 4.73880140547066E-15, -76.2));
#277 = CARTESIAN_POINT('', (-1.9845, 1.9845, -75.406));
#278 = CARTESIAN_POINT('', (-1.9845, 1.9845, -76.2));
#279 = CARTESIAN_POINT('', (-1.1905, 1.1905, -76.2));
#280 = CARTESIAN_POINT('', (3.1115458496774E-15, 1.9845, -75.406));
#281 = CARTESIAN_POINT('', (3.16016432760355E-15, 1.9845, -76.2));
#282 = CARTESIAN_POINT('', (3.16016432760355E-15, 1.1905, -76.2));
#283 = CARTESIAN_POINT('', (1.9845, 1.9845, -75.406));
#284 = CARTESIAN_POINT('', (1.9845, 1.9845, -76.2));
#285 = CARTESIAN_POINT('', (1.1905, 1.1905, -76.2));
#286 = CARTESIAN_POINT('', (1.9845, -8.32034266916851E-16, -75.406));
#287 = CARTESIAN_POINT('', (1.9845, -8.80652744843001E-16, -76.2));
#288 = CARTESIAN_POINT('', (1.1905, -9.29271222769151E-16, -76.2));
#289 = CARTESIAN_POINT('', (1.9845, -1.9845, -75.406));
#290 = CARTESIAN_POINT('', (1.9845, -1.9845, -76.2));
#291 = CARTESIAN_POINT('', (1.1905, -1.1905, -76.2));
#292 = CARTESIAN_POINT('', (-2.21625866541932E-15, -1.9845, -75.406));
#293 = CARTESIAN_POINT('', (-2.26487714334547E-15, -1.9845, -76.2));
#294 = CARTESIAN_POINT('', (-2.36211409919777E-15, -1.1905, -76.2));
#295 = CARTESIAN_POINT('', (-1.9845, -1.9845, -75.406));
#296 = CARTESIAN_POINT('', (-1.9845, -1.9845, -76.2));
#297 = CARTESIAN_POINT('', (-1.1905, -1.1905, -76.2));
#298 = CARTESIAN_POINT('', (-1.9845, 4.73880140547066E-15, -75.406));
#299 = CARTESIAN_POINT('', (-1.9845, 4.78741988339681E-15, -76.2));
#300 = CARTESIAN_POINT('', (-1.1905, 4.73880140547066E-15, -76.2));
#301 = ADVANCED_FACE('', (#302), #305, .T.);
#302 = FACE_OUTER_BOUND('', #303, .T.);
#303 = EDGE_LOOP('', (#304));
#304 = ORIENTED_EDGE('', *, *, #267, .T.);
#305 = B_SPLINE_SURFACE_WITH_KNOTS('', 1, 1, ((#306, #307), (#308, #309)), .UNSPECIFIED., .F., .F., .U., (2, 2), (2, 2), (0.66148337060569, 3.04248337060569), (0.66148337060568, 3.04248337060568), .UNSPECIFIED.);
#306 = CARTESIAN_POINT('', (1.1905, -1.1905, -76.2));
#307 = CARTESIAN_POINT('', (1.1905, 1.1905, -76.2));
#308 = CARTESIAN_POINT('', (-1.1905, -1.1905, -76.2));
#309 = CARTESIAN_POINT('', (-1.1905, 1.1905, -76.2));
#310 = PRESENTATION_STYLE_ASSIGNMENT((#311));
#311 = SURFACE_STYLE_USAGE(.POSITIVE., #312);
#312 = SURFACE_SIDE_STYLE('', (#313));
#313 = SURFACE_STYLE_FILL_AREA(#314);
#314 = FILL_AREA_STYLE('', (#315));
#315 = FILL_AREA_STYLE_COLOUR('', #316);
#316 = COLOUR_RGB('', 0.8, 0.8, 0.8);
#317 = STYLED_ITEM('', (#310), #194);
#318 = TRIMMED_CURVE('cutting part line', #319, (#323), (#324), .T., .CARTESIAN.);
#319 = LINE('', #320, #321);
#320 = CARTESIAN_POINT('', (-7.1426059649271E-31, -3.88825358729285E-15, -63.5));
#321 = VECTOR('', #322, 1.9845);
#322 = DIRECTION('', (1.9845, -3.64546735936183E-16, 0.));
#323 = CARTESIAN_POINT('', (-7.1426059649271E-31, -3.88825358729285E-15, -63.5));
#324 = CARTESIAN_POINT('', (1.9845, -4.25280032322903E-15, -63.5));
#325 = TRIMMED_CURVE('cutting part line', #326, (#330), (#331), .T., .CARTESIAN.);
#326 = LINE('', #327, #328);
#327 = CARTESIAN_POINT('', (1.9845, -4.25280032322903E-15, -63.5));
#328 = VECTOR('', #329, 11.906);
#329 = DIRECTION('', (0., -7.2903223953242E-16, -11.906));
#330 = CARTESIAN_POINT('', (1.9845, -4.25280032322903E-15, -63.5));
#331 = CARTESIAN_POINT('', (1.9845, -4.98183256276145E-15, -75.406));
#332 = TRIMMED_CURVE('cutting part line', #333, (#338), (#339), .T., .CARTESIAN.);
#333 = CIRCLE('', #334, 0.793999999999983);
#334 = AXIS2_PLACEMENT_3D('', #335, #336, #337);
#335 = CARTESIAN_POINT('', (1.19050000000001, -4.835977128983E-15, -75.406));
#336 = DIRECTION('', (1.83697019872105E-16, 1., -6.12323399573678E-17));
#337 = DIRECTION('', (1., -1.83697019872104E-16, 1.78978019083151E-14));
#338 = CARTESIAN_POINT('', (1.98449999999999, -4.98183256276145E-15, -75.406));
#339 = CARTESIAN_POINT('', (1.1905, -4.88459560690915E-15, -76.2));
#340 = TRIMMED_CURVE('cutting part line', #341, (#345), (#346), .T., .CARTESIAN.);
#341 = LINE('', #342, #343);
#342 = CARTESIAN_POINT('', (1.1905, -4.88459560690915E-15, -76.2));
#343 = VECTOR('', #344, 1.1905);
#344 = DIRECTION('', (-1.1905, 2.18691302157732E-16, 0.));
#345 = CARTESIAN_POINT('', (1.1905, -4.88459560690915E-15, -76.2));
#346 = CARTESIAN_POINT('', (-5.71408477194168E-31, -4.66590430475142E-15, -76.2));
#347 = TRIMMED_CURVE('cutting part line', #348, (#352), (#353), .T., .CARTESIAN.);
#348 = LINE('', #349, #350);
#349 = CARTESIAN_POINT('', (-8.57112715791252E-31, -4.66590430475142E-15, -76.2));
#350 = VECTOR('', #351, 12.7);
#351 = DIRECTION('', (1.42852119298542E-31, 7.7765071745857E-16, 12.7));
#352 = CARTESIAN_POINT('', (-8.57112715791252E-31, -4.66590430475142E-15, -76.2));
#353 = CARTESIAN_POINT('', (-7.1426059649271E-31, -3.88825358729285E-15, -63.5));
#354 = COMPOSITE_CURVE('cutting part line', (#355, #356, #357, #358, #359), .U.);
#355 = COMPOSITE_CURVE_SEGMENT(.CONTINUOUS., .T., #318);
#356 = COMPOSITE_CURVE_SEGMENT(.CONTINUOUS., .T., #325);
#357 = COMPOSITE_CURVE_SEGMENT(.CONTINUOUS., .T., #332);
#358 = COMPOSITE_CURVE_SEGMENT(.CONTINUOUS., .T., #340);
#359 = COMPOSITE_CURVE_SEGMENT(.CONTINUOUS., .T., #347);
#360 = GEOMETRIC_SET('', (#354, #403));
#361 = PRESENTATION_STYLE_ASSIGNMENT((#362));
#362 = CURVE_STYLE('', #364, POSITIVE_LENGTH_MEASURE(1.E-6), #363);
#363 = COLOUR_RGB('', 0., 0., 1.);
#364 = DRAUGHTING_PRE_DEFINED_CURVE_FONT('continuous');
#365 = STYLED_ITEM('', (#361), #354);
#366 = PRESENTATION_STYLE_ASSIGNMENT((#367));
#367 = CURVE_STYLE('', #369, POSITIVE_LENGTH_MEASURE(1.E-6), #368);
#368 = COLOUR_RGB('', 0., 0., 1.);
#369 = DRAUGHTING_PRE_DEFINED_CURVE_FONT('continuous');
#370 = OVER_RIDING_STYLED_ITEM('', (#366), #318, #365);
#371 = PRESENTATION_STYLE_ASSIGNMENT((#372));
#372 = CURVE_STYLE('', #374, POSITIVE_LENGTH_MEASURE(1.E-6), #373);
#373 = COLOUR_RGB('', 0., 0., 1.);
#374 = DRAUGHTING_PRE_DEFINED_CURVE_FONT('continuous');
#375 = OVER_RIDING_STYLED_ITEM('', (#371), #325, #365);
#376 = PRESENTATION_STYLE_ASSIGNMENT((#377));
#377 = CURVE_STYLE('', #379, POSITIVE_LENGTH_MEASURE(1.E-6), #378);
#378 = COLOUR_RGB('', 0., 0., 1.);
#379 = DRAUGHTING_PRE_DEFINED_CURVE_FONT('continuous');
#380 = OVER_RIDING_STYLED_ITEM('', (#376), #332, #365);
#381 = PRESENTATION_STYLE_ASSIGNMENT((#382));
#382 = CURVE_STYLE('', #384, POSITIVE_LENGTH_MEASURE(1.E-6), #383);
#383 = COLOUR_RGB('', 0., 0., 1.);
#384 = DRAUGHTING_PRE_DEFINED_CURVE_FONT('continuous');
#385 = OVER_RIDING_STYLED_ITEM('', (#381), #340, #365);
#386 = PRESENTATION_STYLE_ASSIGNMENT((#387));
#387 = CURVE_STYLE('', #389, POSITIVE_LENGTH_MEASURE(1.E-6), #388);
#388 = COLOUR_RGB('', 0., 0., 1.);
#389 = DRAUGHTING_PRE_DEFINED_CURVE_FONT('continuous');
#390 = OVER_RIDING_STYLED_ITEM('', (#386), #347, #365);
#391 = AXIS2_PLACEMENT_3D('CIP', #392, #393, #394);
#392 = CARTESIAN_POINT('', (2.85704238597084E-31, 4.66590430475142E-15, -76.2));
#393 = DIRECTION('', (-3.74939945665465E-33, -6.12323399573677E-17, 1.));
#394 = DIRECTION('', (1., -6.12323399573677E-17, 0.));
#395 = AXIS2_PLACEMENT_3D('MCS', #396, #397, #398);
#396 = CARTESIAN_POINT('', (1.34978380439567E-31, 2.20436423846524E-15, -36.));
#397 = DIRECTION('', (-3.74939945665465E-33, -6.12323399573677E-17, 1.));
#398 = DIRECTION('', (1., -6.12323399573677E-17, 0.));
#399 = AXIS2_PLACEMENT_3D('PCS', #400, #401, #402);
#400 = CARTESIAN_POINT('', (0., 0., 0.));
#401 = DIRECTION('', (0., 0., 1.));
#402 = DIRECTION('', (1., 0., 0.));
#403 = CARTESIAN_POINT('CRP', (1.9845, 0., -76.2));
#404 = (
   GEOMETRIC_REPRESENTATION_CONTEXT (3)
   GLOBAL_UNCERTAINTY_ASSIGNED_CONTEXT ((#406))
   GLOBAL_UNIT_ASSIGNED_CONTEXT ((#405, #407, #408))
   REPRESENTATION_CONTEXT ('', '3D')
);
#405 = (
   LENGTH_UNIT ()
   NAMED_UNIT (*)
   SI_UNIT (.MILLI., .METRE.)
);
#406 = UNCERTAINTY_MEASURE_WITH_UNIT(LENGTH_MEASURE(1.E-6), #405, 'DISTANCE_ACCURACY_VALUE', '');
#407 = (
   NAMED_UNIT (*)
   SI_UNIT ($, .STERADIAN.)
   SOLID_ANGLE_UNIT ()
);
#408 = (
   NAMED_UNIT (*)
   PLANE_ANGLE_UNIT ()
   SI_UNIT ($, .RADIAN.)
);
#409 = SHAPE_REPRESENTATION('', (), #404);
#410 = PRODUCT_DEFINITION_SHAPE('', '', #411);
#411 = PRODUCT_DEFINITION('', '', #414, #418);
#412 = APPLICATION_CONTEXT('configuration controlled 3D designs of mechanical parts and assemblies');
#413 = APPLICATION_PROTOCOL_DEFINITION('International Standard', 'automotive_design', 2002, #412);
#414 = PRODUCT_DEFINITION_FORMATION_WITH_SPECIFIED_SOURCE('', '', #415, .NOT_KNOWN.);
#415 = PRODUCT('EmptyName', 'EmptyName', '', (#416));
#416 = PRODUCT_CONTEXT('', #412, 'mechanical');
#417 = PRODUCT_RELATED_PRODUCT_CATEGORY('detail', '', (#415));
#418 = PRODUCT_DEFINITION_CONTEXT('part definition', #412, 'design');
#419 = SHAPE_DEFINITION_REPRESENTATION(#410, #409);
#420 = CONSTRUCTIVE_GEOMETRY_REPRESENTATION('supplemental geometry', (#391, #395, #399), #404);
#421 = CONSTRUCTIVE_GEOMETRY_REPRESENTATION_RELATIONSHIP('', '', #409, #420);
#422 = SHAPE_REPRESENTATION_RELATIONSHIP('', '', #409, #423);
#423 = SHAPE_REPRESENTATION('', (#360), #404);
#424 = SHAPE_REPRESENTATION_RELATIONSHIP('', '', #409, #425);
#425 = ADVANCED_BREP_SHAPE_REPRESENTATION('', (#1, #194), #404);
ENDSEC;
END-ISO-10303-21;
