ISO-10303-21;
HEADER;
FILE_DESCRIPTION(('STEP'), '1');
FILE_NAME('C:\\Users\\ds2002\\OneDrive - Sandvik\\HomeShare\\Documents\\Batchrepair\\CorSRT2\\NEW_MILSQ_SLD\\Output\\MOD000000000000000020082335000000.stp', '2019-01-02T12:10:50', (''), (''), 'Express v3.0.0.0', 'Express Tool', 'Unknown');
FILE_SCHEMA(('AUTOMOTIVE_DESIGN'));
ENDSEC;

DATA;
#1 = MANIFOLD_SOLID_BREP('NOCUT', #2);
#2 = CLOSED_SHELL('', (#3, #50, #59, #98));
#3 = ADVANCED_FACE('', (#4), #31, .T.);
#4 = FACE_OUTER_BOUND('', #5, .T.);
#5 = EDGE_LOOP('', (#6, #16, #23, #24));
#6 = ORIENTED_EDGE('', *, *, #7, .T.);
#7 = EDGE_CURVE('', #8, #10, #12, .T.);
#8 = VERTEX_POINT('', #9);
#9 = CARTESIAN_POINT('', (-5.5565, 3.74261246670425E-16, -0.55565));
#10 = VERTEX_POINT('', #11);
#11 = CARTESIAN_POINT('', (-5.00085, 3.06213747275802E-16, 0.));
#12 = LINE('', #13, #14);
#13 = CARTESIAN_POINT('', (-5.5565, 3.74261246670425E-16, -0.55565));
#14 = VECTOR('', #15, 0.78580776593261);
#15 = DIRECTION('', (0.55565, -6.8047499394623E-17, 0.55565));
#16 = ORIENTED_EDGE('', *, *, #17, .T.);
#17 = EDGE_CURVE('', #10, #10, #18, .T.);
#18 = CIRCLE('', #19, 5.00085);
#19 = AXIS2_PLACEMENT_3D('', #20, #21, #22);
#20 = CARTESIAN_POINT('', (-8.74300631892311E-16, 0., -6.16297582203915E-33));
#21 = DIRECTION('', (2.51701379780881E-33, 6.12323399573677E-17, -1.));
#22 = DIRECTION('', (-1., 6.12323399573677E-17, 1.23238565884583E-33));
#23 = ORIENTED_EDGE('', *, *, #7, .F.);
#24 = ORIENTED_EDGE('', *, *, #25, .F.);
#25 = EDGE_CURVE('', #8, #8, #26, .T.);
#26 = CIRCLE('', #27, 5.5565);
#27 = AXIS2_PLACEMENT_3D('', #28, #29, #30);
#28 = CARTESIAN_POINT('', (-2.34534613952064E-15, 4.10782519111308E-15, -0.55565));
#29 = DIRECTION('', (0., 0., -1.));
#30 = DIRECTION('', (-1., -9.16856642191147E-16, 0.));
#31 = (
   BOUNDED_SURFACE ()
   B_SPLINE_SURFACE (1, 2, ((#32, #33, #34, #35, #36, #37, #38, #39, #40), (#41, #42, #43, #44, #45, #46, #47, #48, #49)), .UNSPECIFIED., .F., .T., .U.)
   B_SPLINE_SURFACE_WITH_KNOTS ((2, 2), (3, 2, 2, 2, 3), (0., 1.), (0., 0.25, 0.5, 0.75, 1.), .UNSPECIFIED.)
   GEOMETRIC_REPRESENTATION_ITEM ()
   RATIONAL_B_SPLINE_SURFACE (((1., 0.707106781186548, 1., 0.707106781186548, 1., 0.707106781186548, 1., 0.707106781186548, 1.), (1., 0.707106781186548, 1., 0.707106781186548, 1., 0.707106781186548, 1., 0.707106781186548, 1.)))
   REPRESENTATION_ITEM ('')
   SURFACE ()
);
#32 = CARTESIAN_POINT('', (-5.5565, 4.14252365281458E-16, -0.55565));
#33 = CARTESIAN_POINT('', (-5.5565, 5.5565, -0.555650000000001));
#34 = CARTESIAN_POINT('', (1.10097116608661E-15, 5.5565, -0.555650000000001));
#35 = CARTESIAN_POINT('', (5.5565, 5.5565, -0.555650000000001));
#36 = CARTESIAN_POINT('', (5.5565, -3.28649105013573E-15, -0.55565));
#37 = CARTESIAN_POINT('', (5.5565, -5.5565, -0.555649999999999));
#38 = CARTESIAN_POINT('', (-1.91929725538435E-15, -5.5565, -0.555649999999999));
#39 = CARTESIAN_POINT('', (-5.5565, -5.5565, -0.555649999999999));
#40 = CARTESIAN_POINT('', (-5.5565, 4.14252365281458E-16, -0.55565));
#41 = CARTESIAN_POINT('', (-5.00085, 3.06213747275803E-16, 2.18952885050753E-47));
#42 = CARTESIAN_POINT('', (-5.00085, 5.00085, -9.99200722162637E-16));
#43 = CARTESIAN_POINT('', (9.15933995315755E-16, 5.00085, -9.99200722162637E-16));
#44 = CARTESIAN_POINT('', (5.00085, 5.00085, -9.99200722162637E-16));
#45 = CARTESIAN_POINT('', (5.00085, -3.02445532659967E-15, -3.19582022915473E-31));
#46 = CARTESIAN_POINT('', (5.00085, -5.00085, 9.99200722162637E-16));
#47 = CARTESIAN_POINT('', (-1.80230758400811E-15, -5.00085, 9.99200722162637E-16));
#48 = CARTESIAN_POINT('', (-5.00085, -5.00085, 9.99200722162637E-16));
#49 = CARTESIAN_POINT('', (-5.00085, 3.06213747275803E-16, 2.18952885050753E-47));
#50 = ADVANCED_FACE('', (#51), #54, .T.);
#51 = FACE_OUTER_BOUND('', #52, .T.);
#52 = EDGE_LOOP('', (#53));
#53 = ORIENTED_EDGE('', *, *, #17, .F.);
#54 = B_SPLINE_SURFACE_WITH_KNOTS('', 1, 1, ((#55, #56), (#57, #58)), .UNSPECIFIED., .F., .F., .U., (2, 2), (2, 2), (2.77864688273285, 12.7803468827329), (2.77864688273285, 12.7803468827329), .UNSPECIFIED.);
#55 = CARTESIAN_POINT('', (5.00085, -5.00085, 6.7992136103252E-15));
#56 = CARTESIAN_POINT('', (-5.00085, -5.00085, 6.7992136103252E-15));
#57 = CARTESIAN_POINT('', (5.00085, 5.00085, 7.4116411048768E-15));
#58 = CARTESIAN_POINT('', (-5.00085, 5.00085, 7.4116411048768E-15));
#59 = ADVANCED_FACE('', (#60), #79, .T.);
#60 = FACE_OUTER_BOUND('', #61, .T.);
#61 = EDGE_LOOP('', (#62, #70, #71, #72));
#62 = ORIENTED_EDGE('', *, *, #63, .T.);
#63 = EDGE_CURVE('', #64, #8, #66, .T.);
#64 = VERTEX_POINT('', #65);
#65 = CARTESIAN_POINT('', (-5.5565, 3.06201500807811E-15, -44.45));
#66 = LINE('', #67, #68);
#67 = CARTESIAN_POINT('', (-5.5565, 3.06201500807811E-15, -44.45));
#68 = VECTOR('', #69, 43.89435);
#69 = DIRECTION('', (0., -2.68775376140769E-15, 43.89435));
#70 = ORIENTED_EDGE('', *, *, #25, .T.);
#71 = ORIENTED_EDGE('', *, *, #63, .F.);
#72 = ORIENTED_EDGE('', *, *, #73, .F.);
#73 = EDGE_CURVE('', #64, #64, #74, .T.);
#74 = CIRCLE('', #75, 5.5565);
#75 = AXIS2_PLACEMENT_3D('', #76, #77, #78);
#76 = CARTESIAN_POINT('', (9.29811783123569E-16, -3.77475828372553E-15, -44.45));
#77 = DIRECTION('', (0., 0., -1.));
#78 = DIRECTION('', (-1., 1.23041002282078E-15, 0.));
#79 = (
   BOUNDED_SURFACE ()
   B_SPLINE_SURFACE (1, 2, ((#80, #81, #82, #83, #84, #85, #86, #87, #88), (#89, #90, #91, #92, #93, #94, #95, #96, #97)), .UNSPECIFIED., .F., .T., .U.)
   B_SPLINE_SURFACE_WITH_KNOTS ((2, 2), (3, 2, 2, 2, 3), (0., 1.), (0., 8.72812978983585, 17.4562595796717, 26.1843893695076, 34.9125191593434), .UNSPECIFIED.)
   GEOMETRIC_REPRESENTATION_ITEM ()
   RATIONAL_B_SPLINE_SURFACE (((1., 0.707106781186548, 1., 0.707106781186548, 1., 0.707106781186548, 1., 0.707106781186548, 1.), (1., 0.707106781186548, 1., 0.707106781186548, 1., 0.707106781186548, 1., 0.707106781186548, 1.)))
   REPRESENTATION_ITEM ('')
   SURFACE ()
);
#80 = CARTESIAN_POINT('', (-5.5565, 3.26084111069583E-15, -44.45));
#81 = CARTESIAN_POINT('', (-5.5565, 5.5565, -44.45));
#82 = CARTESIAN_POINT('', (-3.40676521113678E-16, 5.5565, -44.45));
#83 = CARTESIAN_POINT('', (5.5565, 5.5565, -44.45));
#84 = CARTESIAN_POINT('', (5.5565, 2.52665979652611E-15, -44.45));
#85 = CARTESIAN_POINT('', (5.5565, -5.5565, -44.45));
#86 = CARTESIAN_POINT('', (-3.94382841337169E-16, -5.5565, -44.45));
#87 = CARTESIAN_POINT('', (-5.5565, -5.5565, -44.45));
#88 = CARTESIAN_POINT('', (-5.5565, 3.26084111069583E-15, -44.45));
#89 = CARTESIAN_POINT('', (-5.5565, 3.74261246670425E-16, -0.55565));
#90 = CARTESIAN_POINT('', (-5.5565, 5.5565, -0.55565));
#91 = CARTESIAN_POINT('', (-3.40676521113679E-16, 5.5565, -0.55565));
#92 = CARTESIAN_POINT('', (5.5565, 5.5565, -0.55565));
#93 = CARTESIAN_POINT('', (5.5565, -3.59920067499292E-16, -0.55565));
#94 = CARTESIAN_POINT('', (5.5565, -5.5565, -0.55565));
#95 = CARTESIAN_POINT('', (-3.94382841337169E-16, -5.5565, -0.55565));
#96 = CARTESIAN_POINT('', (-5.5565, -5.5565, -0.55565));
#97 = CARTESIAN_POINT('', (-5.5565, 3.74261246670425E-16, -0.55565));
#98 = ADVANCED_FACE('', (#99), #102, .T.);
#99 = FACE_OUTER_BOUND('', #100, .T.);
#100 = EDGE_LOOP('', (#101));
#101 = ORIENTED_EDGE('', *, *, #73, .T.);
#102 = B_SPLINE_SURFACE_WITH_KNOTS('', 1, 1, ((#103, #104), (#105, #106)), .UNSPECIFIED., .F., .F., .U., (2, 2), (2, 2), (3.08738542525872, 14.2003854252587), (3.08738542525871, 14.2003854252587), .UNSPECIFIED.);
#103 = CARTESIAN_POINT('', (5.5565, -5.5565, -44.45));
#104 = CARTESIAN_POINT('', (5.5565, 5.5565, -44.45));
#105 = CARTESIAN_POINT('', (-5.5565, -5.5565, -44.45));
#106 = CARTESIAN_POINT('', (-5.5565, 5.5565, -44.45));
#107 = DRAUGHTING_MODEL('', (#115, #239, #287, #292, #297, #302, #307, #312), #326);
#108 = PRESENTATION_STYLE_ASSIGNMENT((#109));
#109 = SURFACE_STYLE_USAGE(.POSITIVE., #110);
#110 = SURFACE_SIDE_STYLE('', (#111));
#111 = SURFACE_STYLE_FILL_AREA(#112);
#112 = FILL_AREA_STYLE('', (#113));
#113 = FILL_AREA_STYLE_COLOUR('', #114);
#114 = COLOUR_RGB('', 0.50196078431373, 0.50196078431373, 0.50196078431373);
#115 = STYLED_ITEM('', (#108), #1);
#116 = MANIFOLD_SOLID_BREP('CUT', #117);
#117 = CLOSED_SHELL('', (#118, #135, #174, #223));
#118 = ADVANCED_FACE('', (#119), #130, .T.);
#119 = FACE_OUTER_BOUND('', #120, .T.);
#120 = EDGE_LOOP('', (#121));
#121 = ORIENTED_EDGE('', *, *, #122, .F.);
#122 = EDGE_CURVE('', #123, #123, #125, .T.);
#123 = VERTEX_POINT('', #124);
#124 = CARTESIAN_POINT('', (-5.555, 3.06192315956817E-15, -44.45));
#125 = CIRCLE('', #126, 5.555);
#126 = AXIS2_PLACEMENT_3D('', #127, #128, #129);
#127 = CARTESIAN_POINT('', (-2.4980018054066E-16, 1.66533453693773E-15, -44.45));
#128 = DIRECTION('', (0., 0., -1.));
#129 = DIRECTION('', (-1., 2.51411093182797E-16, 0.));
#130 = B_SPLINE_SURFACE_WITH_KNOTS('', 1, 1, ((#131, #132), (#133, #134)), .UNSPECIFIED., .F., .F., .U., (2, 2), (2, 2), (64.5258248109479, 75.6358248109479), (67.5566439101136, 78.6666439101136), .UNSPECIFIED.);
#131 = CARTESIAN_POINT('', (-5.55500000000001, 5.55499999999999, -44.45));
#132 = CARTESIAN_POINT('', (5.55500000000001, 5.55499999999999, -44.45));
#133 = CARTESIAN_POINT('', (-5.55500000000001, -5.55499999999999, -44.45));
#134 = CARTESIAN_POINT('', (5.55500000000001, -5.55499999999999, -44.45));
#135 = ADVANCED_FACE('', (#136), #155, .T.);
#136 = FACE_OUTER_BOUND('', #137, .T.);
#137 = EDGE_LOOP('', (#138, #146, #147, #148));
#138 = ORIENTED_EDGE('', *, *, #139, .F.);
#139 = EDGE_CURVE('', #123, #140, #142, .T.);
#140 = VERTEX_POINT('', #141);
#141 = CARTESIAN_POINT('', (-5.555, 4.59389507296155E-15, -69.469));
#142 = LINE('', #143, #144);
#143 = CARTESIAN_POINT('', (-5.555, 3.06192315956817E-15, -44.45));
#144 = VECTOR('', #145, 25.019);
#145 = DIRECTION('', (0., 1.53197191339338E-15, -25.019));
#146 = ORIENTED_EDGE('', *, *, #122, .T.);
#147 = ORIENTED_EDGE('', *, *, #139, .T.);
#148 = ORIENTED_EDGE('', *, *, #149, .F.);
#149 = EDGE_CURVE('', #140, #140, #150, .T.);
#150 = CIRCLE('', #151, 5.555);
#151 = AXIS2_PLACEMENT_3D('', #152, #153, #154);
#152 = CARTESIAN_POINT('', (-2.91433543964104E-16, 2.77555756156289E-15, -69.469));
#153 = DIRECTION('', (0., 0., -1.));
#154 = DIRECTION('', (-1., 3.27333485400299E-16, 0.));
#155 = (
   BOUNDED_SURFACE ()
   B_SPLINE_SURFACE (2, 1, ((#156, #157), (#158, #159), (#160, #161), (#162, #163), (#164, #165), (#166, #167), (#168, #169), (#170, #171), (#172, #173)), .UNSPECIFIED., .T., .F., .U.)
   B_SPLINE_SURFACE_WITH_KNOTS ((3, 2, 2, 2, 3), (2, 2), (0., 8.72577359534565, 17.4515471906913, 26.177320786037, 34.9030943813826), (0., 1.), .UNSPECIFIED.)
   GEOMETRIC_REPRESENTATION_ITEM ()
   RATIONAL_B_SPLINE_SURFACE (((1., 1.), (0.707106781186548, 0.707106781186548), (1., 1.), (0.707106781186548, 0.707106781186548), (1., 1.), (0.707106781186548, 0.707106781186548), (1., 1.), (0.707106781186548, 0.707106781186548), (1., 1.)))
   REPRESENTATION_ITEM ('')
   SURFACE ()
);
#156 = CARTESIAN_POINT('', (-5.555, 3.06192315956817E-15, -44.45));
#157 = CARTESIAN_POINT('', (-5.555, 4.39419078911836E-15, -69.469));
#158 = CARTESIAN_POINT('', (-5.555, 5.555, -44.45));
#159 = CARTESIAN_POINT('', (-5.555, 5.555, -69.469));
#160 = CARTESIAN_POINT('', (2.31932166467837E-15, 5.555, -44.45));
#161 = CARTESIAN_POINT('', (2.31932166467837E-15, 5.555, -69.469));
#162 = CARTESIAN_POINT('', (5.555, 5.555, -44.45));
#163 = CARTESIAN_POINT('', (5.555, 5.555, -69.469));
#164 = CARTESIAN_POINT('', (5.555, -1.61185813391502E-16, -44.45));
#165 = CARTESIAN_POINT('', (5.555, 1.17108181615869E-15, -69.469));
#166 = CARTESIAN_POINT('', (5.555, -5.555, -44.45));
#167 = CARTESIAN_POINT('', (5.555, -5.555, -69.469));
#168 = CARTESIAN_POINT('', (-2.23496011354944E-16, -5.555, -44.45));
#169 = CARTESIAN_POINT('', (-2.23496011354944E-16, -5.555, -69.469));
#170 = CARTESIAN_POINT('', (-5.555, -5.555, -44.45));
#171 = CARTESIAN_POINT('', (-5.555, -5.555, -69.469));
#172 = CARTESIAN_POINT('', (-5.555, 3.06192315956817E-15, -44.45));
#173 = CARTESIAN_POINT('', (-5.555, 4.39419078911836E-15, -69.469));
#174 = ADVANCED_FACE('', (#175), #195, .T.);
#175 = FACE_OUTER_BOUND('', #176, .T.);
#176 = EDGE_LOOP('', (#177, #186, #187, #188));
#177 = ORIENTED_EDGE('', *, *, #178, .F.);
#178 = EDGE_CURVE('', #140, #179, #181, .T.);
#179 = VERTEX_POINT('', #180);
#180 = CARTESIAN_POINT('', (-5.174, 4.59389507296155E-15, -69.85));
#181 = CIRCLE('', #182, 0.381000000000016);
#182 = AXIS2_PLACEMENT_3D('', #183, #184, #185);
#183 = CARTESIAN_POINT('', (-5.17399999999999, 4.57056555143779E-15, -69.469));
#184 = DIRECTION('', (-6.12323399573687E-17, -1., -6.12323399573705E-17));
#185 = DIRECTION('', (-1., 6.1232339957371E-17, -3.72988312734944E-14));
#186 = ORIENTED_EDGE('', *, *, #149, .T.);
#187 = ORIENTED_EDGE('', *, *, #178, .T.);
#188 = ORIENTED_EDGE('', *, *, #189, .F.);
#189 = EDGE_CURVE('', #179, #179, #190, .T.);
#190 = CIRCLE('', #191, 5.174);
#191 = AXIS2_PLACEMENT_3D('', #192, #193, #194);
#192 = CARTESIAN_POINT('', (-9.71445146547012E-17, 2.44249065417534E-15, -69.85));
#193 = DIRECTION('', (0., 0., -1.));
#194 = DIRECTION('', (-1., 4.15810672359143E-16, 0.));
#195 = (
   BOUNDED_SURFACE ()
   B_SPLINE_SURFACE (2, 2, ((#196, #197, #198), (#199, #200, #201), (#202, #203, #204), (#205, #206, #207), (#208, #209, #210), (#211, #212, #213), (#214, #215, #216), (#217, #218, #219), (#220, #221, #222)), .UNSPECIFIED., .T., .F., .U.)
   B_SPLINE_SURFACE_WITH_KNOTS ((3, 2, 2, 2, 3), (3, 3), (0., 0.25, 0.5, 0.75, 1.), (0., 1.), .UNSPECIFIED.)
   GEOMETRIC_REPRESENTATION_ITEM ()
   RATIONAL_B_SPLINE_SURFACE (((1., 0.707106781186548, 1.), (0.707106781186548, 0.5, 0.707106781186548), (1., 0.707106781186548, 1.), (0.707106781186548, 0.5, 0.707106781186548), (1., 0.707106781186548, 1.), (0.707106781186548, 0.5, 0.707106781186548), (1., 0.707106781186548, 1.), (0.707106781186548, 0.5, 0.707106781186548), (1., 0.707106781186548, 1.)))
   REPRESENTATION_ITEM ('')
   SURFACE ()
);
#196 = CARTESIAN_POINT('', (-5.555, 4.59389507296155E-15, -69.469));
#197 = CARTESIAN_POINT('', (-5.555, 4.61722459448531E-15, -69.85));
#198 = CARTESIAN_POINT('', (-5.174, 4.59389507296155E-15, -69.85));
#199 = CARTESIAN_POINT('', (-5.555, 5.55500000000001, -69.469));
#200 = CARTESIAN_POINT('', (-5.555, 5.55500000000001, -69.85));
#201 = CARTESIAN_POINT('', (-5.174, 5.17400000000001, -69.85));
#202 = CARTESIAN_POINT('', (3.49047109506858E-15, 5.555, -69.469));
#203 = CARTESIAN_POINT('', (1.96447714772088E-16, 5.55500000000001, -69.85));
#204 = CARTESIAN_POINT('', (1.96447714772085E-16, 5.17400000000001, -69.85));
#205 = CARTESIAN_POINT('', (5.555, 5.555, -69.469));
#206 = CARTESIAN_POINT('', (5.555, 5.55500000000001, -69.85));
#207 = CARTESIAN_POINT('', (5.174, 5.17400000000001, -69.85));
#208 = CARTESIAN_POINT('', (5.555, -5.82934702159726E-16, -69.469));
#209 = CARTESIAN_POINT('', (5.555, 6.02844157995702E-15, -69.85));
#210 = CARTESIAN_POINT('', (5.174, 6.00511205843326E-15, -69.85));
#211 = CARTESIAN_POINT('', (5.555, -5.555, -69.469));
#212 = CARTESIAN_POINT('', (5.555, -5.55499999999999, -69.85));
#213 = CARTESIAN_POINT('', (5.174, -5.17399999999999, -69.85));
#214 = CARTESIAN_POINT('', (-1.00606738312634E-15, -5.555, -69.469));
#215 = CARTESIAN_POINT('', (2.28795599717015E-15, -5.555, -69.85));
#216 = CARTESIAN_POINT('', (2.24129695412264E-15, -5.174, -69.85));
#217 = CARTESIAN_POINT('', (-5.555, -5.555, -69.469));
#218 = CARTESIAN_POINT('', (-5.555, -5.555, -69.85));
#219 = CARTESIAN_POINT('', (-5.174, -5.174, -69.85));
#220 = CARTESIAN_POINT('', (-5.555, 4.59389507296155E-15, -69.469));
#221 = CARTESIAN_POINT('', (-5.555, 4.61722459448531E-15, -69.85));
#222 = CARTESIAN_POINT('', (-5.174, 4.59389507296155E-15, -69.85));
#223 = ADVANCED_FACE('', (#224), #227, .T.);
#224 = FACE_OUTER_BOUND('', #225, .T.);
#225 = EDGE_LOOP('', (#226));
#226 = ORIENTED_EDGE('', *, *, #189, .T.);
#227 = B_SPLINE_SURFACE_WITH_KNOTS('', 1, 1, ((#228, #229), (#230, #231)), .UNSPECIFIED., .F., .F., .U., (2, 2), (2, 2), (2.87485506889024, 13.2228550688902), (2.87485506889023, 13.2228550688902), .UNSPECIFIED.);
#228 = CARTESIAN_POINT('', (5.174, -5.174, -69.85));
#229 = CARTESIAN_POINT('', (5.174, 5.174, -69.85));
#230 = CARTESIAN_POINT('', (-5.174, -5.174, -69.85));
#231 = CARTESIAN_POINT('', (-5.174, 5.174, -69.85));
#232 = PRESENTATION_STYLE_ASSIGNMENT((#233));
#233 = SURFACE_STYLE_USAGE(.POSITIVE., #234);
#234 = SURFACE_SIDE_STYLE('', (#235));
#235 = SURFACE_STYLE_FILL_AREA(#236);
#236 = FILL_AREA_STYLE('', (#237));
#237 = FILL_AREA_STYLE_COLOUR('', #238);
#238 = COLOUR_RGB('', 0.8, 0.8, 0.8);
#239 = STYLED_ITEM('', (#232), #116);
#240 = TRIMMED_CURVE('cutting part line', #241, (#245), (#246), .T., .CARTESIAN.);
#241 = LINE('', #242, #243);
#242 = CARTESIAN_POINT('', (-4.99982417544897E-31, -2.72177751110499E-15, -44.45));
#243 = VECTOR('', #244, 5.555);
#244 = DIRECTION('', (5.555, -1.02043694538954E-15, 0.));
#245 = CARTESIAN_POINT('', (-4.99982417544897E-31, -2.72177751110499E-15, -44.45));
#246 = CARTESIAN_POINT('', (5.555, -3.74221445649453E-15, -44.45));
#247 = TRIMMED_CURVE('cutting part line', #248, (#252), (#253), .T., .CARTESIAN.);
#248 = LINE('', #249, #250);
#249 = CARTESIAN_POINT('', (5.555, -3.74221445649453E-15, -44.45));
#250 = VECTOR('', #251, 25.019);
#251 = DIRECTION('', (0., -1.53197191339338E-15, -25.019));
#252 = CARTESIAN_POINT('', (5.555, -3.74221445649453E-15, -44.45));
#253 = CARTESIAN_POINT('', (5.555, -5.2741863698879E-15, -69.469));
#254 = TRIMMED_CURVE('cutting part line', #255, (#260), (#261), .T., .CARTESIAN.);
#255 = CIRCLE('', #256, 0.380999999999981);
#256 = AXIS2_PLACEMENT_3D('', #257, #258, #259);
#257 = CARTESIAN_POINT('', (5.17400000000002, -5.20419780531663E-15, -69.469));
#258 = DIRECTION('', (1.83697019872111E-16, 1., -6.12323399573756E-17));
#259 = DIRECTION('', (1., -1.83697019872109E-16, 3.72988312734977E-14));
#260 = CARTESIAN_POINT('', (5.555, -5.2741863698879E-15, -69.469));
#261 = CARTESIAN_POINT('', (5.174, -5.22752732684039E-15, -69.85));
#262 = TRIMMED_CURVE('cutting part line', #263, (#267), (#268), .T., .CARTESIAN.);
#263 = LINE('', #264, #265);
#264 = CARTESIAN_POINT('', (5.174, -5.22752732684039E-15, -69.85));
#265 = VECTOR('', #266, 5.174);
#266 = DIRECTION('', (-5.174, 9.50448380818261E-16, 0.));
#267 = CARTESIAN_POINT('', (5.174, -5.22752732684039E-15, -69.85));
#268 = CARTESIAN_POINT('', (-5.23791104094654E-31, -4.27707894602213E-15, -69.85));
#269 = TRIMMED_CURVE('cutting part line', #270, (#274), (#275), .T., .CARTESIAN.);
#270 = LINE('', #271, #272);
#271 = CARTESIAN_POINT('', (-7.85686656141981E-31, -4.27707894602213E-15, -69.85));
#272 = VECTOR('', #273, 25.4);
#273 = DIRECTION('', (2.85704238597084E-31, 1.55530143491714E-15, 25.4));
#274 = CARTESIAN_POINT('', (-7.85686656141981E-31, -4.27707894602213E-15, -69.85));
#275 = CARTESIAN_POINT('', (-4.99982417544897E-31, -2.72177751110499E-15, -44.45));
#276 = COMPOSITE_CURVE('cutting part line', (#277, #278, #279, #280, #281), .U.);
#277 = COMPOSITE_CURVE_SEGMENT(.CONTINUOUS., .T., #240);
#278 = COMPOSITE_CURVE_SEGMENT(.CONTINUOUS., .T., #247);
#279 = COMPOSITE_CURVE_SEGMENT(.CONTINUOUS., .T., #254);
#280 = COMPOSITE_CURVE_SEGMENT(.CONTINUOUS., .T., #262);
#281 = COMPOSITE_CURVE_SEGMENT(.CONTINUOUS., .T., #269);
#282 = GEOMETRIC_SET('', (#276, #325));
#283 = PRESENTATION_STYLE_ASSIGNMENT((#284));
#284 = CURVE_STYLE('', #286, POSITIVE_LENGTH_MEASURE(1.E-6), #285);
#285 = COLOUR_RGB('', 0., 0., 1.);
#286 = DRAUGHTING_PRE_DEFINED_CURVE_FONT('continuous');
#287 = STYLED_ITEM('', (#283), #276);
#288 = PRESENTATION_STYLE_ASSIGNMENT((#289));
#289 = CURVE_STYLE('', #291, POSITIVE_LENGTH_MEASURE(1.E-6), #290);
#290 = COLOUR_RGB('', 0., 0., 1.);
#291 = DRAUGHTING_PRE_DEFINED_CURVE_FONT('continuous');
#292 = OVER_RIDING_STYLED_ITEM('', (#288), #240, #287);
#293 = PRESENTATION_STYLE_ASSIGNMENT((#294));
#294 = CURVE_STYLE('', #296, POSITIVE_LENGTH_MEASURE(1.E-6), #295);
#295 = COLOUR_RGB('', 0., 0., 1.);
#296 = DRAUGHTING_PRE_DEFINED_CURVE_FONT('continuous');
#297 = OVER_RIDING_STYLED_ITEM('', (#293), #247, #287);
#298 = PRESENTATION_STYLE_ASSIGNMENT((#299));
#299 = CURVE_STYLE('', #301, POSITIVE_LENGTH_MEASURE(1.E-6), #300);
#300 = COLOUR_RGB('', 0., 0., 1.);
#301 = DRAUGHTING_PRE_DEFINED_CURVE_FONT('continuous');
#302 = OVER_RIDING_STYLED_ITEM('', (#298), #254, #287);
#303 = PRESENTATION_STYLE_ASSIGNMENT((#304));
#304 = CURVE_STYLE('', #306, POSITIVE_LENGTH_MEASURE(1.E-6), #305);
#305 = COLOUR_RGB('', 0., 0., 1.);
#306 = DRAUGHTING_PRE_DEFINED_CURVE_FONT('continuous');
#307 = OVER_RIDING_STYLED_ITEM('', (#303), #262, #287);
#308 = PRESENTATION_STYLE_ASSIGNMENT((#309));
#309 = CURVE_STYLE('', #311, POSITIVE_LENGTH_MEASURE(1.E-6), #310);
#310 = COLOUR_RGB('', 0., 0., 1.);
#311 = DRAUGHTING_PRE_DEFINED_CURVE_FONT('continuous');
#312 = OVER_RIDING_STYLED_ITEM('', (#308), #269, #287);
#313 = AXIS2_PLACEMENT_3D('CIP', #314, #315, #316);
#314 = CARTESIAN_POINT('', (2.61895552047327E-31, 4.27707894602213E-15, -69.85));
#315 = DIRECTION('', (-3.74939945665465E-33, -6.12323399573677E-17, 1.));
#316 = DIRECTION('', (1., -6.12323399573677E-17, 0.));
#317 = AXIS2_PLACEMENT_3D('MCS', #318, #319, #320);
#318 = CARTESIAN_POINT('', (1.49975978266186E-31, 2.44929359829471E-15, -40.));
#319 = DIRECTION('', (-3.74939945665465E-33, -6.12323399573677E-17, 1.));
#320 = DIRECTION('', (1., -6.12323399573677E-17, 0.));
#321 = AXIS2_PLACEMENT_3D('PCS', #322, #323, #324);
#322 = CARTESIAN_POINT('', (0., 0., 0.));
#323 = DIRECTION('', (0., 0., 1.));
#324 = DIRECTION('', (1., 0., 0.));
#325 = CARTESIAN_POINT('CRP', (5.555, 0., -69.85));
#326 = (
   GEOMETRIC_REPRESENTATION_CONTEXT (3)
   GLOBAL_UNCERTAINTY_ASSIGNED_CONTEXT ((#328))
   GLOBAL_UNIT_ASSIGNED_CONTEXT ((#327, #329, #330))
   REPRESENTATION_CONTEXT ('', '3D')
);
#327 = (
   LENGTH_UNIT ()
   NAMED_UNIT (*)
   SI_UNIT (.MILLI., .METRE.)
);
#328 = UNCERTAINTY_MEASURE_WITH_UNIT(LENGTH_MEASURE(1.E-6), #327, 'DISTANCE_ACCURACY_VALUE', '');
#329 = (
   NAMED_UNIT (*)
   SI_UNIT ($, .STERADIAN.)
   SOLID_ANGLE_UNIT ()
);
#330 = (
   NAMED_UNIT (*)
   PLANE_ANGLE_UNIT ()
   SI_UNIT ($, .RADIAN.)
);
#331 = SHAPE_REPRESENTATION('', (), #326);
#332 = PRODUCT_DEFINITION_SHAPE('', '', #333);
#333 = PRODUCT_DEFINITION('', '', #336, #340);
#334 = APPLICATION_CONTEXT('configuration controlled 3D designs of mechanical parts and assemblies');
#335 = APPLICATION_PROTOCOL_DEFINITION('International Standard', 'automotive_design', 2002, #334);
#336 = PRODUCT_DEFINITION_FORMATION_WITH_SPECIFIED_SOURCE('', '', #337, .NOT_KNOWN.);
#337 = PRODUCT('NONE', '2S342-1111-038-PA   1730', '', (#338));
#338 = PRODUCT_CONTEXT('', #334, 'mechanical');
#339 = PRODUCT_RELATED_PRODUCT_CATEGORY('detail', '', (#337));
#340 = PRODUCT_DEFINITION_CONTEXT('part definition', #334, 'design');
#341 = SHAPE_DEFINITION_REPRESENTATION(#332, #331);
#342 = CONSTRUCTIVE_GEOMETRY_REPRESENTATION('supplemental geometry', (#313, #317, #321), #326);
#343 = CONSTRUCTIVE_GEOMETRY_REPRESENTATION_RELATIONSHIP('', '', #331, #342);
#344 = SHAPE_REPRESENTATION_RELATIONSHIP('', '', #331, #345);
#345 = SHAPE_REPRESENTATION('', (#282), #326);
#346 = SHAPE_REPRESENTATION_RELATIONSHIP('', '', #331, #347);
#347 = ADVANCED_BREP_SHAPE_REPRESENTATION('', (#1, #116), #326);
ENDSEC;
END-ISO-10303-21;
