ISO-10303-21;
HEADER;
FILE_DESCRIPTION(('STEP'), '1');
FILE_NAME('C:\\Users\\ds2002\\OneDrive - Sandvik\\HomeShare\\Documents\\Batchrepair\\CorSRT2\\NEW_MILSQ_SLD\\Output\\MOD000000000000000020082334100000.stp', '2019-01-02T12:10:26', (''), (''), 'Express v3.0.0.0', 'Express Tool', 'Unknown');
FILE_SCHEMA(('AUTOMOTIVE_DESIGN'));
ENDSEC;

DATA;
#1 = MANIFOLD_SOLID_BREP('NOCUT', #2);
#2 = CLOSED_SHELL('', (#3, #50, #59, #98));
#3 = ADVANCED_FACE('', (#4), #31, .T.);
#4 = FACE_OUTER_BOUND('', #5, .T.);
#5 = EDGE_LOOP('', (#6, #16, #23, #24));
#6 = ORIENTED_EDGE('', *, *, #7, .T.);
#7 = EDGE_CURVE('', #8, #10, #12, .T.);
#8 = VERTEX_POINT('', #9);
#9 = CARTESIAN_POINT('', (-4.7625, 3.2078092095166E-16, -0.47625));
#10 = VERTEX_POINT('', #11);
#11 = CARTESIAN_POINT('', (-4.28625, 2.62457117142267E-16, 0.));
#12 = LINE('', #13, #14);
#13 = CARTESIAN_POINT('', (-4.7625, 3.2078092095166E-16, -0.47625));
#14 = VECTOR('', #15, 0.673519209080187);
#15 = DIRECTION('', (0.47625, -5.8323803809393E-17, 0.47625));
#16 = ORIENTED_EDGE('', *, *, #17, .T.);
#17 = EDGE_CURVE('', #10, #10, #18, .T.);
#18 = CIRCLE('', #19, 4.28625);
#19 = AXIS2_PLACEMENT_3D('', #20, #21, #22);
#20 = CARTESIAN_POINT('', (2.08166817117217E-16, 2.22044604925031E-15, 1.41748443906901E-31));
#21 = DIRECTION('', (5.09914260327735E-33, 6.12323399573676E-17, -1.));
#22 = DIRECTION('', (-1., -7.01736343115104E-16, -4.80681009253414E-32));
#23 = ORIENTED_EDGE('', *, *, #7, .F.);
#24 = ORIENTED_EDGE('', *, *, #25, .F.);
#25 = EDGE_CURVE('', #8, #8, #26, .T.);
#26 = CIRCLE('', #27, 4.7625);
#27 = AXIS2_PLACEMENT_3D('', #28, #29, #30);
#28 = CARTESIAN_POINT('', (-1.80411241501588E-16, -1.33226762955019E-15, -0.47625));
#29 = DIRECTION('', (-2.3311769545935E-17, 1.94854295150446E-16, -1.));
#30 = DIRECTION('', (-1., 3.47096808504325E-16, 2.3311769545935E-17));
#31 = (
   BOUNDED_SURFACE ()
   B_SPLINE_SURFACE (1, 2, ((#32, #33, #34, #35, #36, #37, #38, #39, #40), (#41, #42, #43, #44, #45, #46, #47, #48, #49)), .UNSPECIFIED., .F., .T., .U.)
   B_SPLINE_SURFACE_WITH_KNOTS ((2, 2), (3, 2, 2, 2, 3), (0., 1.), (0., 0.25, 0.5, 0.75, 1.), .UNSPECIFIED.)
   GEOMETRIC_REPRESENTATION_ITEM ()
   RATIONAL_B_SPLINE_SURFACE (((1., 0.707106781186548, 1., 0.707106781186548, 1., 0.707106781186548, 1., 0.707106781186548, 1.), (1., 0.707106781186548, 1., 0.707106781186548, 1., 0.707106781186548, 1., 0.707106781186548, 1.)))
   REPRESENTATION_ITEM ('')
   SURFACE ()
);
#32 = CARTESIAN_POINT('', (-4.7625, 1.85826706490691E-15, -0.47625));
#33 = CARTESIAN_POINT('', (-4.7625, 4.7625, -0.476249999999988));
#34 = CARTESIAN_POINT('', (1.91359274105531E-15, 4.7625, -0.476249999999988));
#35 = CARTESIAN_POINT('', (4.7625, 4.7625, -0.476249999999988));
#36 = CARTESIAN_POINT('', (4.7625, -5.04978731053851E-15, -0.47625));
#37 = CARTESIAN_POINT('', (4.7625, -4.76250000000001, -0.476250000000012));
#38 = CARTESIAN_POINT('', (-4.41122359629619E-15, -4.7625, -0.476250000000012));
#39 = CARTESIAN_POINT('', (-4.76250000000001, -4.7625, -0.476250000000012));
#40 = CARTESIAN_POINT('', (-4.7625, 1.85826706490691E-15, -0.47625));
#41 = CARTESIAN_POINT('', (-4.28625, 2.62457117142269E-16, 1.09476442525376E-46));
#42 = CARTESIAN_POINT('', (-4.28625, 4.28625, 1.09912079437891E-14));
#43 = CARTESIAN_POINT('', (1.56819002228304E-15, 4.28625, 1.09912079437891E-14));
#44 = CARTESIAN_POINT('', (4.28625, 4.28625, 1.09912079437891E-14));
#45 = CARTESIAN_POINT('', (4.28625, -5.95479182075861E-15, 9.76256213390072E-31));
#46 = CARTESIAN_POINT('', (4.28625, -4.28625000000001, -1.09912079437891E-14));
#47 = CARTESIAN_POINT('', (-4.12414468133331E-15, -4.28625, -1.09912079437891E-14));
#48 = CARTESIAN_POINT('', (-4.28625000000001, -4.28625, -1.09912079437891E-14));
#49 = CARTESIAN_POINT('', (-4.28625, 2.62457117142269E-16, 1.09476442525376E-46));
#50 = ADVANCED_FACE('', (#51), #54, .T.);
#51 = FACE_OUTER_BOUND('', #52, .T.);
#52 = EDGE_LOOP('', (#53));
#53 = ORIENTED_EDGE('', *, *, #17, .F.);
#54 = B_SPLINE_SURFACE_WITH_KNOTS('', 1, 1, ((#55, #56), (#57, #58)), .UNSPECIFIED., .F., .F., .U., (2, 2), (2, 2), (2.38159016989385, 10.9540901698938), (2.38159016989385, 10.9540901698938), .UNSPECIFIED.);
#55 = CARTESIAN_POINT('', (4.28625, -4.28625, 6.84297024045869E-15));
#56 = CARTESIAN_POINT('', (-4.28625, -4.28625, -7.36788447474329E-15));
#57 = CARTESIAN_POINT('', (4.28625, 4.28625, 7.36788447474323E-15));
#58 = CARTESIAN_POINT('', (-4.28625, 4.28625, -6.84297024045875E-15));
#59 = ADVANCED_FACE('', (#60), #79, .T.);
#60 = FACE_OUTER_BOUND('', #61, .T.);
#61 = EDGE_LOOP('', (#62, #71, #77, #78));
#62 = ORIENTED_EDGE('', *, *, #63, .F.);
#63 = EDGE_CURVE('', #64, #64, #66, .T.);
#64 = VERTEX_POINT('', #65);
#65 = CARTESIAN_POINT('', (-4.7625, 2.81867768908753E-15, -41.27));
#66 = CIRCLE('', #67, 4.7625);
#67 = AXIS2_PLACEMENT_3D('', #68, #69, #70);
#68 = CARTESIAN_POINT('', (1.9151347174784E-15, -7.99360577730113E-15, -41.27));
#69 = DIRECTION('', (0., 0., -1.));
#70 = DIRECTION('', (-1., 2.270295740974E-15, 0.));
#71 = ORIENTED_EDGE('', *, *, #72, .F.);
#72 = EDGE_CURVE('', #8, #64, #73, .T.);
#73 = LINE('', #74, #75);
#74 = CARTESIAN_POINT('', (-4.7625, 3.2078092095166E-16, -0.47625));
#75 = VECTOR('', #76, 40.79375);
#76 = DIRECTION('', (0., 2.49789676813587E-15, -40.79375));
#77 = ORIENTED_EDGE('', *, *, #25, .T.);
#78 = ORIENTED_EDGE('', *, *, #72, .T.);
#79 = (
   BOUNDED_SURFACE ()
   B_SPLINE_SURFACE (1, 2, ((#80, #81, #82, #83, #84, #85, #86, #87, #88), (#89, #90, #91, #92, #93, #94, #95, #96, #97)), .UNSPECIFIED., .F., .T., .U.)
   B_SPLINE_SURFACE_WITH_KNOTS ((2, 2), (3, 2, 2, 2, 3), (-0.405529953917051, 1.), (0., 0.25, 0.5, 0.75, 1.), .UNSPECIFIED.)
   GEOMETRIC_REPRESENTATION_ITEM ()
   RATIONAL_B_SPLINE_SURFACE (((1., 0.707106781186548, 1., 0.707106781186548, 1., 0.707106781186548, 1., 0.707106781186548, 1.), (1., 0.707106781186548, 1., 0.707106781186548, 1., 0.707106781186548, 1., 0.707106781186548, 1.)))
   REPRESENTATION_ITEM ('')
   SURFACE ()
);
#80 = CARTESIAN_POINT('', (-4.7625, -2.16616349666264E-14, -41.27));
#81 = CARTESIAN_POINT('', (-4.76250000000002, 4.76249999999998, -41.27));
#82 = CARTESIAN_POINT('', (-1.96188352381273E-14, 4.7625, -41.27));
#83 = CARTESIAN_POINT('', (4.76249999999998, 4.76250000000001, -41.27));
#84 = CARTESIAN_POINT('', (4.7625, 1.55835348569694E-14, -41.27));
#85 = CARTESIAN_POINT('', (4.76250000000002, -4.76249999999998, -41.27));
#86 = CARTESIAN_POINT('', (1.82095726235625E-14, -4.7625, -41.27));
#87 = CARTESIAN_POINT('', (-4.76249999999998, -4.76250000000002, -41.27));
#88 = CARTESIAN_POINT('', (-4.7625, -2.16616349666264E-14, -41.27));
#89 = CARTESIAN_POINT('', (-4.7625, 3.20780920951666E-16, -0.47625));
#90 = CARTESIAN_POINT('', (-4.76250000000002, 4.7625, -0.476250000000003));
#91 = CARTESIAN_POINT('', (-1.81923734897557E-14, 4.76250000000002, -0.476250000000003));
#92 = CARTESIAN_POINT('', (4.76249999999998, 4.76250000000004, -0.476250000000003));
#93 = CARTESIAN_POINT('', (4.7625, 3.75659507445475E-14, -0.47625));
#94 = CARTESIAN_POINT('', (4.76250000000002, -4.76249999999996, -0.476249999999998));
#95 = CARTESIAN_POINT('', (1.96360343719341E-14, -4.76249999999998, -0.476249999999998));
#96 = CARTESIAN_POINT('', (-4.76249999999998, -4.7625, -0.476249999999997));
#97 = CARTESIAN_POINT('', (-4.7625, 3.20780920951666E-16, -0.47625));
#98 = ADVANCED_FACE('', (#99), #102, .T.);
#99 = FACE_OUTER_BOUND('', #100, .T.);
#100 = EDGE_LOOP('', (#101));
#101 = ORIENTED_EDGE('', *, *, #63, .T.);
#102 = B_SPLINE_SURFACE_WITH_KNOTS('', 1, 1, ((#103, #104), (#105, #106)), .UNSPECIFIED., .F., .F., .U., (2, 2), (2, 2), (61.578533949867, 71.103533949867), (58.7225329304025, 68.2475329304025), .UNSPECIFIED.);
#103 = CARTESIAN_POINT('', (-4.76250000000001, 4.7625, -41.27));
#104 = CARTESIAN_POINT('', (-4.76250000000001, -4.76250000000001, -41.27));
#105 = CARTESIAN_POINT('', (4.76250000000002, 4.7625, -41.27));
#106 = CARTESIAN_POINT('', (4.76250000000002, -4.76250000000001, -41.27));
#107 = DRAUGHTING_MODEL('', (#115, #239, #287, #292, #297, #302, #307, #312), #326);
#108 = PRESENTATION_STYLE_ASSIGNMENT((#109));
#109 = SURFACE_STYLE_USAGE(.POSITIVE., #110);
#110 = SURFACE_SIDE_STYLE('', (#111));
#111 = SURFACE_STYLE_FILL_AREA(#112);
#112 = FILL_AREA_STYLE('', (#113));
#113 = FILL_AREA_STYLE_COLOUR('', #114);
#114 = COLOUR_RGB('', 0.50196078431373, 0.50196078431373, 0.50196078431373);
#115 = STYLED_ITEM('', (#108), #1);
#116 = MANIFOLD_SOLID_BREP('CUT', #117);
#117 = CLOSED_SHELL('', (#118, #135, #174, #223));
#118 = ADVANCED_FACE('', (#119), #130, .T.);
#119 = FACE_OUTER_BOUND('', #120, .T.);
#120 = EDGE_LOOP('', (#121));
#121 = ORIENTED_EDGE('', *, *, #122, .F.);
#122 = EDGE_CURVE('', #123, #123, #125, .T.);
#123 = VERTEX_POINT('', #124);
#124 = CARTESIAN_POINT('', (-4.7625, 2.81867768908753E-15, -41.27));
#125 = CIRCLE('', #126, 4.7625);
#126 = AXIS2_PLACEMENT_3D('', #127, #128, #129);
#127 = CARTESIAN_POINT('', (1.9151347174784E-15, -7.99360577730113E-15, -41.27));
#128 = DIRECTION('', (0., 0., -1.));
#129 = DIRECTION('', (-1., 2.270295740974E-15, 0.));
#130 = B_SPLINE_SURFACE_WITH_KNOTS('', 1, 1, ((#131, #132), (#133, #134)), .UNSPECIFIED., .F., .F., .U., (2, 2), (2, 2), (58.7225329304025, 68.2475329304025), (61.578533949867, 71.103533949867), .UNSPECIFIED.);
#131 = CARTESIAN_POINT('', (-4.76250000000001, 4.7625, -41.27));
#132 = CARTESIAN_POINT('', (4.7625, 4.7625, -41.27));
#133 = CARTESIAN_POINT('', (-4.76250000000001, -4.76250000000002, -41.27));
#134 = CARTESIAN_POINT('', (4.7625, -4.76250000000002, -41.27));
#135 = ADVANCED_FACE('', (#136), #155, .T.);
#136 = FACE_OUTER_BOUND('', #137, .T.);
#137 = EDGE_LOOP('', (#138, #139, #147, #154));
#138 = ORIENTED_EDGE('', *, *, #122, .T.);
#139 = ORIENTED_EDGE('', *, *, #140, .T.);
#140 = EDGE_CURVE('', #123, #141, #143, .T.);
#141 = VERTEX_POINT('', #142);
#142 = CARTESIAN_POINT('', (-4.7625, 4.08655452024478E-15, -61.976));
#143 = LINE('', #144, #145);
#144 = CARTESIAN_POINT('', (-4.7625, 2.81867768908753E-15, -41.27));
#145 = VECTOR('', #146, 20.706);
#146 = DIRECTION('', (0., 1.26787683115725E-15, -20.706));
#147 = ORIENTED_EDGE('', *, *, #148, .F.);
#148 = EDGE_CURVE('', #141, #141, #149, .T.);
#149 = CIRCLE('', #150, 4.7625);
#150 = AXIS2_PLACEMENT_3D('', #151, #152, #153);
#151 = CARTESIAN_POINT('', (-1.38777878078145E-17, 2.22044604925031E-16, -61.976));
#152 = DIRECTION('', (4.12045537414752E-30, 5.07791910213119E-15, -1.));
#153 = DIRECTION('', (-1., 8.11445651510708E-16, 0.));
#154 = ORIENTED_EDGE('', *, *, #140, .F.);
#155 = (
   BOUNDED_SURFACE ()
   B_SPLINE_SURFACE (1, 2, ((#156, #157, #158, #159, #160, #161, #162, #163, #164), (#165, #166, #167, #168, #169, #170, #171, #172, #173)), .UNSPECIFIED., .F., .T., .U.)
   B_SPLINE_SURFACE_WITH_KNOTS ((2, 2), (3, 2, 2, 2, 3), (-1.1189456910289, -0.405529953917051), (0., 0.25, 0.5, 0.75, 1.), .UNSPECIFIED.)
   GEOMETRIC_REPRESENTATION_ITEM ()
   RATIONAL_B_SPLINE_SURFACE (((1., 0.707106781186548, 1., 0.707106781186548, 1., 0.707106781186548, 1., 0.707106781186548, 1.), (1., 0.707106781186548, 1., 0.707106781186548, 1., 0.707106781186548, 1., 0.707106781186548, 1.)))
   REPRESENTATION_ITEM ('')
   SURFACE ()
);
#156 = CARTESIAN_POINT('', (-4.7625, -1.33905784704398E-14, -61.976));
#157 = CARTESIAN_POINT('', (-4.76249999999999, 4.76249999999999, -61.976));
#158 = CARTESIAN_POINT('', (7.35652882715997E-15, 4.76249999999998, -61.976));
#159 = CARTESIAN_POINT('', (4.76250000000001, 4.76249999999997, -61.976));
#160 = CARTESIAN_POINT('', (4.7625, -2.51060339582718E-14, -61.976));
#161 = CARTESIAN_POINT('', (4.7625, -4.76250000000002, -61.976));
#162 = CARTESIAN_POINT('', (-3.77568862257816E-15, -4.76250000000002, -61.976));
#163 = CARTESIAN_POINT('', (-4.7625, -4.76250000000001, -61.976));
#164 = CARTESIAN_POINT('', (-4.7625, -1.33905784704398E-14, -61.976));
#165 = CARTESIAN_POINT('', (-4.7625, 2.81867768908753E-15, -41.27));
#166 = CARTESIAN_POINT('', (-4.76249999999999, 4.7625, -41.27));
#167 = CARTESIAN_POINT('', (7.35652882715999E-15, 4.7625, -41.27));
#168 = CARTESIAN_POINT('', (4.76250000000001, 4.76249999999999, -41.27));
#169 = CARTESIAN_POINT('', (4.7625, -8.89677779874454E-15, -41.27));
#170 = CARTESIAN_POINT('', (4.7625, -4.76250000000001, -41.27));
#171 = CARTESIAN_POINT('', (-3.77568862257814E-15, -4.7625, -41.27));
#172 = CARTESIAN_POINT('', (-4.7625, -4.7625, -41.27));
#173 = CARTESIAN_POINT('', (-4.7625, 2.81867768908753E-15, -41.27));
#174 = ADVANCED_FACE('', (#175), #195, .T.);
#175 = FACE_OUTER_BOUND('', #176, .T.);
#176 = EDGE_LOOP('', (#177, #186, #187, #188));
#177 = ORIENTED_EDGE('', *, *, #178, .F.);
#178 = EDGE_CURVE('', #141, #179, #181, .T.);
#179 = VERTEX_POINT('', #180);
#180 = CARTESIAN_POINT('', (-3.2385, 4.08655452024478E-15, -63.5));
#181 = CIRCLE('', #182, 1.52399999999999);
#182 = AXIS2_PLACEMENT_3D('', #183, #184, #185);
#183 = CARTESIAN_POINT('', (-3.2385, 3.99323643414975E-15, -61.976));
#184 = DIRECTION('', (-6.12323399573673E-17, -1., -6.12323399573675E-17));
#185 = DIRECTION('', (-1., 6.1232339957367E-17, 4.66235390918705E-15));
#186 = ORIENTED_EDGE('', *, *, #148, .T.);
#187 = ORIENTED_EDGE('', *, *, #178, .T.);
#188 = ORIENTED_EDGE('', *, *, #189, .F.);
#189 = EDGE_CURVE('', #179, #179, #190, .T.);
#190 = CIRCLE('', #191, 3.2385);
#191 = AXIS2_PLACEMENT_3D('', #192, #193, #194);
#192 = CARTESIAN_POINT('', (-6.24500451351651E-16, 2.77555756156289E-15, -63.5));
#193 = DIRECTION('', (0., 0., -1.));
#194 = DIRECTION('', (-1., 4.04816105815003E-16, 0.));
#195 = (
   BOUNDED_SURFACE ()
   B_SPLINE_SURFACE (2, 2, ((#196, #197, #198), (#199, #200, #201), (#202, #203, #204), (#205, #206, #207), (#208, #209, #210), (#211, #212, #213), (#214, #215, #216), (#217, #218, #219), (#220, #221, #222)), .UNSPECIFIED., .T., .F., .U.)
   B_SPLINE_SURFACE_WITH_KNOTS ((3, 2, 2, 2, 3), (3, 3), (0., 0.25, 0.5, 0.75, 1.), (0., 1.), .UNSPECIFIED.)
   GEOMETRIC_REPRESENTATION_ITEM ()
   RATIONAL_B_SPLINE_SURFACE (((1., 0.707106781186548, 1.), (0.707106781186548, 0.5, 0.707106781186548), (1., 0.707106781186548, 1.), (0.707106781186548, 0.5, 0.707106781186548), (1., 0.707106781186548, 1.), (0.707106781186548, 0.5, 0.707106781186548), (1., 0.707106781186548, 1.), (0.707106781186548, 0.5, 0.707106781186548), (1., 0.707106781186548, 1.)))
   REPRESENTATION_ITEM ('')
   SURFACE ()
);
#196 = CARTESIAN_POINT('', (-4.7625, 4.08655452024478E-15, -61.976));
#197 = CARTESIAN_POINT('', (-4.7625, 4.17987260633981E-15, -63.5));
#198 = CARTESIAN_POINT('', (-3.2385, 4.08655452024478E-15, -63.5));
#199 = CARTESIAN_POINT('', (-4.7625, 4.7625, -61.976));
#200 = CARTESIAN_POINT('', (-4.7625, 4.7625, -63.5));
#201 = CARTESIAN_POINT('', (-3.2385, 3.23850000000001, -63.5));
#202 = CARTESIAN_POINT('', (3.33696850353994E-15, 4.7625, -61.976));
#203 = CARTESIAN_POINT('', (3.43028658963497E-15, 4.7625, -63.5));
#204 = CARTESIAN_POINT('', (3.43028658963497E-15, 3.2385, -63.5));
#205 = CARTESIAN_POINT('', (4.7625, 4.7625, -61.976));
#206 = CARTESIAN_POINT('', (4.7625, 4.7625, -63.5));
#207 = CARTESIAN_POINT('', (3.2385, 3.2385, -63.5));
#208 = CARTESIAN_POINT('', (4.7625, 4.93971966496484E-17, -61.976));
#209 = CARTESIAN_POINT('', (4.7625, -4.39208894453821E-17, -63.5));
#210 = CARTESIAN_POINT('', (3.2385, -1.37238975540408E-16, -63.5));
#211 = CARTESIAN_POINT('', (4.7625, -4.7625, -61.976));
#212 = CARTESIAN_POINT('', (4.7625, -4.7625, -63.5));
#213 = CARTESIAN_POINT('', (3.2385, -3.2385, -63.5));
#214 = CARTESIAN_POINT('', (-1.16950781961265E-16, -4.7625, -61.976));
#215 = CARTESIAN_POINT('', (-2.10268868056296E-16, -4.7625, -63.5));
#216 = CARTESIAN_POINT('', (-3.9690504024635E-16, -3.2385, -63.5));
#217 = CARTESIAN_POINT('', (-4.7625, -4.7625, -61.976));
#218 = CARTESIAN_POINT('', (-4.7625, -4.7625, -63.5));
#219 = CARTESIAN_POINT('', (-3.2385, -3.2385, -63.5));
#220 = CARTESIAN_POINT('', (-4.7625, 4.08655452024478E-15, -61.976));
#221 = CARTESIAN_POINT('', (-4.7625, 4.17987260633981E-15, -63.5));
#222 = CARTESIAN_POINT('', (-3.2385, 4.08655452024478E-15, -63.5));
#223 = ADVANCED_FACE('', (#224), #227, .T.);
#224 = FACE_OUTER_BOUND('', #225, .T.);
#225 = EDGE_LOOP('', (#226));
#226 = ORIENTED_EDGE('', *, *, #189, .T.);
#227 = B_SPLINE_SURFACE_WITH_KNOTS('', 1, 1, ((#228, #229), (#230, #231)), .UNSPECIFIED., .F., .F., .U., (2, 2), (2, 2), (1.7994236839198, 8.2764236839198), (1.79942368391979, 8.27642368391979), .UNSPECIFIED.);
#228 = CARTESIAN_POINT('', (3.2385, -3.2385, -63.5));
#229 = CARTESIAN_POINT('', (3.2385, 3.2385, -63.5));
#230 = CARTESIAN_POINT('', (-3.2385, -3.2385, -63.5));
#231 = CARTESIAN_POINT('', (-3.2385, 3.2385, -63.5));
#232 = PRESENTATION_STYLE_ASSIGNMENT((#233));
#233 = SURFACE_STYLE_USAGE(.POSITIVE., #234);
#234 = SURFACE_SIDE_STYLE('', (#235));
#235 = SURFACE_STYLE_FILL_AREA(#236);
#236 = FILL_AREA_STYLE('', (#237));
#237 = FILL_AREA_STYLE_COLOUR('', #238);
#238 = COLOUR_RGB('', 0.8, 0.8, 0.8);
#239 = STYLED_ITEM('', (#232), #116);
#240 = TRIMMED_CURVE('cutting part line', #241, (#245), (#246), .T., .CARTESIAN.);
#241 = LINE('', #242, #243);
#242 = CARTESIAN_POINT('', (-4.64213146728411E-31, -2.52705867004056E-15, -41.27));
#243 = VECTOR('', #244, 4.7625);
#244 = DIRECTION('', (4.7625, -8.74857057140897E-16, 0.));
#245 = CARTESIAN_POINT('', (-4.64213146728411E-31, -2.52705867004056E-15, -41.27));
#246 = CARTESIAN_POINT('', (4.7625, -3.40191572718146E-15, -41.27));
#247 = TRIMMED_CURVE('cutting part line', #248, (#252), (#253), .T., .CARTESIAN.);
#248 = LINE('', #249, #250);
#249 = CARTESIAN_POINT('', (4.7625, -3.40191572718146E-15, -41.27));
#250 = VECTOR('', #251, 20.706);
#251 = DIRECTION('', (0., -1.26787683115725E-15, -20.706));
#252 = CARTESIAN_POINT('', (4.7625, -3.40191572718146E-15, -41.27));
#253 = CARTESIAN_POINT('', (4.7625, -4.66979255833871E-15, -61.976));
#254 = TRIMMED_CURVE('cutting part line', #255, (#260), (#261), .T., .CARTESIAN.);
#255 = CIRCLE('', #256, 1.524);
#256 = AXIS2_PLACEMENT_3D('', #257, #258, #259);
#257 = CARTESIAN_POINT('', (3.23849999999999, -4.38983830005362E-15, -61.976));
#258 = DIRECTION('', (1.83697019872104E-16, 1., -6.12323399573689E-17));
#259 = DIRECTION('', (1., -1.83697019872104E-16, 0.));
#260 = CARTESIAN_POINT('', (4.7625, -4.66979255833871E-15, -61.976));
#261 = CARTESIAN_POINT('', (3.2385, -4.48315638614865E-15, -63.5));
#262 = TRIMMED_CURVE('cutting part line', #263, (#267), (#268), .T., .CARTESIAN.);
#263 = LINE('', #264, #265);
#264 = CARTESIAN_POINT('', (3.2385, -4.48315638614865E-15, -63.5));
#265 = VECTOR('', #266, 3.2385);
#266 = DIRECTION('', (-3.2385, 5.949027988558E-16, 0.));
#267 = CARTESIAN_POINT('', (3.2385, -4.48315638614865E-15, -63.5));
#268 = CARTESIAN_POINT('', (-4.7617373099514E-31, -3.88825358729285E-15, -63.5));
#269 = TRIMMED_CURVE('cutting part line', #270, (#274), (#275), .T., .CARTESIAN.);
#270 = LINE('', #271, #272);
#271 = CARTESIAN_POINT('', (-7.1426059649271E-31, -3.88825358729285E-15, -63.5));
#272 = VECTOR('', #273, 22.23);
#273 = DIRECTION('', (2.50047449764299E-31, 1.36119491725229E-15, 22.23));
#274 = CARTESIAN_POINT('', (-7.1426059649271E-31, -3.88825358729285E-15, -63.5));
#275 = CARTESIAN_POINT('', (-4.64213146728411E-31, -2.52705867004056E-15, -41.27));
#276 = COMPOSITE_CURVE('cutting part line', (#277, #278, #279, #280, #281), .U.);
#277 = COMPOSITE_CURVE_SEGMENT(.CONTINUOUS., .T., #240);
#278 = COMPOSITE_CURVE_SEGMENT(.CONTINUOUS., .T., #247);
#279 = COMPOSITE_CURVE_SEGMENT(.CONTINUOUS., .T., #254);
#280 = COMPOSITE_CURVE_SEGMENT(.CONTINUOUS., .T., #262);
#281 = COMPOSITE_CURVE_SEGMENT(.CONTINUOUS., .T., #269);
#282 = GEOMETRIC_SET('', (#276, #325));
#283 = PRESENTATION_STYLE_ASSIGNMENT((#284));
#284 = CURVE_STYLE('', #286, POSITIVE_LENGTH_MEASURE(1.E-6), #285);
#285 = COLOUR_RGB('', 0., 0., 1.);
#286 = DRAUGHTING_PRE_DEFINED_CURVE_FONT('continuous');
#287 = STYLED_ITEM('', (#283), #276);
#288 = PRESENTATION_STYLE_ASSIGNMENT((#289));
#289 = CURVE_STYLE('', #291, POSITIVE_LENGTH_MEASURE(1.E-6), #290);
#290 = COLOUR_RGB('', 0., 0., 1.);
#291 = DRAUGHTING_PRE_DEFINED_CURVE_FONT('continuous');
#292 = OVER_RIDING_STYLED_ITEM('', (#288), #240, #287);
#293 = PRESENTATION_STYLE_ASSIGNMENT((#294));
#294 = CURVE_STYLE('', #296, POSITIVE_LENGTH_MEASURE(1.E-6), #295);
#295 = COLOUR_RGB('', 0., 0., 1.);
#296 = DRAUGHTING_PRE_DEFINED_CURVE_FONT('continuous');
#297 = OVER_RIDING_STYLED_ITEM('', (#293), #247, #287);
#298 = PRESENTATION_STYLE_ASSIGNMENT((#299));
#299 = CURVE_STYLE('', #301, POSITIVE_LENGTH_MEASURE(1.E-6), #300);
#300 = COLOUR_RGB('', 0., 0., 1.);
#301 = DRAUGHTING_PRE_DEFINED_CURVE_FONT('continuous');
#302 = OVER_RIDING_STYLED_ITEM('', (#298), #254, #287);
#303 = PRESENTATION_STYLE_ASSIGNMENT((#304));
#304 = CURVE_STYLE('', #306, POSITIVE_LENGTH_MEASURE(1.E-6), #305);
#305 = COLOUR_RGB('', 0., 0., 1.);
#306 = DRAUGHTING_PRE_DEFINED_CURVE_FONT('continuous');
#307 = OVER_RIDING_STYLED_ITEM('', (#303), #262, #287);
#308 = PRESENTATION_STYLE_ASSIGNMENT((#309));
#309 = CURVE_STYLE('', #311, POSITIVE_LENGTH_MEASURE(1.E-6), #310);
#310 = COLOUR_RGB('', 0., 0., 1.);
#311 = DRAUGHTING_PRE_DEFINED_CURVE_FONT('continuous');
#312 = OVER_RIDING_STYLED_ITEM('', (#308), #269, #287);
#313 = AXIS2_PLACEMENT_3D('CIP', #314, #315, #316);
#314 = CARTESIAN_POINT('', (2.3808686549757E-31, 3.88825358729285E-15, -63.5));
#315 = DIRECTION('', (-3.74939945665465E-33, -6.12323399573677E-17, 1.));
#316 = DIRECTION('', (1., -6.12323399573677E-17, 0.));
#317 = AXIS2_PLACEMENT_3D('MCS', #318, #319, #320);
#318 = CARTESIAN_POINT('', (1.34978380439567E-31, 2.20436423846524E-15, -36.));
#319 = DIRECTION('', (-3.74939945665465E-33, -6.12323399573677E-17, 1.));
#320 = DIRECTION('', (1., -6.12323399573677E-17, 0.));
#321 = AXIS2_PLACEMENT_3D('PCS', #322, #323, #324);
#322 = CARTESIAN_POINT('', (0., 0., 0.));
#323 = DIRECTION('', (0., 0., 1.));
#324 = DIRECTION('', (1., 0., 0.));
#325 = CARTESIAN_POINT('CRP', (4.7625, 0., -63.5));
#326 = (
   GEOMETRIC_REPRESENTATION_CONTEXT (3)
   GLOBAL_UNCERTAINTY_ASSIGNED_CONTEXT ((#328))
   GLOBAL_UNIT_ASSIGNED_CONTEXT ((#327, #329, #330))
   REPRESENTATION_CONTEXT ('', '3D')
);
#327 = (
   LENGTH_UNIT ()
   NAMED_UNIT (*)
   SI_UNIT (.MILLI., .METRE.)
);
#328 = UNCERTAINTY_MEASURE_WITH_UNIT(LENGTH_MEASURE(1.E-6), #327, 'DISTANCE_ACCURACY_VALUE', '');
#329 = (
   NAMED_UNIT (*)
   SI_UNIT ($, .STERADIAN.)
   SOLID_ANGLE_UNIT ()
);
#330 = (
   NAMED_UNIT (*)
   PLANE_ANGLE_UNIT ()
   SI_UNIT ($, .RADIAN.)
);
#331 = SHAPE_REPRESENTATION('', (), #326);
#332 = PRODUCT_DEFINITION_SHAPE('', '', #333);
#333 = PRODUCT_DEFINITION('', '', #336, #340);
#334 = APPLICATION_CONTEXT('configuration controlled 3D designs of mechanical parts and assemblies');
#335 = APPLICATION_PROTOCOL_DEFINITION('International Standard', 'automotive_design', 2002, #334);
#336 = PRODUCT_DEFINITION_FORMATION_WITH_SPECIFIED_SOURCE('', '', #337, .NOT_KNOWN.);
#337 = PRODUCT('NONE', '2S342-0953-152CMA   1740', '', (#338));
#338 = PRODUCT_CONTEXT('', #334, 'mechanical');
#339 = PRODUCT_RELATED_PRODUCT_CATEGORY('detail', '', (#337));
#340 = PRODUCT_DEFINITION_CONTEXT('part definition', #334, 'design');
#341 = SHAPE_DEFINITION_REPRESENTATION(#332, #331);
#342 = CONSTRUCTIVE_GEOMETRY_REPRESENTATION('supplemental geometry', (#313, #317, #321), #326);
#343 = CONSTRUCTIVE_GEOMETRY_REPRESENTATION_RELATIONSHIP('', '', #331, #342);
#344 = SHAPE_REPRESENTATION_RELATIONSHIP('', '', #331, #345);
#345 = SHAPE_REPRESENTATION('', (#282), #326);
#346 = SHAPE_REPRESENTATION_RELATIONSHIP('', '', #331, #347);
#347 = ADVANCED_BREP_SHAPE_REPRESENTATION('', (#1, #116), #326);
ENDSEC;
END-ISO-10303-21;
