ISO-10303-21;
HEADER;
FILE_DESCRIPTION(('STEP'), '1');
FILE_NAME('C:\\Users\\ds2002\\OneDrive - Sandvik\\HomeShare\\Documents\\Batchrepair\\CorSRT2\\NEW_MILSQ_SLD\\Output\\MOD000000000000000020082333200000.stp', '2019-01-02T12:10:07', (''), (''), 'Express v3.0.0.0', 'Express Tool', 'Unknown');
FILE_SCHEMA(('AUTOMOTIVE_DESIGN'));
ENDSEC;

DATA;
#1 = MANIFOLD_SOLID_BREP('NOCUT', #2);
#2 = CLOSED_SHELL('', (#3, #50, #59, #98));
#3 = ADVANCED_FACE('', (#4), #31, .T.);
#4 = FACE_OUTER_BOUND('', #5, .T.);
#5 = EDGE_LOOP('', (#6, #16, #23, #24));
#6 = ORIENTED_EDGE('', *, *, #7, .T.);
#7 = EDGE_CURVE('', #8, #10, #12, .T.);
#8 = VERTEX_POINT('', #9);
#9 = CARTESIAN_POINT('', (-4., 2.69422295812418E-16, -0.399999999999999));
#10 = VERTEX_POINT('', #11);
#11 = CARTESIAN_POINT('', (-3.6, 2.20436423846524E-16, 0.));
#12 = LINE('', #13, #14);
#13 = CARTESIAN_POINT('', (-4., 2.69422295812418E-16, -0.399999999999999));
#14 = VECTOR('', #15, 0.565685424949237);
#15 = DIRECTION('', (0.4, -4.8985871965894E-17, 0.399999999999999));
#16 = ORIENTED_EDGE('', *, *, #17, .T.);
#17 = EDGE_CURVE('', #10, #10, #18, .T.);
#18 = CIRCLE('', #19, 3.6);
#19 = AXIS2_PLACEMENT_3D('', #20, #21, #22);
#20 = CARTESIAN_POINT('', (-7.21644966006352E-16, -2.22044604925031E-15, -1.4791141972894E-31));
#21 = DIRECTION('', (4.30423794362901E-34, 6.12323399573678E-17, -1.));
#22 = DIRECTION('', (-1., 6.78022909193566E-16, 4.1086505480261E-32));
#23 = ORIENTED_EDGE('', *, *, #7, .F.);
#24 = ORIENTED_EDGE('', *, *, #25, .F.);
#25 = EDGE_CURVE('', #8, #8, #26, .T.);
#26 = CIRCLE('', #27, 4.);
#27 = AXIS2_PLACEMENT_3D('', #28, #29, #30);
#28 = CARTESIAN_POINT('', (-3.33066907387547E-16, -1.77635683940025E-15, -0.399999999999999));
#29 = DIRECTION('', (2.77555756156289E-17, 5.14030469134514E-17, -1.));
#30 = DIRECTION('', (-1., 5.11444783803167E-16, -2.77555756156289E-17));
#31 = (
   BOUNDED_SURFACE ()
   B_SPLINE_SURFACE (1, 2, ((#32, #33, #34, #35, #36, #37, #38, #39, #40), (#41, #42, #43, #44, #45, #46, #47, #48, #49)), .UNSPECIFIED., .F., .T., .U.)
   B_SPLINE_SURFACE_WITH_KNOTS ((2, 2), (3, 2, 2, 2, 3), (0., 1.), (0., 0.25, 0.5, 0.75, 1.), .UNSPECIFIED.)
   GEOMETRIC_REPRESENTATION_ITEM ()
   RATIONAL_B_SPLINE_SURFACE (((1., 0.707106781186548, 1., 0.707106781186548, 1., 0.707106781186548, 1., 0.707106781186548, 1.), (1., 0.707106781186548, 1., 0.707106781186548, 1., 0.707106781186548, 1., 0.707106781186548, 1.)))
   REPRESENTATION_ITEM ('')
   SURFACE ()
);
#32 = CARTESIAN_POINT('', (-4., -2.04953155772919E-15, -0.399999999999999));
#33 = CARTESIAN_POINT('', (-4., 4., -0.400000000000022));
#34 = CARTESIAN_POINT('', (3.28440978118275E-16, 4., -0.400000000000022));
#35 = CARTESIAN_POINT('', (4., 4., -0.400000000000022));
#36 = CARTESIAN_POINT('', (4., -2.78968024081262E-15, -0.399999999999999));
#37 = CARTESIAN_POINT('', (4., -4., -0.399999999999976));
#38 = CARTESIAN_POINT('', (7.81510146937783E-17, -4., -0.399999999999976));
#39 = CARTESIAN_POINT('', (-4., -4., -0.399999999999976));
#40 = CARTESIAN_POINT('', (-4., -2.04953155772919E-15, -0.399999999999999));
#41 = CARTESIAN_POINT('', (-3.6, 2.20436423846524E-16, 0.));
#42 = CARTESIAN_POINT('', (-3.6, 3.6, -2.09832151654155E-14));
#43 = CARTESIAN_POINT('', (2.91433543964104E-16, 3.6, -2.09832151654155E-14));
#44 = CARTESIAN_POINT('', (3.6, 3.6, -2.09832151654155E-14));
#45 = CARTESIAN_POINT('', (3.6, -4.45697390928571E-16, -2.60668058374687E-30));
#46 = CARTESIAN_POINT('', (3.6, -3.6, 2.09832151654155E-14));
#47 = CARTESIAN_POINT('', (6.61725768820564E-17, -3.6, 2.09832151654155E-14));
#48 = CARTESIAN_POINT('', (-3.6, -3.6, 2.09832151654155E-14));
#49 = CARTESIAN_POINT('', (-3.6, 2.20436423846524E-16, 0.));
#50 = ADVANCED_FACE('', (#51), #54, .T.);
#51 = FACE_OUTER_BOUND('', #52, .T.);
#52 = EDGE_LOOP('', (#53));
#53 = ORIENTED_EDGE('', *, *, #17, .F.);
#54 = B_SPLINE_SURFACE_WITH_KNOTS('', 1, 1, ((#55, #56), (#57, #58)), .UNSPECIFIED., .F., .F., .U., (2, 2), (2, 2), (2.00028570699746, 9.20028570699746), (2.00028570699746, 9.20028570699746), .UNSPECIFIED.);
#55 = CARTESIAN_POINT('', (3.6, -3.6, -2.20436423846523E-16));
#56 = CARTESIAN_POINT('', (-3.6, -3.6, -2.20436423846523E-16));
#57 = CARTESIAN_POINT('', (3.6, 3.6, 2.20436423846525E-16));
#58 = CARTESIAN_POINT('', (-3.6, 3.6, 2.20436423846525E-16));
#59 = ADVANCED_FACE('', (#60), #79, .T.);
#60 = FACE_OUTER_BOUND('', #61, .T.);
#61 = EDGE_LOOP('', (#62, #71, #77, #78));
#62 = ORIENTED_EDGE('', *, *, #63, .F.);
#63 = EDGE_CURVE('', #64, #64, #66, .T.);
#64 = VERTEX_POINT('', #65);
#65 = CARTESIAN_POINT('', (-4., 3.00038465791102E-15, -45.));
#66 = CIRCLE('', #67, 4.);
#67 = AXIS2_PLACEMENT_3D('', #68, #69, #70);
#68 = CARTESIAN_POINT('', (-3.7470027081099E-16, 1.66533453693773E-15, -45.));
#69 = DIRECTION('', (0., 0., -1.));
#70 = DIRECTION('', (-1., 3.33762530243319E-16, 0.));
#71 = ORIENTED_EDGE('', *, *, #72, .T.);
#72 = EDGE_CURVE('', #64, #8, #73, .T.);
#73 = LINE('', #74, #75);
#74 = CARTESIAN_POINT('', (-4., 3.00038465791102E-15, -45.));
#75 = VECTOR('', #76, 44.6);
#76 = DIRECTION('', (0., -2.7309623620986E-15, 44.6));
#77 = ORIENTED_EDGE('', *, *, #25, .T.);
#78 = ORIENTED_EDGE('', *, *, #72, .F.);
#79 = (
   BOUNDED_SURFACE ()
   B_SPLINE_SURFACE (1, 2, ((#80, #81, #82, #83, #84, #85, #86, #87, #88), (#89, #90, #91, #92, #93, #94, #95, #96, #97)), .UNSPECIFIED., .F., .T., .U.)
   B_SPLINE_SURFACE_WITH_KNOTS ((2, 2), (3, 2, 2, 2, 3), (-5.55111512312578E-17, 1.), (0., 0.25, 0.5, 0.75, 1.), .UNSPECIFIED.)
   GEOMETRIC_REPRESENTATION_ITEM ()
   RATIONAL_B_SPLINE_SURFACE (((1., 0.707106781186548, 1., 0.707106781186548, 1., 0.707106781186548, 1., 0.707106781186548, 1.), (1., 0.707106781186548, 1., 0.707106781186548, 1., 0.707106781186548, 1., 0.707106781186548, 1.)))
   REPRESENTATION_ITEM ('')
   SURFACE ()
);
#80 = CARTESIAN_POINT('', (-4.00000000000002, -6.44565800398349E-14, -45.));
#81 = CARTESIAN_POINT('', (-4.00000000000008, 3.99999999999994, -45.));
#82 = CARTESIAN_POINT('', (-8.42442101906273E-14, 4., -45.));
#83 = CARTESIAN_POINT('', (3.99999999999992, 4.00000000000007, -45.));
#84 = CARTESIAN_POINT('', (3.99999999999998, 6.73889294136685E-14, -45.));
#85 = CARTESIAN_POINT('', (4.00000000000005, -3.99999999999993, -45.));
#86 = CARTESIAN_POINT('', (4.80911579825351E-14, -4., -45.));
#87 = CARTESIAN_POINT('', (-3.99999999999995, -4.00000000000006, -45.));
#88 = CARTESIAN_POINT('', (-4.00000000000002, -6.44565800398349E-14, -45.));
#89 = CARTESIAN_POINT('', (-4.00000000000002, 2.69422295812084E-16, -0.399999999999999));
#90 = CARTESIAN_POINT('', (-4.00000000000009, 4., -0.400000000000005));
#91 = CARTESIAN_POINT('', (-8.61010581993139E-14, 4.00000000000007, -0.400000000000005));
#92 = CARTESIAN_POINT('', (3.99999999999991, 4.00000000000013, -0.400000000000005));
#93 = CARTESIAN_POINT('', (3.99999999999998, 1.32114931749315E-13, -0.399999999999999));
#94 = CARTESIAN_POINT('', (4.00000000000005, -3.99999999999987, -0.399999999999993));
#95 = CARTESIAN_POINT('', (4.62343099738484E-14, -3.99999999999993, -0.399999999999993));
#96 = CARTESIAN_POINT('', (-3.99999999999995, -4., -0.399999999999993));
#97 = CARTESIAN_POINT('', (-4.00000000000002, 2.69422295812084E-16, -0.399999999999999));
#98 = ADVANCED_FACE('', (#99), #102, .T.);
#99 = FACE_OUTER_BOUND('', #100, .T.);
#100 = EDGE_LOOP('', (#101));
#101 = ORIENTED_EDGE('', *, *, #63, .T.);
#102 = B_SPLINE_SURFACE_WITH_KNOTS('', 1, 1, ((#103, #104), (#105, #106)), .UNSPECIFIED., .F., .F., .U., (2, 2), (2, 2), (61.7221034227036, 69.7221034227036), (58.2935304975336, 66.2935304975336), .UNSPECIFIED.);
#103 = CARTESIAN_POINT('', (-4.00000000000001, 4., -45.));
#104 = CARTESIAN_POINT('', (-4.00000000000001, -4., -45.));
#105 = CARTESIAN_POINT('', (3.99999999999999, 4., -45.));
#106 = CARTESIAN_POINT('', (3.99999999999999, -4., -45.));
#107 = DRAUGHTING_MODEL('', (#115, #239, #287, #292, #297, #302, #307, #312), #326);
#108 = PRESENTATION_STYLE_ASSIGNMENT((#109));
#109 = SURFACE_STYLE_USAGE(.POSITIVE., #110);
#110 = SURFACE_SIDE_STYLE('', (#111));
#111 = SURFACE_STYLE_FILL_AREA(#112);
#112 = FILL_AREA_STYLE('', (#113));
#113 = FILL_AREA_STYLE_COLOUR('', #114);
#114 = COLOUR_RGB('', 0.50196078431373, 0.50196078431373, 0.50196078431373);
#115 = STYLED_ITEM('', (#108), #1);
#116 = MANIFOLD_SOLID_BREP('CUT', #117);
#117 = CLOSED_SHELL('', (#118, #135, #174, #223));
#118 = ADVANCED_FACE('', (#119), #130, .T.);
#119 = FACE_OUTER_BOUND('', #120, .T.);
#120 = EDGE_LOOP('', (#121));
#121 = ORIENTED_EDGE('', *, *, #122, .F.);
#122 = EDGE_CURVE('', #123, #123, #125, .T.);
#123 = VERTEX_POINT('', #124);
#124 = CARTESIAN_POINT('', (-4., 3.00038465791102E-15, -45.));
#125 = CIRCLE('', #126, 4.);
#126 = AXIS2_PLACEMENT_3D('', #127, #128, #129);
#127 = CARTESIAN_POINT('', (-3.7470027081099E-16, 1.66533453693773E-15, -45.));
#128 = DIRECTION('', (0., 0., -1.));
#129 = DIRECTION('', (-1., 3.33762530243319E-16, 0.));
#130 = B_SPLINE_SURFACE_WITH_KNOTS('', 1, 1, ((#131, #132), (#133, #134)), .UNSPECIFIED., .F., .F., .U., (2, 2), (2, 2), (58.2935304975336, 66.2935304975336), (61.7221034227036, 69.7221034227036), .UNSPECIFIED.);
#131 = CARTESIAN_POINT('', (-4., 4., -45.));
#132 = CARTESIAN_POINT('', (4., 4., -45.));
#133 = CARTESIAN_POINT('', (-4.00000000000001, -4., -45.));
#134 = CARTESIAN_POINT('', (3.99999999999999, -4., -45.));
#135 = ADVANCED_FACE('', (#136), #155, .T.);
#136 = FACE_OUTER_BOUND('', #137, .T.);
#137 = EDGE_LOOP('', (#138, #139, #147, #154));
#138 = ORIENTED_EDGE('', *, *, #122, .T.);
#139 = ORIENTED_EDGE('', *, *, #140, .F.);
#140 = EDGE_CURVE('', #141, #123, #143, .T.);
#141 = VERTEX_POINT('', #142);
#142 = CARTESIAN_POINT('', (-4., 4.04133443718627E-15, -62.));
#143 = LINE('', #144, #145);
#144 = CARTESIAN_POINT('', (-4., 4.04133443718627E-15, -62.));
#145 = VECTOR('', #146, 17.);
#146 = DIRECTION('', (0., -1.04094977927525E-15, 17.));
#147 = ORIENTED_EDGE('', *, *, #148, .F.);
#148 = EDGE_CURVE('', #141, #141, #149, .T.);
#149 = CIRCLE('', #150, 4.);
#150 = AXIS2_PLACEMENT_3D('', #151, #152, #153);
#151 = CARTESIAN_POINT('', (8.60422844084496E-16, 1.99840144432528E-15, -62.));
#152 = DIRECTION('', (1.77635683940025E-15, -5.77905114400155E-15, -1.));
#153 = DIRECTION('', (-1., 5.10733248215247E-16, -1.77635683940025E-15));
#154 = ORIENTED_EDGE('', *, *, #140, .T.);
#155 = (
   BOUNDED_SURFACE ()
   B_SPLINE_SURFACE (1, 2, ((#156, #157, #158, #159, #160, #161, #162, #163, #164), (#165, #166, #167, #168, #169, #170, #171, #172, #173)), .UNSPECIFIED., .F., .T., .U.)
   B_SPLINE_SURFACE_WITH_KNOTS ((2, 2), (3, 2, 2, 2, 3), (-0.381165919282511, 5.55111512312578E-17), (0., 0.25, 0.5, 0.75, 1.), .UNSPECIFIED.)
   GEOMETRIC_REPRESENTATION_ITEM ()
   RATIONAL_B_SPLINE_SURFACE (((1., 0.707106781186548, 1., 0.707106781186548, 1., 0.707106781186548, 1., 0.707106781186548, 1.), (1., 0.707106781186548, 1., 0.707106781186548, 1., 0.707106781186548, 1., 0.707106781186548, 1.)))
   REPRESENTATION_ITEM ('')
   SURFACE ()
);
#156 = CARTESIAN_POINT('', (-4.00000000000001, -1.77607859025794E-14, -62.));
#157 = CARTESIAN_POINT('', (-4.00000000000001, 3.99999999999999, -62.));
#158 = CARTESIAN_POINT('', (2.14483263453771E-15, 3.99999999999999, -62.));
#159 = CARTESIAN_POINT('', (4.00000000000001, 3.99999999999999, -62.));
#160 = CARTESIAN_POINT('', (4.00000000000001, -2.08292058445672E-14, -62.));
#161 = CARTESIAN_POINT('', (4.00000000000001, -4.00000000000003, -62.));
#162 = CARTESIAN_POINT('', (-4.33728587791111E-16, -4.00000000000003, -62.));
#163 = CARTESIAN_POINT('', (-4.00000000000001, -4.00000000000003, -62.));
#164 = CARTESIAN_POINT('', (-4.00000000000001, -1.77607859025794E-14, -62.));
#165 = CARTESIAN_POINT('', (-4.00000000000001, 3.00038465791102E-15, -45.));
#166 = CARTESIAN_POINT('', (-4.00000000000001, 4.00000000000001, -45.));
#167 = CARTESIAN_POINT('', (2.14483263453772E-15, 4.00000000000001, -45.));
#168 = CARTESIAN_POINT('', (4.00000000000001, 4.00000000000001, -45.));
#169 = CARTESIAN_POINT('', (4.00000000000001, -6.80352840767369E-17, -45.));
#170 = CARTESIAN_POINT('', (4.00000000000001, -4.00000000000001, -45.));
#171 = CARTESIAN_POINT('', (-4.33728587791102E-16, -4.00000000000001, -45.));
#172 = CARTESIAN_POINT('', (-4.00000000000001, -4.00000000000001, -45.));
#173 = CARTESIAN_POINT('', (-4.00000000000001, 3.00038465791102E-15, -45.));
#174 = ADVANCED_FACE('', (#175), #195, .T.);
#175 = FACE_OUTER_BOUND('', #176, .T.);
#176 = EDGE_LOOP('', (#177, #186, #187, #188));
#177 = ORIENTED_EDGE('', *, *, #178, .F.);
#178 = EDGE_CURVE('', #141, #179, #181, .T.);
#179 = VERTEX_POINT('', #180);
#180 = CARTESIAN_POINT('', (-3., 4.04133443718627E-15, -63.));
#181 = CIRCLE('', #182, 1.00000000000002);
#182 = AXIS2_PLACEMENT_3D('', #183, #184, #185);
#183 = CARTESIAN_POINT('', (-2.99999999999998, 3.98010209722891E-15, -62.));
#184 = DIRECTION('', (-6.12323399573602E-17, -1., -6.12323399573599E-17));
#185 = DIRECTION('', (-1., 6.12323399573615E-17, -2.13162820728026E-14));
#186 = ORIENTED_EDGE('', *, *, #148, .T.);
#187 = ORIENTED_EDGE('', *, *, #178, .T.);
#188 = ORIENTED_EDGE('', *, *, #189, .F.);
#189 = EDGE_CURVE('', #179, #179, #190, .T.);
#190 = CIRCLE('', #191, 3.);
#191 = AXIS2_PLACEMENT_3D('', #192, #193, #194);
#192 = CARTESIAN_POINT('', (-5.82867087928207E-16, 1.11022302462516E-15, -63.));
#193 = DIRECTION('', (0., 0., -1.));
#194 = DIRECTION('', (-1., 9.77037137520371E-16, 0.));
#195 = (
   BOUNDED_SURFACE ()
   B_SPLINE_SURFACE (2, 2, ((#196, #197, #198), (#199, #200, #201), (#202, #203, #204), (#205, #206, #207), (#208, #209, #210), (#211, #212, #213), (#214, #215, #216), (#217, #218, #219), (#220, #221, #222)), .UNSPECIFIED., .T., .F., .U.)
   B_SPLINE_SURFACE_WITH_KNOTS ((3, 2, 2, 2, 3), (3, 3), (0., 0.25, 0.5, 0.75, 1.), (0., 1.), .UNSPECIFIED.)
   GEOMETRIC_REPRESENTATION_ITEM ()
   RATIONAL_B_SPLINE_SURFACE (((1., 0.707106781186548, 1.), (0.707106781186548, 0.5, 0.707106781186548), (1., 0.707106781186548, 1.), (0.707106781186548, 0.5, 0.707106781186548), (1., 0.707106781186548, 1.), (0.707106781186548, 0.5, 0.707106781186548), (1., 0.707106781186548, 1.), (0.707106781186548, 0.5, 0.707106781186548), (1., 0.707106781186548, 1.)))
   REPRESENTATION_ITEM ('')
   SURFACE ()
);
#196 = CARTESIAN_POINT('', (-4., 4.04133443718627E-15, -62.));
#197 = CARTESIAN_POINT('', (-4., 4.10256677714363E-15, -63.));
#198 = CARTESIAN_POINT('', (-3., 4.04133443718627E-15, -63.));
#199 = CARTESIAN_POINT('', (-4., 4., -62.));
#200 = CARTESIAN_POINT('', (-4., 4., -63.));
#201 = CARTESIAN_POINT('', (-3., 3., -63.));
#202 = CARTESIAN_POINT('', (1.63147017933774E-15, 4., -62.));
#203 = CARTESIAN_POINT('', (1.6927025192951E-15, 4., -63.));
#204 = CARTESIAN_POINT('', (1.69270251929511E-15, 3., -63.));
#205 = CARTESIAN_POINT('', (4., 4., -62.));
#206 = CARTESIAN_POINT('', (4., 4., -63.));
#207 = CARTESIAN_POINT('', (3., 3., -63.));
#208 = CARTESIAN_POINT('', (4., 1.11146098589833E-15, -62.));
#209 = CARTESIAN_POINT('', (4., 1.05022864594097E-15, -63.));
#210 = CARTESIAN_POINT('', (3., 9.88996305983593E-16, -63.));
#211 = CARTESIAN_POINT('', (4., -4., -62.));
#212 = CARTESIAN_POINT('', (4., -4., -63.));
#213 = CARTESIAN_POINT('', (3., -3., -63.));
#214 = CARTESIAN_POINT('', (-8.08544552291256E-16, -4., -62.));
#215 = CARTESIAN_POINT('', (-8.69776892248616E-16, -4., -63.));
#216 = CARTESIAN_POINT('', (-9.92241572163359E-16, -3., -63.));
#217 = CARTESIAN_POINT('', (-4., -4., -62.));
#218 = CARTESIAN_POINT('', (-4., -4., -63.));
#219 = CARTESIAN_POINT('', (-3., -3., -63.));
#220 = CARTESIAN_POINT('', (-4., 4.04133443718627E-15, -62.));
#221 = CARTESIAN_POINT('', (-4., 4.10256677714363E-15, -63.));
#222 = CARTESIAN_POINT('', (-3., 4.04133443718627E-15, -63.));
#223 = ADVANCED_FACE('', (#224), #227, .T.);
#224 = FACE_OUTER_BOUND('', #225, .T.);
#225 = EDGE_LOOP('', (#226));
#226 = ORIENTED_EDGE('', *, *, #189, .T.);
#227 = B_SPLINE_SURFACE_WITH_KNOTS('', 1, 1, ((#228, #229), (#230, #231)), .UNSPECIFIED., .F., .F., .U., (2, 2), (2, 2), (1.66690475583121, 7.66690475583121), (1.66690475583121, 7.66690475583121), .UNSPECIFIED.);
#228 = CARTESIAN_POINT('', (3., -3., -63.));
#229 = CARTESIAN_POINT('', (3., 3., -63.));
#230 = CARTESIAN_POINT('', (-3., -3., -63.));
#231 = CARTESIAN_POINT('', (-3., 3., -63.));
#232 = PRESENTATION_STYLE_ASSIGNMENT((#233));
#233 = SURFACE_STYLE_USAGE(.POSITIVE., #234);
#234 = SURFACE_SIDE_STYLE('', (#235));
#235 = SURFACE_STYLE_FILL_AREA(#236);
#236 = FILL_AREA_STYLE('', (#237));
#237 = FILL_AREA_STYLE_COLOUR('', #238);
#238 = COLOUR_RGB('', 0.8, 0.8, 0.8);
#239 = STYLED_ITEM('', (#232), #116);
#240 = TRIMMED_CURVE('cutting part line', #241, (#245), (#246), .T., .CARTESIAN.);
#241 = LINE('', #242, #243);
#242 = CARTESIAN_POINT('', (-5.06168926648376E-31, -2.75545529808154E-15, -45.));
#243 = VECTOR('', #244, 4.);
#244 = DIRECTION('', (4., -7.34788079488421E-16, 0.));
#245 = CARTESIAN_POINT('', (-5.06168926648376E-31, -2.75545529808154E-15, -45.));
#246 = CARTESIAN_POINT('', (4., -3.49024337756996E-15, -45.));
#247 = TRIMMED_CURVE('cutting part line', #248, (#252), (#253), .T., .CARTESIAN.);
#248 = LINE('', #249, #250);
#249 = CARTESIAN_POINT('', (4., -3.49024337756996E-15, -45.));
#250 = VECTOR('', #251, 17.);
#251 = DIRECTION('', (0., -1.04094977927525E-15, -17.));
#252 = CARTESIAN_POINT('', (4., -3.49024337756996E-15, -45.));
#253 = CARTESIAN_POINT('', (4., -4.53119315684521E-15, -62.));
#254 = TRIMMED_CURVE('cutting part line', #255, (#260), (#261), .T., .CARTESIAN.);
#255 = CIRCLE('', #256, 0.99999999999998);
#256 = AXIS2_PLACEMENT_3D('', #257, #258, #259);
#257 = CARTESIAN_POINT('', (3.00000000000002, -4.34749613697312E-15, -62.));
#258 = DIRECTION('', (1.83697019872096E-16, 1., -6.12323399573604E-17));
#259 = DIRECTION('', (1., -1.83697019872095E-16, 1.42108547152022E-14));
#260 = CARTESIAN_POINT('', (4., -4.53119315684521E-15, -62.));
#261 = CARTESIAN_POINT('', (3., -4.40872847693048E-15, -63.));
#262 = TRIMMED_CURVE('cutting part line', #263, (#267), (#268), .T., .CARTESIAN.);
#263 = LINE('', #264, #265);
#264 = CARTESIAN_POINT('', (3., -4.40872847693048E-15, -63.));
#265 = VECTOR('', #266, 3.);
#266 = DIRECTION('', (-3., 5.51091059616316E-16, 0.));
#267 = CARTESIAN_POINT('', (3., -4.40872847693048E-15, -63.));
#268 = CARTESIAN_POINT('', (-4.72424331538485E-31, -3.85763741731416E-15, -63.));
#269 = TRIMMED_CURVE('cutting part line', #270, (#274), (#275), .T., .CARTESIAN.);
#270 = LINE('', #271, #272);
#271 = CARTESIAN_POINT('', (-7.08636497307728E-31, -3.85763741731416E-15, -63.));
#272 = VECTOR('', #273, 18.);
#273 = DIRECTION('', (2.02467570659351E-31, 1.10218211923262E-15, 18.));
#274 = CARTESIAN_POINT('', (-7.08636497307728E-31, -3.85763741731416E-15, -63.));
#275 = CARTESIAN_POINT('', (-5.06168926648376E-31, -2.75545529808154E-15, -45.));
#276 = COMPOSITE_CURVE('cutting part line', (#277, #278, #279, #280, #281), .U.);
#277 = COMPOSITE_CURVE_SEGMENT(.CONTINUOUS., .T., #240);
#278 = COMPOSITE_CURVE_SEGMENT(.CONTINUOUS., .T., #247);
#279 = COMPOSITE_CURVE_SEGMENT(.CONTINUOUS., .T., #254);
#280 = COMPOSITE_CURVE_SEGMENT(.CONTINUOUS., .T., #262);
#281 = COMPOSITE_CURVE_SEGMENT(.CONTINUOUS., .T., #269);
#282 = GEOMETRIC_SET('', (#276, #325));
#283 = PRESENTATION_STYLE_ASSIGNMENT((#284));
#284 = CURVE_STYLE('', #286, POSITIVE_LENGTH_MEASURE(1.E-6), #285);
#285 = COLOUR_RGB('', 0., 0., 1.);
#286 = DRAUGHTING_PRE_DEFINED_CURVE_FONT('continuous');
#287 = STYLED_ITEM('', (#283), #276);
#288 = PRESENTATION_STYLE_ASSIGNMENT((#289));
#289 = CURVE_STYLE('', #291, POSITIVE_LENGTH_MEASURE(1.E-6), #290);
#290 = COLOUR_RGB('', 0., 0., 1.);
#291 = DRAUGHTING_PRE_DEFINED_CURVE_FONT('continuous');
#292 = OVER_RIDING_STYLED_ITEM('', (#288), #240, #287);
#293 = PRESENTATION_STYLE_ASSIGNMENT((#294));
#294 = CURVE_STYLE('', #296, POSITIVE_LENGTH_MEASURE(1.E-6), #295);
#295 = COLOUR_RGB('', 0., 0., 1.);
#296 = DRAUGHTING_PRE_DEFINED_CURVE_FONT('continuous');
#297 = OVER_RIDING_STYLED_ITEM('', (#293), #247, #287);
#298 = PRESENTATION_STYLE_ASSIGNMENT((#299));
#299 = CURVE_STYLE('', #301, POSITIVE_LENGTH_MEASURE(1.E-6), #300);
#300 = COLOUR_RGB('', 0., 0., 1.);
#301 = DRAUGHTING_PRE_DEFINED_CURVE_FONT('continuous');
#302 = OVER_RIDING_STYLED_ITEM('', (#298), #254, #287);
#303 = PRESENTATION_STYLE_ASSIGNMENT((#304));
#304 = CURVE_STYLE('', #306, POSITIVE_LENGTH_MEASURE(1.E-6), #305);
#305 = COLOUR_RGB('', 0., 0., 1.);
#306 = DRAUGHTING_PRE_DEFINED_CURVE_FONT('continuous');
#307 = OVER_RIDING_STYLED_ITEM('', (#303), #262, #287);
#308 = PRESENTATION_STYLE_ASSIGNMENT((#309));
#309 = CURVE_STYLE('', #311, POSITIVE_LENGTH_MEASURE(1.E-6), #310);
#310 = COLOUR_RGB('', 0., 0., 1.);
#311 = DRAUGHTING_PRE_DEFINED_CURVE_FONT('continuous');
#312 = OVER_RIDING_STYLED_ITEM('', (#308), #269, #287);
#313 = AXIS2_PLACEMENT_3D('CIP', #314, #315, #316);
#314 = CARTESIAN_POINT('', (2.36212165769243E-31, 3.85763741731416E-15, -63.));
#315 = DIRECTION('', (-3.74939945665465E-33, -6.12323399573677E-17, 1.));
#316 = DIRECTION('', (1., -6.12323399573677E-17, 0.));
#317 = AXIS2_PLACEMENT_3D('MCS', #318, #319, #320);
#318 = CARTESIAN_POINT('', (1.34978380439567E-31, 2.20436423846524E-15, -36.));
#319 = DIRECTION('', (-3.74939945665465E-33, -6.12323399573677E-17, 1.));
#320 = DIRECTION('', (1., -6.12323399573677E-17, 0.));
#321 = AXIS2_PLACEMENT_3D('PCS', #322, #323, #324);
#322 = CARTESIAN_POINT('', (0., 0., 0.));
#323 = DIRECTION('', (0., 0., 1.));
#324 = DIRECTION('', (1., 0., 0.));
#325 = CARTESIAN_POINT('CRP', (4., 0., -63.));
#326 = (
   GEOMETRIC_REPRESENTATION_CONTEXT (3)
   GLOBAL_UNCERTAINTY_ASSIGNED_CONTEXT ((#328))
   GLOBAL_UNIT_ASSIGNED_CONTEXT ((#327, #329, #330))
   REPRESENTATION_CONTEXT ('', '3D')
);
#327 = (
   LENGTH_UNIT ()
   NAMED_UNIT (*)
   SI_UNIT (.MILLI., .METRE.)
);
#328 = UNCERTAINTY_MEASURE_WITH_UNIT(LENGTH_MEASURE(1.E-6), #327, 'DISTANCE_ACCURACY_VALUE', '');
#329 = (
   NAMED_UNIT (*)
   SI_UNIT ($, .STERADIAN.)
   SOLID_ANGLE_UNIT ()
);
#330 = (
   NAMED_UNIT (*)
   PLANE_ANGLE_UNIT ()
   SI_UNIT ($, .RADIAN.)
);
#331 = SHAPE_REPRESENTATION('', (), #326);
#332 = PRODUCT_DEFINITION_SHAPE('', '', #333);
#333 = PRODUCT_DEFINITION('', '', #336, #340);
#334 = APPLICATION_CONTEXT('configuration controlled 3D designs of mechanical parts and assemblies');
#335 = APPLICATION_PROTOCOL_DEFINITION('International Standard', 'automotive_design', 2002, #334);
#336 = PRODUCT_DEFINITION_FORMATION_WITH_SPECIFIED_SOURCE('', '', #337, .NOT_KNOWN.);
#337 = PRODUCT('NONE', '2S342-0800-100-PA   1730', '', (#338));
#338 = PRODUCT_CONTEXT('', #334, 'mechanical');
#339 = PRODUCT_RELATED_PRODUCT_CATEGORY('detail', '', (#337));
#340 = PRODUCT_DEFINITION_CONTEXT('part definition', #334, 'design');
#341 = SHAPE_DEFINITION_REPRESENTATION(#332, #331);
#342 = CONSTRUCTIVE_GEOMETRY_REPRESENTATION('supplemental geometry', (#313, #317, #321), #326);
#343 = CONSTRUCTIVE_GEOMETRY_REPRESENTATION_RELATIONSHIP('', '', #331, #342);
#344 = SHAPE_REPRESENTATION_RELATIONSHIP('', '', #331, #345);
#345 = SHAPE_REPRESENTATION('', (#282), #326);
#346 = SHAPE_REPRESENTATION_RELATIONSHIP('', '', #331, #347);
#347 = ADVANCED_BREP_SHAPE_REPRESENTATION('', (#1, #116), #326);
ENDSEC;
END-ISO-10303-21;
