ISO-10303-21;
HEADER;
FILE_DESCRIPTION(('STEP'), '1');
FILE_NAME('C:\\Users\\ds2002\\OneDrive - Sandvik\\HomeShare\\Documents\\Batchrepair\\CorSRT2\\NEW_MILSQ_SLD\\Output\\MOD000000000000000020082331400000.stp', '2019-01-02T12:09:17', (''), (''), 'Express v3.0.0.0', 'Express Tool', 'Unknown');
FILE_SCHEMA(('AUTOMOTIVE_DESIGN'));
ENDSEC;

DATA;
#1 = MANIFOLD_SOLID_BREP('NOCUT', #2);
#2 = CLOSED_SHELL('', (#3, #50, #59, #98));
#3 = ADVANCED_FACE('', (#4), #31, .T.);
#4 = FACE_OUTER_BOUND('', #5, .T.);
#5 = EDGE_LOOP('', (#6, #16, #23, #24));
#6 = ORIENTED_EDGE('', *, *, #7, .T.);
#7 = EDGE_CURVE('', #8, #10, #12, .T.);
#8 = VERTEX_POINT('', #9);
#9 = CARTESIAN_POINT('', (-1.5875, 1.06926973650553E-16, -0.158750000000001));
#10 = VERTEX_POINT('', #11);
#11 = CARTESIAN_POINT('', (-1.42875, 8.7485705714089E-17, 0.));
#12 = LINE('', #13, #14);
#13 = CARTESIAN_POINT('', (-1.5875, 1.06926973650553E-16, -0.158750000000001));
#14 = VECTOR('', #15, 0.22450640302673);
#15 = DIRECTION('', (0.15875, -1.94412679364639E-17, 0.158750000000001));
#16 = ORIENTED_EDGE('', *, *, #17, .T.);
#17 = EDGE_CURVE('', #10, #10, #18, .T.);
#18 = CIRCLE('', #19, 1.42875);
#19 = AXIS2_PLACEMENT_3D('', #20, #21, #22);
#20 = CARTESIAN_POINT('', (-1.73472347597681E-16, -3.33066907387547E-16, -2.46519032881566E-32));
#21 = DIRECTION('', (7.69565905331277E-34, 6.12323399573676E-17, -1.));
#22 = DIRECTION('', (-1., 2.94350035416718E-16, 1.72541755297684E-32));
#23 = ORIENTED_EDGE('', *, *, #7, .F.);
#24 = ORIENTED_EDGE('', *, *, #25, .F.);
#25 = EDGE_CURVE('', #8, #8, #26, .T.);
#26 = CIRCLE('', #27, 1.5875);
#27 = AXIS2_PLACEMENT_3D('', #28, #29, #30);
#28 = CARTESIAN_POINT('', (7.14706072102445E-16, -3.88578058618805E-15, -0.158750000000001));
#29 = DIRECTION('', (0., 0., -1.));
#30 = DIRECTION('', (-1., 2.27016201644681E-15, 0.));
#31 = (
   BOUNDED_SURFACE ()
   B_SPLINE_SURFACE (1, 2, ((#32, #33, #34, #35, #36, #37, #38, #39, #40), (#41, #42, #43, #44, #45, #46, #47, #48, #49)), .UNSPECIFIED., .F., .T., .U.)
   B_SPLINE_SURFACE_WITH_KNOTS ((2, 2), (3, 2, 2, 2, 3), (0., 1.), (0., 0.25, 0.5, 0.75, 1.), .UNSPECIFIED.)
   GEOMETRIC_REPRESENTATION_ITEM ()
   RATIONAL_B_SPLINE_SURFACE (((1., 0.707106781186548, 1., 0.707106781186548, 1., 0.707106781186548, 1., 0.707106781186548, 1.), (1., 0.707106781186548, 1., 0.707106781186548, 1., 0.707106781186548, 1., 0.707106781186548, 1.)))
   REPRESENTATION_ITEM ('')
   SURFACE ()
);
#32 = CARTESIAN_POINT('', (-1.5875, -3.43798917321561E-16, -0.158750000000003));
#33 = CARTESIAN_POINT('', (-1.5875, 1.5875, -0.158750000000007));
#34 = CARTESIAN_POINT('', (9.56973582536609E-16, 1.5875, -0.158750000000007));
#35 = CARTESIAN_POINT('', (1.5875, 1.5875, -0.158750000000006));
#36 = CARTESIAN_POINT('', (1.5875, -9.60589486557759E-16, -0.158750000000001));
#37 = CARTESIAN_POINT('', (1.5875, -1.5875, -0.158749999999996));
#38 = CARTESIAN_POINT('', (5.34595692665049E-16, -1.5875, -0.158749999999997));
#39 = CARTESIAN_POINT('', (-1.5875, -1.5875, -0.158749999999998));
#40 = CARTESIAN_POINT('', (-1.5875, -3.43798917321561E-16, -0.158750000000003));
#41 = CARTESIAN_POINT('', (-1.42875, 8.7485705714089E-17, 1.97215226305253E-31));
#42 = CARTESIAN_POINT('', (-1.42875, 1.42875, -4.24660306919115E-15));
#43 = CARTESIAN_POINT('', (8.39606162372777E-16, 1.42875, -3.46785204387297E-15));
#44 = CARTESIAN_POINT('', (1.42875, 1.42875, -2.68910101855478E-15));
#45 = CARTESIAN_POINT('', (1.42875, -4.67625806598489E-16, 1.55750205063638E-15));
#46 = CARTESIAN_POINT('', (1.42875, -1.42875, 5.80410511982753E-15));
#47 = CARTESIAN_POINT('', (4.59466061488372E-16, -1.42875, 5.02535409450934E-15));
#48 = CARTESIAN_POINT('', (-1.42875, -1.42875, 4.24660306919116E-15));
#49 = CARTESIAN_POINT('', (-1.42875, 8.7485705714089E-17, 1.97215226305253E-31));
#50 = ADVANCED_FACE('', (#51), #54, .T.);
#51 = FACE_OUTER_BOUND('', #52, .T.);
#52 = EDGE_LOOP('', (#53));
#53 = ORIENTED_EDGE('', *, *, #17, .F.);
#54 = B_SPLINE_SURFACE_WITH_KNOTS('', 1, 1, ((#55, #56), (#57, #58)), .UNSPECIFIED., .F., .F., .U., (2, 2), (2, 2), (0.79386338996462, 3.65136338996462), (0.79386338996462, 3.65136338996462), .UNSPECIFIED.);
#55 = CARTESIAN_POINT('', (1.42875, -1.42875, -3.64019938451458E-15));
#56 = CARTESIAN_POINT('', (-1.42875, -1.42875, -3.64019938451458E-15));
#57 = CARTESIAN_POINT('', (1.42875, 1.42875, 3.64019938451459E-15));
#58 = CARTESIAN_POINT('', (-1.42875, 1.42875, 3.64019938451459E-15));
#59 = ADVANCED_FACE('', (#60), #79, .T.);
#60 = FACE_OUTER_BOUND('', #61, .T.);
#61 = EDGE_LOOP('', (#62, #71, #77, #78));
#62 = ORIENTED_EDGE('', *, *, #63, .F.);
#63 = EDGE_CURVE('', #64, #64, #66, .T.);
#64 = VERTEX_POINT('', #65);
#65 = CARTESIAN_POINT('', (-1.5875, 1.94397371279653E-15, -30.16));
#66 = CIRCLE('', #67, 1.5875);
#67 = AXIS2_PLACEMENT_3D('', #68, #69, #70);
#68 = CARTESIAN_POINT('', (3.05311331771918E-16, 6.66133814775094E-16, -30.16));
#69 = DIRECTION('', (-2.23792987640976E-15, 7.2806943546476E-15, -1.));
#70 = DIRECTION('', (-1., 8.049385184387E-16, 2.23792987640976E-15));
#71 = ORIENTED_EDGE('', *, *, #72, .T.);
#72 = EDGE_CURVE('', #64, #8, #73, .T.);
#73 = LINE('', #74, #75);
#74 = CARTESIAN_POINT('', (-1.5875, 1.94397371279653E-15, -30.16));
#75 = VECTOR('', #76, 30.00125);
#76 = DIRECTION('', (0., -1.83704673914598E-15, 30.00125));
#77 = ORIENTED_EDGE('', *, *, #25, .T.);
#78 = ORIENTED_EDGE('', *, *, #72, .F.);
#79 = (
   BOUNDED_SURFACE ()
   B_SPLINE_SURFACE (1, 2, ((#80, #81, #82, #83, #84, #85, #86, #87, #88), (#89, #90, #91, #92, #93, #94, #95, #96, #97)), .UNSPECIFIED., .F., .T., .U.)
   B_SPLINE_SURFACE_WITH_KNOTS ((2, 2), (3, 2, 2, 2, 3), (5.55111512312578E-17, 1.), (0., 0.25, 0.5, 0.75, 1.), .UNSPECIFIED.)
   GEOMETRIC_REPRESENTATION_ITEM ()
   RATIONAL_B_SPLINE_SURFACE (((1., 0.707106781186548, 1., 0.707106781186548, 1., 0.707106781186548, 1., 0.707106781186548, 1.), (1., 0.707106781186548, 1., 0.707106781186548, 1., 0.707106781186548, 1., 0.707106781186548, 1.)))
   REPRESENTATION_ITEM ('')
   SURFACE ()
);
#80 = CARTESIAN_POINT('', (-1.58750000000002, -6.97984719202693E-16, -30.16));
#81 = CARTESIAN_POINT('', (-1.58750000000002, 1.5875, -30.16));
#82 = CARTESIAN_POINT('', (-1.68962332556873E-14, 1.5875, -30.16));
#83 = CARTESIAN_POINT('', (1.58749999999998, 1.5875, -30.16));
#84 = CARTESIAN_POINT('', (1.58749999999998, 1.00341970102984E-15, -30.16));
#85 = CARTESIAN_POINT('', (1.58749999999998, -1.5875, -30.16));
#86 = CARTESIAN_POINT('', (-1.50004161560901E-14, -1.5875, -30.16));
#87 = CARTESIAN_POINT('', (-1.58750000000001, -1.5875, -30.16));
#88 = CARTESIAN_POINT('', (-1.58750000000002, -6.97984719202693E-16, -30.16));
#89 = CARTESIAN_POINT('', (-1.5875, 1.06926973650553E-16, -0.158750000000001));
#90 = CARTESIAN_POINT('', (-1.5875, 1.5875, -0.158750000000001));
#91 = CARTESIAN_POINT('', (-6.3559649909514E-16, 1.5875, -0.158750000000002));
#92 = CARTESIAN_POINT('', (1.5875, 1.5875, -0.158750000000003));
#93 = CARTESIAN_POINT('', (1.5875, 1.80833139388308E-15, -0.158750000000003));
#94 = CARTESIAN_POINT('', (1.5875, -1.5875, -0.158750000000003));
#95 = CARTESIAN_POINT('', (1.26022060050203E-15, -1.5875, -0.158750000000002));
#96 = CARTESIAN_POINT('', (-1.5875, -1.5875, -0.158750000000001));
#97 = CARTESIAN_POINT('', (-1.5875, 1.06926973650553E-16, -0.158750000000001));
#98 = ADVANCED_FACE('', (#99), #102, .T.);
#99 = FACE_OUTER_BOUND('', #100, .T.);
#100 = EDGE_LOOP('', (#101));
#101 = ORIENTED_EDGE('', *, *, #63, .T.);
#102 = B_SPLINE_SURFACE_WITH_KNOTS('', 1, 1, ((#103, #104), (#105, #106)), .UNSPECIFIED., .F., .F., .U., (2, 2), (2, 2), (37.7020100032932, 40.8770100032932), (35.850341198219, 39.025341198219), .UNSPECIFIED.);
#103 = CARTESIAN_POINT('', (-1.5875, 1.5875, -30.16));
#104 = CARTESIAN_POINT('', (-1.5875, -1.5875, -30.16));
#105 = CARTESIAN_POINT('', (1.5875, 1.5875, -30.16));
#106 = CARTESIAN_POINT('', (1.5875, -1.5875, -30.16));
#107 = DRAUGHTING_MODEL('', (#115, #239, #287, #292, #297, #302, #307, #312), #326);
#108 = PRESENTATION_STYLE_ASSIGNMENT((#109));
#109 = SURFACE_STYLE_USAGE(.POSITIVE., #110);
#110 = SURFACE_SIDE_STYLE('', (#111));
#111 = SURFACE_STYLE_FILL_AREA(#112);
#112 = FILL_AREA_STYLE('', (#113));
#113 = FILL_AREA_STYLE_COLOUR('', #114);
#114 = COLOUR_RGB('', 0.50196078431373, 0.50196078431373, 0.50196078431373);
#115 = STYLED_ITEM('', (#108), #1);
#116 = MANIFOLD_SOLID_BREP('CUT', #117);
#117 = CLOSED_SHELL('', (#118, #135, #174, #223));
#118 = ADVANCED_FACE('', (#119), #130, .T.);
#119 = FACE_OUTER_BOUND('', #120, .T.);
#120 = EDGE_LOOP('', (#121));
#121 = ORIENTED_EDGE('', *, *, #122, .F.);
#122 = EDGE_CURVE('', #123, #123, #125, .T.);
#123 = VERTEX_POINT('', #124);
#124 = CARTESIAN_POINT('', (-1.5875, 1.94397371279653E-15, -30.16));
#125 = CIRCLE('', #126, 1.5875);
#126 = AXIS2_PLACEMENT_3D('', #127, #128, #129);
#127 = CARTESIAN_POINT('', (3.05311331771918E-16, 6.66133814775094E-16, -30.16));
#128 = DIRECTION('', (-2.23792987640976E-15, 7.2806943546476E-15, -1.));
#129 = DIRECTION('', (-1., 8.049385184387E-16, 2.23792987640976E-15));
#130 = B_SPLINE_SURFACE_WITH_KNOTS('', 1, 1, ((#131, #132), (#133, #134)), .UNSPECIFIED., .F., .F., .U., (2, 2), (2, 2), (35.850341198219, 39.025341198219), (37.7020100032932, 40.8770100032932), .UNSPECIFIED.);
#131 = CARTESIAN_POINT('', (-1.5875, 1.5875, -30.16));
#132 = CARTESIAN_POINT('', (1.5875, 1.5875, -30.16));
#133 = CARTESIAN_POINT('', (-1.5875, -1.5875, -30.16));
#134 = CARTESIAN_POINT('', (1.5875, -1.5875, -30.16));
#135 = ADVANCED_FACE('', (#136), #155, .T.);
#136 = FACE_OUTER_BOUND('', #137, .T.);
#137 = EDGE_LOOP('', (#138, #139, #147, #154));
#138 = ORIENTED_EDGE('', *, *, #122, .T.);
#139 = ORIENTED_EDGE('', *, *, #140, .F.);
#140 = EDGE_CURVE('', #141, #123, #143, .T.);
#141 = VERTEX_POINT('', #142);
#142 = CARTESIAN_POINT('', (-1.5875, 2.40682897053427E-15, -37.719));
#143 = LINE('', #144, #145);
#144 = CARTESIAN_POINT('', (-1.5875, 2.40682897053427E-15, -37.719));
#145 = VECTOR('', #146, 7.559);
#146 = DIRECTION('', (0., -4.6285525773774E-16, 7.559));
#147 = ORIENTED_EDGE('', *, *, #148, .F.);
#148 = EDGE_CURVE('', #141, #141, #149, .T.);
#149 = CIRCLE('', #150, 1.5875);
#150 = AXIS2_PLACEMENT_3D('', #151, #152, #153);
#151 = CARTESIAN_POINT('', (2.70616862252382E-16, 1.88737914186277E-15, -37.719));
#152 = DIRECTION('', (0., 0., -1.));
#153 = DIRECTION('', (-1., 3.27212490501735E-16, 0.));
#154 = ORIENTED_EDGE('', *, *, #140, .T.);
#155 = (
   BOUNDED_SURFACE ()
   B_SPLINE_SURFACE (1, 2, ((#156, #157, #158, #159, #160, #161, #162, #163, #164), (#165, #166, #167, #168, #169, #170, #171, #172, #173)), .UNSPECIFIED., .F., .T., .U.)
   B_SPLINE_SURFACE_WITH_KNOTS ((2, 2), (3, 2, 2, 2, 3), (-0.251956168492979, 5.55111512312578E-17), (0., 0.25, 0.5, 0.75, 1.), .UNSPECIFIED.)
   GEOMETRIC_REPRESENTATION_ITEM ()
   RATIONAL_B_SPLINE_SURFACE (((1., 0.707106781186548, 1., 0.707106781186548, 1., 0.707106781186548, 1., 0.707106781186548, 1.), (1., 0.707106781186548, 1., 0.707106781186548, 1., 0.707106781186548, 1., 0.707106781186548, 1.)))
   REPRESENTATION_ITEM ('')
   SURFACE ()
);
#156 = CARTESIAN_POINT('', (-1.5875, 2.44357407387785E-15, -37.719));
#157 = CARTESIAN_POINT('', (-1.5875, 1.5875, -37.719));
#158 = CARTESIAN_POINT('', (2.04105640242361E-15, 1.5875, -37.719));
#159 = CARTESIAN_POINT('', (1.5875, 1.5875, -37.719));
#160 = CARTESIAN_POINT('', (1.5875, -1.13893836988805E-15, -37.719));
#161 = CARTESIAN_POINT('', (1.5875, -1.5875, -37.719));
#162 = CARTESIAN_POINT('', (-1.34704336197765E-15, -1.5875, -37.719));
#163 = CARTESIAN_POINT('', (-1.5875, -1.5875, -37.719));
#164 = CARTESIAN_POINT('', (-1.5875, 2.44357407387785E-15, -37.719));
#165 = CARTESIAN_POINT('', (-1.5875, 1.94397371279653E-15, -30.16));
#166 = CARTESIAN_POINT('', (-1.5875, 1.5875, -30.16));
#167 = CARTESIAN_POINT('', (2.04105640242361E-15, 1.5875, -30.16));
#168 = CARTESIAN_POINT('', (1.5875, 1.5875, -30.16));
#169 = CARTESIAN_POINT('', (1.5875, -1.63853873096937E-15, -30.16));
#170 = CARTESIAN_POINT('', (1.5875, -1.5875, -30.16));
#171 = CARTESIAN_POINT('', (-1.34704336197765E-15, -1.5875, -30.16));
#172 = CARTESIAN_POINT('', (-1.5875, -1.5875, -30.16));
#173 = CARTESIAN_POINT('', (-1.5875, 1.94397371279653E-15, -30.16));
#174 = ADVANCED_FACE('', (#175), #195, .T.);
#175 = FACE_OUTER_BOUND('', #176, .T.);
#176 = EDGE_LOOP('', (#177, #186, #187, #188));
#177 = ORIENTED_EDGE('', *, *, #178, .F.);
#178 = EDGE_CURVE('', #141, #179, #181, .T.);
#179 = VERTEX_POINT('', #180);
#180 = CARTESIAN_POINT('', (-1.2065, 2.40682897053427E-15, -38.1));
#181 = CIRCLE('', #182, 0.38099999999999);
#182 = AXIS2_PLACEMENT_3D('', #183, #184, #185);
#183 = CARTESIAN_POINT('', (-1.20650000000001, 2.38349944901051E-15, -37.719));
#184 = DIRECTION('', (-6.12323399573699E-17, -1., -6.12323399573696E-17));
#185 = DIRECTION('', (-1., 6.12323399573688E-17, 1.86494156367484E-14));
#186 = ORIENTED_EDGE('', *, *, #148, .T.);
#187 = ORIENTED_EDGE('', *, *, #178, .T.);
#188 = ORIENTED_EDGE('', *, *, #189, .F.);
#189 = EDGE_CURVE('', #179, #179, #190, .T.);
#190 = CIRCLE('', #191, 1.2065);
#191 = AXIS2_PLACEMENT_3D('', #192, #193, #194);
#192 = CARTESIAN_POINT('', (8.36136715420821E-16, 8.04911692853238E-16, -38.1));
#193 = DIRECTION('', (0., 0., -1.));
#194 = DIRECTION('', (-1., 1.32773914436886E-15, 0.));
#195 = (
   BOUNDED_SURFACE ()
   B_SPLINE_SURFACE (2, 2, ((#196, #197, #198), (#199, #200, #201), (#202, #203, #204), (#205, #206, #207), (#208, #209, #210), (#211, #212, #213), (#214, #215, #216), (#217, #218, #219), (#220, #221, #222)), .UNSPECIFIED., .T., .F., .U.)
   B_SPLINE_SURFACE_WITH_KNOTS ((3, 2, 2, 2, 3), (3, 3), (0., 0.25, 0.5, 0.75, 1.), (0., 1.), .UNSPECIFIED.)
   GEOMETRIC_REPRESENTATION_ITEM ()
   RATIONAL_B_SPLINE_SURFACE (((1., 0.707106781186548, 1.), (0.707106781186548, 0.5, 0.707106781186548), (1., 0.707106781186548, 1.), (0.707106781186548, 0.5, 0.707106781186548), (1., 0.707106781186548, 1.), (0.707106781186548, 0.5, 0.707106781186548), (1., 0.707106781186548, 1.), (0.707106781186548, 0.5, 0.707106781186548), (1., 0.707106781186548, 1.)))
   REPRESENTATION_ITEM ('')
   SURFACE ()
);
#196 = CARTESIAN_POINT('', (-1.5875, 2.40682897053427E-15, -37.719));
#197 = CARTESIAN_POINT('', (-1.5875, 2.43015849205803E-15, -38.1));
#198 = CARTESIAN_POINT('', (-1.2065, 2.40682897053427E-15, -38.1));
#199 = CARTESIAN_POINT('', (-1.5875, 1.5875, -37.719));
#200 = CARTESIAN_POINT('', (-1.5875, 1.5875, -38.1));
#201 = CARTESIAN_POINT('', (-1.2065, 1.2065, -38.1));
#202 = CARTESIAN_POINT('', (2.15002807106208E-15, 1.5875, -37.719));
#203 = CARTESIAN_POINT('', (2.17335759258584E-15, 1.5875, -38.1));
#204 = CARTESIAN_POINT('', (2.17335759258584E-15, 1.2065, -38.1));
#205 = CARTESIAN_POINT('', (1.5875, 1.5875, -37.719));
#206 = CARTESIAN_POINT('', (1.5875, 1.5875, -38.1));
#207 = CARTESIAN_POINT('', (1.2065, 1.2065, -38.1));
#208 = CARTESIAN_POINT('', (1.5875, -1.49077132516328E-15, -37.719));
#209 = CARTESIAN_POINT('', (1.5875, -1.51410084668704E-15, -38.1));
#210 = CARTESIAN_POINT('', (1.2065, -1.53743036821079E-15, -38.1));
#211 = CARTESIAN_POINT('', (1.5875, -1.5875, -37.719));
#212 = CARTESIAN_POINT('', (1.5875, -1.5875, -38.1));
#213 = CARTESIAN_POINT('', (1.2065, -1.2065, -38.1));
#214 = CARTESIAN_POINT('', (-1.55315954527082E-15, -1.5875, -37.719));
#215 = CARTESIAN_POINT('', (-1.57648906679458E-15, -1.5875, -38.1));
#216 = CARTESIAN_POINT('', (-1.62314810984209E-15, -1.2065, -38.1));
#217 = CARTESIAN_POINT('', (-1.5875, -1.5875, -37.719));
#218 = CARTESIAN_POINT('', (-1.5875, -1.5875, -38.1));
#219 = CARTESIAN_POINT('', (-1.2065, -1.2065, -38.1));
#220 = CARTESIAN_POINT('', (-1.5875, 2.40682897053427E-15, -37.719));
#221 = CARTESIAN_POINT('', (-1.5875, 2.43015849205803E-15, -38.1));
#222 = CARTESIAN_POINT('', (-1.2065, 2.40682897053427E-15, -38.1));
#223 = ADVANCED_FACE('', (#224), #227, .T.);
#224 = FACE_OUTER_BOUND('', #225, .T.);
#225 = EDGE_LOOP('', (#226));
#226 = ORIENTED_EDGE('', *, *, #189, .T.);
#227 = B_SPLINE_SURFACE_WITH_KNOTS('', 1, 1, ((#228, #229), (#230, #231)), .UNSPECIFIED., .F., .F., .U., (2, 2), (2, 2), (0.67037352930345, 3.08337352930345), (0.67037352930345, 3.08337352930345), .UNSPECIFIED.);
#228 = CARTESIAN_POINT('', (1.2065, -1.2065, -38.1));
#229 = CARTESIAN_POINT('', (1.2065, 1.2065, -38.1));
#230 = CARTESIAN_POINT('', (-1.2065, -1.2065, -38.1));
#231 = CARTESIAN_POINT('', (-1.2065, 1.2065, -38.1));
#232 = PRESENTATION_STYLE_ASSIGNMENT((#233));
#233 = SURFACE_STYLE_USAGE(.POSITIVE., #234);
#234 = SURFACE_SIDE_STYLE('', (#235));
#235 = SURFACE_STYLE_FILL_AREA(#236);
#236 = FILL_AREA_STYLE('', (#237));
#237 = FILL_AREA_STYLE_COLOUR('', #238);
#238 = COLOUR_RGB('', 0.8, 0.8, 0.8);
#239 = STYLED_ITEM('', (#232), #116);
#240 = TRIMMED_CURVE('cutting part line', #241, (#245), (#246), .T., .CARTESIAN.);
#241 = LINE('', #242, #243);
#242 = CARTESIAN_POINT('', (-3.39245662838112E-31, -1.84676737311421E-15, -30.16));
#243 = VECTOR('', #244, 1.5875);
#244 = DIRECTION('', (1.5875, -2.91619019046962E-16, 0.));
#245 = CARTESIAN_POINT('', (-3.39245662838112E-31, -1.84676737311421E-15, -30.16));
#246 = CARTESIAN_POINT('', (1.5875, -2.13838639216117E-15, -30.16));
#247 = TRIMMED_CURVE('cutting part line', #248, (#252), (#253), .T., .CARTESIAN.);
#248 = LINE('', #249, #250);
#249 = CARTESIAN_POINT('', (1.5875, -2.13838639216117E-15, -30.16));
#250 = VECTOR('', #251, 7.559);
#251 = DIRECTION('', (0., -4.6285525773774E-16, -7.559));
#252 = CARTESIAN_POINT('', (1.5875, -2.13838639216117E-15, -30.16));
#253 = CARTESIAN_POINT('', (1.5875, -2.60124164989891E-15, -37.719));
#254 = TRIMMED_CURVE('cutting part line', #255, (#260), (#261), .T., .CARTESIAN.);
#255 = CIRCLE('', #256, 0.380999999999987);
#256 = AXIS2_PLACEMENT_3D('', #257, #258, #259);
#257 = CARTESIAN_POINT('', (1.20650000000002, -2.53125308532764E-15, -37.719));
#258 = DIRECTION('', (1.83697019872104E-16, 1., -6.12323399573698E-17));
#259 = DIRECTION('', (1., -1.83697019872102E-16, 1.86494156367489E-14));
#260 = CARTESIAN_POINT('', (1.5875, -2.60124164989891E-15, -37.719));
#261 = CARTESIAN_POINT('', (1.2065, -2.5545826068514E-15, -38.1));
#262 = TRIMMED_CURVE('cutting part line', #263, (#267), (#268), .T., .CARTESIAN.);
#263 = LINE('', #264, #265);
#264 = CARTESIAN_POINT('', (1.2065, -2.5545826068514E-15, -38.1));
#265 = VECTOR('', #266, 1.2065);
#266 = DIRECTION('', (-1.2065, 2.21630454475688E-16, 0.));
#267 = CARTESIAN_POINT('', (1.2065, -2.5545826068514E-15, -38.1));
#268 = CARTESIAN_POINT('', (-2.85704238597084E-31, -2.33295215237571E-15, -38.1));
#269 = TRIMMED_CURVE('cutting part line', #270, (#274), (#275), .T., .CARTESIAN.);
#270 = LINE('', #271, #272);
#271 = CARTESIAN_POINT('', (-4.28556357895626E-31, -2.33295215237571E-15, -38.1));
#272 = VECTOR('', #273, 7.94);
#273 = DIRECTION('', (8.93106950575138E-32, 4.861847792615E-16, 7.94));
#274 = CARTESIAN_POINT('', (-4.28556357895626E-31, -2.33295215237571E-15, -38.1));
#275 = CARTESIAN_POINT('', (-3.39245662838112E-31, -1.84676737311421E-15, -30.16));
#276 = COMPOSITE_CURVE('cutting part line', (#277, #278, #279, #280, #281), .U.);
#277 = COMPOSITE_CURVE_SEGMENT(.CONTINUOUS., .T., #240);
#278 = COMPOSITE_CURVE_SEGMENT(.CONTINUOUS., .T., #247);
#279 = COMPOSITE_CURVE_SEGMENT(.CONTINUOUS., .T., #254);
#280 = COMPOSITE_CURVE_SEGMENT(.CONTINUOUS., .T., #262);
#281 = COMPOSITE_CURVE_SEGMENT(.CONTINUOUS., .T., #269);
#282 = GEOMETRIC_SET('', (#276, #325));
#283 = PRESENTATION_STYLE_ASSIGNMENT((#284));
#284 = CURVE_STYLE('', #286, POSITIVE_LENGTH_MEASURE(1.E-6), #285);
#285 = COLOUR_RGB('', 0., 0., 1.);
#286 = DRAUGHTING_PRE_DEFINED_CURVE_FONT('continuous');
#287 = STYLED_ITEM('', (#283), #276);
#288 = PRESENTATION_STYLE_ASSIGNMENT((#289));
#289 = CURVE_STYLE('', #291, POSITIVE_LENGTH_MEASURE(1.E-6), #290);
#290 = COLOUR_RGB('', 0., 0., 1.);
#291 = DRAUGHTING_PRE_DEFINED_CURVE_FONT('continuous');
#292 = OVER_RIDING_STYLED_ITEM('', (#288), #240, #287);
#293 = PRESENTATION_STYLE_ASSIGNMENT((#294));
#294 = CURVE_STYLE('', #296, POSITIVE_LENGTH_MEASURE(1.E-6), #295);
#295 = COLOUR_RGB('', 0., 0., 1.);
#296 = DRAUGHTING_PRE_DEFINED_CURVE_FONT('continuous');
#297 = OVER_RIDING_STYLED_ITEM('', (#293), #247, #287);
#298 = PRESENTATION_STYLE_ASSIGNMENT((#299));
#299 = CURVE_STYLE('', #301, POSITIVE_LENGTH_MEASURE(1.E-6), #300);
#300 = COLOUR_RGB('', 0., 0., 1.);
#301 = DRAUGHTING_PRE_DEFINED_CURVE_FONT('continuous');
#302 = OVER_RIDING_STYLED_ITEM('', (#298), #254, #287);
#303 = PRESENTATION_STYLE_ASSIGNMENT((#304));
#304 = CURVE_STYLE('', #306, POSITIVE_LENGTH_MEASURE(1.E-6), #305);
#305 = COLOUR_RGB('', 0., 0., 1.);
#306 = DRAUGHTING_PRE_DEFINED_CURVE_FONT('continuous');
#307 = OVER_RIDING_STYLED_ITEM('', (#303), #262, #287);
#308 = PRESENTATION_STYLE_ASSIGNMENT((#309));
#309 = CURVE_STYLE('', #311, POSITIVE_LENGTH_MEASURE(1.E-6), #310);
#310 = COLOUR_RGB('', 0., 0., 1.);
#311 = DRAUGHTING_PRE_DEFINED_CURVE_FONT('continuous');
#312 = OVER_RIDING_STYLED_ITEM('', (#308), #269, #287);
#313 = AXIS2_PLACEMENT_3D('CIP', #314, #315, #316);
#314 = CARTESIAN_POINT('', (1.42852119298542E-31, 2.33295215237571E-15, -38.1));
#315 = DIRECTION('', (-3.74939945665465E-33, -6.12323399573677E-17, 1.));
#316 = DIRECTION('', (1., -6.12323399573677E-17, 0.));
#317 = AXIS2_PLACEMENT_3D('MCS', #318, #319, #320);
#318 = CARTESIAN_POINT('', (9.74843858730207E-32, 1.59204083889156E-15, -26.));
#319 = DIRECTION('', (-3.74939945665465E-33, -6.12323399573677E-17, 1.));
#320 = DIRECTION('', (1., -6.12323399573677E-17, 0.));
#321 = AXIS2_PLACEMENT_3D('PCS', #322, #323, #324);
#322 = CARTESIAN_POINT('', (0., 0., 0.));
#323 = DIRECTION('', (0., 0., 1.));
#324 = DIRECTION('', (1., 0., 0.));
#325 = CARTESIAN_POINT('CRP', (1.5875, 0., -38.1));
#326 = (
   GEOMETRIC_REPRESENTATION_CONTEXT (3)
   GLOBAL_UNCERTAINTY_ASSIGNED_CONTEXT ((#328))
   GLOBAL_UNIT_ASSIGNED_CONTEXT ((#327, #329, #330))
   REPRESENTATION_CONTEXT ('', '3D')
);
#327 = (
   LENGTH_UNIT ()
   NAMED_UNIT (*)
   SI_UNIT (.MILLI., .METRE.)
);
#328 = UNCERTAINTY_MEASURE_WITH_UNIT(LENGTH_MEASURE(1.E-6), #327, 'DISTANCE_ACCURACY_VALUE', '');
#329 = (
   NAMED_UNIT (*)
   SI_UNIT ($, .STERADIAN.)
   SOLID_ANGLE_UNIT ()
);
#330 = (
   NAMED_UNIT (*)
   PLANE_ANGLE_UNIT ()
   SI_UNIT ($, .RADIAN.)
);
#331 = SHAPE_REPRESENTATION('', (), #326);
#332 = PRODUCT_DEFINITION_SHAPE('', '', #333);
#333 = PRODUCT_DEFINITION('', '', #336, #340);
#334 = APPLICATION_CONTEXT('configuration controlled 3D designs of mechanical parts and assemblies');
#335 = APPLICATION_PROTOCOL_DEFINITION('International Standard', 'automotive_design', 2002, #334);
#336 = PRODUCT_DEFINITION_FORMATION_WITH_SPECIFIED_SOURCE('', '', #337, .NOT_KNOWN.);
#337 = PRODUCT('NONE', '2S342-0318-038-PA   1730', '', (#338));
#338 = PRODUCT_CONTEXT('', #334, 'mechanical');
#339 = PRODUCT_RELATED_PRODUCT_CATEGORY('detail', '', (#337));
#340 = PRODUCT_DEFINITION_CONTEXT('part definition', #334, 'design');
#341 = SHAPE_DEFINITION_REPRESENTATION(#332, #331);
#342 = CONSTRUCTIVE_GEOMETRY_REPRESENTATION('supplemental geometry', (#313, #317, #321), #326);
#343 = CONSTRUCTIVE_GEOMETRY_REPRESENTATION_RELATIONSHIP('', '', #331, #342);
#344 = SHAPE_REPRESENTATION_RELATIONSHIP('', '', #331, #345);
#345 = SHAPE_REPRESENTATION('', (#282), #326);
#346 = SHAPE_REPRESENTATION_RELATIONSHIP('', '', #331, #347);
#347 = ADVANCED_BREP_SHAPE_REPRESENTATION('', (#1, #116), #326);
ENDSEC;
END-ISO-10303-21;
