ISO-10303-21;
HEADER;
FILE_DESCRIPTION(('STEP'), '1');
FILE_NAME('C:\\Users\\ds2002\\OneDrive - Sandvik\\HomeShare\\Documents\\Batchrepair\\CorSRT2\\NEW_MILSQ_SLD\\Output\\MOD000000000000000020084626300000.stp', '2019-01-02T12:11:29', (''), (''), 'Express v3.0.0.0', 'Express Tool', 'Unknown');
FILE_SCHEMA(('AUTOMOTIVE_DESIGN'));
ENDSEC;

DATA;
#1 = MANIFOLD_SOLID_BREP('NOCUT', #2);
#2 = CLOSED_SHELL('', (#3, #50, #59, #98));
#3 = ADVANCED_FACE('', (#4), #31, .T.);
#4 = FACE_OUTER_BOUND('', #5, .T.);
#5 = EDGE_LOOP('', (#6, #16, #23, #24));
#6 = ORIENTED_EDGE('', *, *, #7, .T.);
#7 = EDGE_CURVE('', #8, #10, #12, .T.);
#8 = VERTEX_POINT('', #9);
#9 = CARTESIAN_POINT('', (-6., 4.04133443718627E-16, -0.600000000000001));
#10 = VERTEX_POINT('', #11);
#11 = CARTESIAN_POINT('', (-5.4, 3.30654635769785E-16, 0.));
#12 = LINE('', #13, #14);
#13 = CARTESIAN_POINT('', (-6., 4.04133443718627E-16, -0.600000000000001));
#14 = VECTOR('', #15, 0.848528137423857);
#15 = DIRECTION('', (0.6, -7.3478807948842E-17, 0.600000000000001));
#16 = ORIENTED_EDGE('', *, *, #17, .T.);
#17 = EDGE_CURVE('', #10, #10, #18, .T.);
#18 = CIRCLE('', #19, 5.4);
#19 = AXIS2_PLACEMENT_3D('', #20, #21, #22);
#20 = CARTESIAN_POINT('', (6.93889390390723E-16, -1.11022302462516E-16, 1.23259516440783E-32));
#21 = DIRECTION('', (7.29090075504589E-33, 6.12323399573677E-17, -1.));
#22 = DIRECTION('', (-1., -1.63137334230896E-16, -1.72801814644108E-32));
#23 = ORIENTED_EDGE('', *, *, #7, .F.);
#24 = ORIENTED_EDGE('', *, *, #25, .F.);
#25 = EDGE_CURVE('', #8, #8, #26, .T.);
#26 = CIRCLE('', #27, 6.);
#27 = AXIS2_PLACEMENT_3D('', #28, #29, #30);
#28 = CARTESIAN_POINT('', (-1.22124532708767E-15, -2.1094237467878E-15, -0.600000000000001));
#29 = DIRECTION('', (-1.85037170770859E-17, 1.2317654765601E-16, -1.));
#30 = DIRECTION('', (-1., 1.73996838588266E-16, 1.85037170770859E-17));
#31 = (
   BOUNDED_SURFACE ()
   B_SPLINE_SURFACE (1, 2, ((#32, #33, #34, #35, #36, #37, #38, #39, #40), (#41, #42, #43, #44, #45, #46, #47, #48, #49)), .UNSPECIFIED., .F., .T., .U.)
   B_SPLINE_SURFACE_WITH_KNOTS ((2, 2), (3, 2, 2, 2, 3), (0., 1.), (0., 0.25, 0.5, 0.75, 1.), .UNSPECIFIED.)
   GEOMETRIC_REPRESENTATION_ITEM ()
   RATIONAL_B_SPLINE_SURFACE (((1., 0.707106781186548, 1., 0.707106781186548, 1., 0.707106781186548, 1., 0.707106781186548, 1.), (1., 0.707106781186548, 1., 0.707106781186548, 1., 0.707106781186548, 1., 0.707106781186548, 1.)))
   REPRESENTATION_ITEM ('')
   SURFACE ()
);
#32 = CARTESIAN_POINT('', (-6., 2.98258605330568E-15, -0.600000000000001));
#33 = CARTESIAN_POINT('', (-6., 6., -0.599999999999978));
#34 = CARTESIAN_POINT('', (4.68298239692583E-15, 6., -0.599999999999978));
#35 = CARTESIAN_POINT('', (6., 6., -0.599999999999978));
#36 = CARTESIAN_POINT('', (6., -2.69188718366733E-15, -0.600000000000001));
#37 = CARTESIAN_POINT('', (6., -6., -0.600000000000024));
#38 = CARTESIAN_POINT('', (-2.56702760558774E-16, -6., -0.600000000000024));
#39 = CARTESIAN_POINT('', (-6., -6., -0.600000000000024));
#40 = CARTESIAN_POINT('', (-6., 2.98258605330568E-15, -0.600000000000001));
#41 = CARTESIAN_POINT('', (-5.4, 3.30654635769784E-16, -6.56858655152258E-47));
#42 = CARTESIAN_POINT('', (-5.4, 5.4, 2.09832151654154E-14));
#43 = CARTESIAN_POINT('', (4.39925873507718E-15, 5.4, 2.09832151654154E-14));
#44 = CARTESIAN_POINT('', (5.4, 5.4, 2.09832151654154E-14));
#45 = CARTESIAN_POINT('', (5.4, -4.77637127750593E-15, 2.27387988935674E-30));
#46 = CARTESIAN_POINT('', (5.4, -5.40000000000001, -2.09832151654154E-14));
#47 = CARTESIAN_POINT('', (-4.64579066589654E-17, -5.4, -2.09832151654154E-14));
#48 = CARTESIAN_POINT('', (-5.4, -5.4, -2.09832151654154E-14));
#49 = CARTESIAN_POINT('', (-5.4, 3.30654635769784E-16, -6.56858655152258E-47));
#50 = ADVANCED_FACE('', (#51), #54, .T.);
#51 = FACE_OUTER_BOUND('', #52, .T.);
#52 = EDGE_LOOP('', (#53));
#53 = ORIENTED_EDGE('', *, *, #17, .F.);
#54 = B_SPLINE_SURFACE_WITH_KNOTS('', 1, 1, ((#55, #56), (#57, #58)), .UNSPECIFIED., .F., .F., .U., (2, 2), (2, 2), (3.00042856049618, 13.8004285604962), (3.00042856049619, 13.8004285604962), .UNSPECIFIED.);
#55 = CARTESIAN_POINT('', (5.4, -5.4, -7.43608199337083E-15));
#56 = CARTESIAN_POINT('', (-5.4, -5.4, -7.43608199337083E-15));
#57 = CARTESIAN_POINT('', (5.4, 5.4, 7.43608199337074E-15));
#58 = CARTESIAN_POINT('', (-5.4, 5.4, 7.43608199337074E-15));
#59 = ADVANCED_FACE('', (#60), #79, .T.);
#60 = FACE_OUTER_BOUND('', #61, .T.);
#61 = EDGE_LOOP('', (#62, #71, #77, #78));
#62 = ORIENTED_EDGE('', *, *, #63, .F.);
#63 = EDGE_CURVE('', #64, #64, #66, .T.);
#64 = VERTEX_POINT('', #65);
#65 = CARTESIAN_POINT('', (-6., 3.85763741731416E-15, -57.));
#66 = CIRCLE('', #67, 6.);
#67 = AXIS2_PLACEMENT_3D('', #68, #69, #70);
#68 = CARTESIAN_POINT('', (1.80411241501588E-15, 2.22044604925031E-16, -57.));
#69 = DIRECTION('', (1.1842378929335E-15, -3.85270076266768E-15, -1.));
#70 = DIRECTION('', (-1., 6.05932135398188E-16, -1.1842378929335E-15));
#71 = ORIENTED_EDGE('', *, *, #72, .T.);
#72 = EDGE_CURVE('', #64, #8, #73, .T.);
#73 = LINE('', #74, #75);
#74 = CARTESIAN_POINT('', (-6., 3.85763741731416E-15, -57.));
#75 = VECTOR('', #76, 56.4);
#76 = DIRECTION('', (0., -3.45350397359553E-15, 56.4));
#77 = ORIENTED_EDGE('', *, *, #25, .T.);
#78 = ORIENTED_EDGE('', *, *, #72, .F.);
#79 = (
   BOUNDED_SURFACE ()
   B_SPLINE_SURFACE (1, 2, ((#80, #81, #82, #83, #84, #85, #86, #87, #88), (#89, #90, #91, #92, #93, #94, #95, #96, #97)), .UNSPECIFIED., .F., .T., .U.)
   B_SPLINE_SURFACE_WITH_KNOTS ((2, 2), (3, 2, 2, 2, 3), (-0.27027027027027, 1.), (0., 0.25, 0.5, 0.75, 1.), .UNSPECIFIED.)
   GEOMETRIC_REPRESENTATION_ITEM ()
   RATIONAL_B_SPLINE_SURFACE (((1., 0.707106781186548, 1., 0.707106781186548, 1., 0.707106781186548, 1., 0.707106781186548, 1.), (1., 0.707106781186548, 1., 0.707106781186548, 1., 0.707106781186548, 1., 0.707106781186548, 1.)))
   REPRESENTATION_ITEM ('')
   SURFACE ()
);
#80 = CARTESIAN_POINT('', (-6., 5.1780924496068E-15, -57.));
#81 = CARTESIAN_POINT('', (-6., 6.00000000000001, -57.));
#82 = CARTESIAN_POINT('', (1.15806465884583E-15, 6., -57.));
#83 = CARTESIAN_POINT('', (6., 6., -57.));
#84 = CARTESIAN_POINT('', (6., 1.32985535793243E-15, -57.));
#85 = CARTESIAN_POINT('', (6., -6., -57.));
#86 = CARTESIAN_POINT('', (-1.95538435334013E-15, -6., -57.));
#87 = CARTESIAN_POINT('', (-6., -6., -57.));
#88 = CARTESIAN_POINT('', (-6., 5.1780924496068E-15, -57.));
#89 = CARTESIAN_POINT('', (-6., 4.04133443718627E-16, -0.600000000000001));
#90 = CARTESIAN_POINT('', (-6., 6., -0.6));
#91 = CARTESIAN_POINT('', (2.20167430199348E-15, 6., -0.600000000000001));
#92 = CARTESIAN_POINT('', (6., 6., -0.600000000000001));
#93 = CARTESIAN_POINT('', (6., -3.44410364795575E-15, -0.600000000000001));
#94 = CARTESIAN_POINT('', (6., -6., -0.600000000000002));
#95 = CARTESIAN_POINT('', (-9.11774710192486E-16, -6., -0.600000000000002));
#96 = CARTESIAN_POINT('', (-6., -6., -0.600000000000002));
#97 = CARTESIAN_POINT('', (-6., 4.04133443718627E-16, -0.600000000000001));
#98 = ADVANCED_FACE('', (#99), #102, .T.);
#99 = FACE_OUTER_BOUND('', #100, .T.);
#100 = EDGE_LOOP('', (#101));
#101 = ORIENTED_EDGE('', *, *, #63, .T.);
#102 = B_SPLINE_SURFACE_WITH_KNOTS('', 1, 1, ((#103, #104), (#105, #106)), .UNSPECIFIED., .F., .F., .U., (2, 2), (2, 2), (80.9581460811476, 92.9581460811476), (76.4762170923249, 88.4762170923249), .UNSPECIFIED.);
#103 = CARTESIAN_POINT('', (-6., 6.00000000000001, -57.));
#104 = CARTESIAN_POINT('', (-6.00000000000001, -6., -57.));
#105 = CARTESIAN_POINT('', (6., 6.00000000000001, -57.));
#106 = CARTESIAN_POINT('', (5.99999999999999, -6., -57.));
#107 = DRAUGHTING_MODEL('', (#115, #229, #276, #281, #286, #291, #296, #301), #315);
#108 = PRESENTATION_STYLE_ASSIGNMENT((#109));
#109 = SURFACE_STYLE_USAGE(.POSITIVE., #110);
#110 = SURFACE_SIDE_STYLE('', (#111));
#111 = SURFACE_STYLE_FILL_AREA(#112);
#112 = FILL_AREA_STYLE('', (#113));
#113 = FILL_AREA_STYLE_COLOUR('', #114);
#114 = COLOUR_RGB('', 0.50196078431373, 0.50196078431373, 0.50196078431373);
#115 = STYLED_ITEM('', (#108), #1);
#116 = MANIFOLD_SOLID_BREP('CUT', #117);
#117 = CLOSED_SHELL('', (#118, #135, #174, #213));
#118 = ADVANCED_FACE('', (#119), #130, .T.);
#119 = FACE_OUTER_BOUND('', #120, .T.);
#120 = EDGE_LOOP('', (#121));
#121 = ORIENTED_EDGE('', *, *, #122, .F.);
#122 = EDGE_CURVE('', #123, #123, #125, .T.);
#123 = VERTEX_POINT('', #124);
#124 = CARTESIAN_POINT('', (-6., 3.85763741731416E-15, -57.));
#125 = CIRCLE('', #126, 6.);
#126 = AXIS2_PLACEMENT_3D('', #127, #128, #129);
#127 = CARTESIAN_POINT('', (1.80411241501588E-15, 2.22044604925031E-16, -57.));
#128 = DIRECTION('', (1.1842378929335E-15, -3.85270076266768E-15, -1.));
#129 = DIRECTION('', (-1., 6.05932135398188E-16, -1.1842378929335E-15));
#130 = B_SPLINE_SURFACE_WITH_KNOTS('', 1, 1, ((#131, #132), (#133, #134)), .UNSPECIFIED., .F., .F., .U., (2, 2), (2, 2), (76.4762170923249, 88.4762170923249), (80.9581460811476, 92.9581460811476), .UNSPECIFIED.);
#131 = CARTESIAN_POINT('', (-6., 6.00000000000001, -57.));
#132 = CARTESIAN_POINT('', (6., 6.00000000000001, -57.));
#133 = CARTESIAN_POINT('', (-6., -6., -57.));
#134 = CARTESIAN_POINT('', (6., -6., -57.));
#135 = ADVANCED_FACE('', (#136), #155, .T.);
#136 = FACE_OUTER_BOUND('', #137, .T.);
#137 = EDGE_LOOP('', (#138, #139, #147, #154));
#138 = ORIENTED_EDGE('', *, *, #122, .T.);
#139 = ORIENTED_EDGE('', *, *, #140, .F.);
#140 = EDGE_CURVE('', #141, #123, #143, .T.);
#141 = VERTEX_POINT('', #142);
#142 = CARTESIAN_POINT('', (-6., 5.44355502220999E-15, -82.9));
#143 = LINE('', #144, #145);
#144 = CARTESIAN_POINT('', (-6., 5.44355502220999E-15, -82.9));
#145 = VECTOR('', #146, 25.9);
#146 = DIRECTION('', (0., -1.58591760489583E-15, 25.9));
#147 = ORIENTED_EDGE('', *, *, #148, .F.);
#148 = EDGE_CURVE('', #141, #141, #149, .T.);
#149 = CIRCLE('', #150, 6.);
#150 = AXIS2_PLACEMENT_3D('', #151, #152, #153);
#151 = CARTESIAN_POINT('', (-3.88578058618805E-16, -1.4432899320127E-15, -82.9));
#152 = DIRECTION('', (0., 0., -1.));
#153 = DIRECTION('', (-1., 1.14780749237045E-15, 0.));
#154 = ORIENTED_EDGE('', *, *, #140, .T.);
#155 = (
   BOUNDED_SURFACE ()
   B_SPLINE_SURFACE (1, 2, ((#156, #157, #158, #159, #160, #161, #162, #163, #164), (#165, #166, #167, #168, #169, #170, #171, #172, #173)), .UNSPECIFIED., .F., .T., .U.)
   B_SPLINE_SURFACE_WITH_KNOTS ((2, 2), (3, 2, 2, 2, 3), (-0.853603603603603, -0.27027027027027), (0., 0.25, 0.5, 0.75, 1.), .UNSPECIFIED.)
   GEOMETRIC_REPRESENTATION_ITEM ()
   RATIONAL_B_SPLINE_SURFACE (((1., 0.707106781186548, 1., 0.707106781186548, 1., 0.707106781186548, 1., 0.707106781186548, 1.), (1., 0.707106781186548, 1., 0.707106781186548, 1., 0.707106781186548, 1., 0.707106781186548, 1.)))
   REPRESENTATION_ITEM ('')
   SURFACE ()
);
#156 = CARTESIAN_POINT('', (-6., 9.51977484290246E-15, -82.9));
#157 = CARTESIAN_POINT('', (-6., 6.00000000000001, -82.9));
#158 = CARTESIAN_POINT('', (-5.06559511080608E-16, 6.00000000000001, -82.9));
#159 = CARTESIAN_POINT('', (6., 6.00000000000001, -82.9));
#160 = CARTESIAN_POINT('', (6., 8.31244781581336E-15, -82.9));
#161 = CARTESIAN_POINT('', (6., -5.99999999999999, -82.9));
#162 = CARTESIAN_POINT('', (-9.79098458681291E-16, -5.99999999999999, -82.9));
#163 = CARTESIAN_POINT('', (-6., -5.99999999999999, -82.9));
#164 = CARTESIAN_POINT('', (-6., 9.51977484290246E-15, -82.9));
#165 = CARTESIAN_POINT('', (-6., 3.85763741731416E-15, -57.));
#166 = CARTESIAN_POINT('', (-6., 6., -57.));
#167 = CARTESIAN_POINT('', (-5.06559511080609E-16, 6., -57.));
#168 = CARTESIAN_POINT('', (6., 6., -57.));
#169 = CARTESIAN_POINT('', (6., 2.65031039022507E-15, -57.));
#170 = CARTESIAN_POINT('', (6., -6., -57.));
#171 = CARTESIAN_POINT('', (-9.79098458681292E-16, -6., -57.));
#172 = CARTESIAN_POINT('', (-6., -6., -57.));
#173 = CARTESIAN_POINT('', (-6., 3.85763741731416E-15, -57.));
#174 = ADVANCED_FACE('', (#175), #194, .T.);
#175 = FACE_OUTER_BOUND('', #176, .T.);
#176 = EDGE_LOOP('', (#177, #185, #186, #187));
#177 = ORIENTED_EDGE('', *, *, #178, .F.);
#178 = EDGE_CURVE('', #141, #179, #181, .T.);
#179 = VERTEX_POINT('', #180);
#180 = CARTESIAN_POINT('', (-5.9, 5.44355502220998E-15, -83.));
#181 = LINE('', #182, #183);
#182 = CARTESIAN_POINT('', (-6., 5.44355502220999E-15, -82.9));
#183 = VECTOR('', #184, 0.141421356237305);
#184 = DIRECTION('', (0.0999999999999996, -9.46633086265214E-30, -0.0999999999999943));
#185 = ORIENTED_EDGE('', *, *, #148, .T.);
#186 = ORIENTED_EDGE('', *, *, #178, .T.);
#187 = ORIENTED_EDGE('', *, *, #188, .F.);
#188 = EDGE_CURVE('', #179, #179, #189, .T.);
#189 = CIRCLE('', #190, 5.9);
#190 = AXIS2_PLACEMENT_3D('', #191, #192, #193);
#191 = CARTESIAN_POINT('', (3.33066907387547E-16, 1.77635683940025E-15, -83.));
#192 = DIRECTION('', (0., 0., -1.));
#193 = DIRECTION('', (-1., 6.21559014035547E-16, 0.));
#194 = (
   BOUNDED_SURFACE ()
   B_SPLINE_SURFACE (2, 1, ((#195, #196), (#197, #198), (#199, #200), (#201, #202), (#203, #204), (#205, #206), (#207, #208), (#209, #210), (#211, #212)), .UNSPECIFIED., .T., .F., .U.)
   B_SPLINE_SURFACE_WITH_KNOTS ((3, 2, 2, 2, 3), (2, 2), (0., 0.25, 0.5, 0.75, 1.), (0., 1.), .UNSPECIFIED.)
   GEOMETRIC_REPRESENTATION_ITEM ()
   RATIONAL_B_SPLINE_SURFACE (((1., 1.), (0.707106781186548, 0.707106781186548), (1., 1.), (0.707106781186548, 0.707106781186548), (1., 1.), (0.707106781186548, 0.707106781186548), (1., 1.), (0.707106781186548, 0.707106781186548), (1., 1.)))
   REPRESENTATION_ITEM ('')
   SURFACE ()
);
#195 = CARTESIAN_POINT('', (-6., 5.44355502220999E-15, -82.9));
#196 = CARTESIAN_POINT('', (-5.9, 7.24760973386676E-15, -83.));
#197 = CARTESIAN_POINT('', (-5.99999999999999, 6.00000000000001, -82.8999999999999));
#198 = CARTESIAN_POINT('', (-5.9, 5.90000000000001, -82.9999999999999));
#199 = CARTESIAN_POINT('', (6.13087285585968E-15, 6., -82.8999999999999));
#200 = CARTESIAN_POINT('', (6.05367165964942E-15, 5.90000000000001, -82.9999999999999));
#201 = CARTESIAN_POINT('', (6.00000000000001, 6., -82.8999999999999));
#202 = CARTESIAN_POINT('', (5.90000000000001, 5.9, -82.9999999999999));
#203 = CARTESIAN_POINT('', (6., -3.82058852302145E-15, -82.9));
#204 = CARTESIAN_POINT('', (5.9, -1.86213141894416E-15, -83.));
#205 = CARTESIAN_POINT('', (6., -6., -82.9000000000001));
#206 = CARTESIAN_POINT('', (5.9, -5.9, -83.0000000000001));
#207 = CARTESIAN_POINT('', (-2.39848260988335E-15, -6., -82.9000000000001));
#208 = CARTESIAN_POINT('', (-2.33352788166456E-15, -5.9, -83.0000000000001));
#209 = CARTESIAN_POINT('', (-6., -6., -82.9000000000001));
#210 = CARTESIAN_POINT('', (-5.9, -5.9, -83.0000000000001));
#211 = CARTESIAN_POINT('', (-6., 5.44355502220999E-15, -82.9));
#212 = CARTESIAN_POINT('', (-5.9, 7.24760973386676E-15, -83.));
#213 = ADVANCED_FACE('', (#214), #217, .T.);
#214 = FACE_OUTER_BOUND('', #215, .T.);
#215 = EDGE_LOOP('', (#216));
#216 = ORIENTED_EDGE('', *, *, #188, .T.);
#217 = B_SPLINE_SURFACE_WITH_KNOTS('', 1, 1, ((#218, #219), (#220, #221)), .UNSPECIFIED., .F., .F., .U., (2, 2), (2, 2), (3.27824601980139, 15.0782460198014), (3.27824601980138, 15.0782460198014), .UNSPECIFIED.);
#218 = CARTESIAN_POINT('', (5.9, -5.9, -83.));
#219 = CARTESIAN_POINT('', (5.9, 5.90000000000001, -83.));
#220 = CARTESIAN_POINT('', (-5.9, -5.9, -83.));
#221 = CARTESIAN_POINT('', (-5.9, 5.90000000000001, -83.));
#222 = PRESENTATION_STYLE_ASSIGNMENT((#223));
#223 = SURFACE_STYLE_USAGE(.POSITIVE., #224);
#224 = SURFACE_SIDE_STYLE('', (#225));
#225 = SURFACE_STYLE_FILL_AREA(#226);
#226 = FILL_AREA_STYLE('', (#227));
#227 = FILL_AREA_STYLE_COLOUR('', #228);
#228 = COLOUR_RGB('', 0.8, 0.8, 0.8);
#229 = STYLED_ITEM('', (#222), #116);
#230 = TRIMMED_CURVE('cutting part line', #231, (#235), (#236), .T., .CARTESIAN.);
#231 = LINE('', #232, #233);
#232 = CARTESIAN_POINT('', (-6.41147307087945E-31, -3.49024337756996E-15, -57.));
#233 = VECTOR('', #234, 6.);
#234 = DIRECTION('', (6., -1.10218211923261E-15, 0.));
#235 = CARTESIAN_POINT('', (-6.41147307087945E-31, -3.49024337756996E-15, -57.));
#236 = CARTESIAN_POINT('', (6., -4.59242549680257E-15, -57.));
#237 = TRIMMED_CURVE('cutting part line', #238, (#242), (#243), .T., .CARTESIAN.);
#238 = LINE('', #239, #240);
#239 = CARTESIAN_POINT('', (6., -4.59242549680257E-15, -57.));
#240 = VECTOR('', #241, 25.9);
#241 = DIRECTION('', (0., -1.58591760489583E-15, -25.9));
#242 = CARTESIAN_POINT('', (6., -4.59242549680257E-15, -57.));
#243 = CARTESIAN_POINT('', (6., -6.1783431016984E-15, -82.9));
#244 = TRIMMED_CURVE('cutting part line', #245, (#249), (#250), .T., .CARTESIAN.);
#245 = LINE('', #246, #247);
#246 = CARTESIAN_POINT('', (6., -6.1783431016984E-15, -82.9));
#247 = VECTOR('', #248, 0.141421356237305);
#248 = DIRECTION('', (-0.0999999999999996, 1.22464679914828E-17, -0.0999999999999943));
#249 = CARTESIAN_POINT('', (6., -6.1783431016984E-15, -82.9));
#250 = CARTESIAN_POINT('', (5.9, -6.16609663370692E-15, -83.));
#251 = TRIMMED_CURVE('cutting part line', #252, (#256), (#257), .T., .CARTESIAN.);
#252 = LINE('', #253, #254);
#253 = CARTESIAN_POINT('', (5.9, -6.16609663370692E-15, -83.));
#254 = VECTOR('', #255, 5.9);
#255 = DIRECTION('', (-5.9, 1.0838124172454E-15, 0.));
#256 = CARTESIAN_POINT('', (5.9, -6.16609663370692E-15, -83.));
#257 = CARTESIAN_POINT('', (-6.22400309804671E-31, -5.08228421646152E-15, -83.));
#258 = TRIMMED_CURVE('cutting part line', #259, (#263), (#264), .T., .CARTESIAN.);
#259 = LINE('', #260, #261);
#260 = CARTESIAN_POINT('', (-9.33600464707006E-31, -5.08228421646152E-15, -83.));
#261 = VECTOR('', #262, 26.);
#262 = DIRECTION('', (2.92453157619062E-31, 1.59204083889156E-15, 26.));
#263 = CARTESIAN_POINT('', (-9.33600464707006E-31, -5.08228421646152E-15, -83.));
#264 = CARTESIAN_POINT('', (-6.41147307087945E-31, -3.49024337756996E-15, -57.));
#265 = COMPOSITE_CURVE('cutting part line', (#266, #267, #268, #269, #270), .U.);
#266 = COMPOSITE_CURVE_SEGMENT(.CONTINUOUS., .T., #230);
#267 = COMPOSITE_CURVE_SEGMENT(.CONTINUOUS., .T., #237);
#268 = COMPOSITE_CURVE_SEGMENT(.CONTINUOUS., .T., #244);
#269 = COMPOSITE_CURVE_SEGMENT(.CONTINUOUS., .T., #251);
#270 = COMPOSITE_CURVE_SEGMENT(.CONTINUOUS., .T., #258);
#271 = GEOMETRIC_SET('', (#265, #314));
#272 = PRESENTATION_STYLE_ASSIGNMENT((#273));
#273 = CURVE_STYLE('', #275, POSITIVE_LENGTH_MEASURE(1.E-6), #274);
#274 = COLOUR_RGB('', 0., 0., 1.);
#275 = DRAUGHTING_PRE_DEFINED_CURVE_FONT('continuous');
#276 = STYLED_ITEM('', (#272), #265);
#277 = PRESENTATION_STYLE_ASSIGNMENT((#278));
#278 = CURVE_STYLE('', #280, POSITIVE_LENGTH_MEASURE(1.E-6), #279);
#279 = COLOUR_RGB('', 0., 0., 1.);
#280 = DRAUGHTING_PRE_DEFINED_CURVE_FONT('continuous');
#281 = OVER_RIDING_STYLED_ITEM('', (#277), #230, #276);
#282 = PRESENTATION_STYLE_ASSIGNMENT((#283));
#283 = CURVE_STYLE('', #285, POSITIVE_LENGTH_MEASURE(1.E-6), #284);
#284 = COLOUR_RGB('', 0., 0., 1.);
#285 = DRAUGHTING_PRE_DEFINED_CURVE_FONT('continuous');
#286 = OVER_RIDING_STYLED_ITEM('', (#282), #237, #276);
#287 = PRESENTATION_STYLE_ASSIGNMENT((#288));
#288 = CURVE_STYLE('', #290, POSITIVE_LENGTH_MEASURE(1.E-6), #289);
#289 = COLOUR_RGB('', 0., 0., 1.);
#290 = DRAUGHTING_PRE_DEFINED_CURVE_FONT('continuous');
#291 = OVER_RIDING_STYLED_ITEM('', (#287), #244, #276);
#292 = PRESENTATION_STYLE_ASSIGNMENT((#293));
#293 = CURVE_STYLE('', #295, POSITIVE_LENGTH_MEASURE(1.E-6), #294);
#294 = COLOUR_RGB('', 0., 0., 1.);
#295 = DRAUGHTING_PRE_DEFINED_CURVE_FONT('continuous');
#296 = OVER_RIDING_STYLED_ITEM('', (#292), #251, #276);
#297 = PRESENTATION_STYLE_ASSIGNMENT((#298));
#298 = CURVE_STYLE('', #300, POSITIVE_LENGTH_MEASURE(1.E-6), #299);
#299 = COLOUR_RGB('', 0., 0., 1.);
#300 = DRAUGHTING_PRE_DEFINED_CURVE_FONT('continuous');
#301 = OVER_RIDING_STYLED_ITEM('', (#297), #258, #276);
#302 = AXIS2_PLACEMENT_3D('CIP', #303, #304, #305);
#303 = CARTESIAN_POINT('', (3.11200154902335E-31, 5.08228421646152E-15, -83.));
#304 = DIRECTION('', (-3.74939945665465E-33, -6.12323399573677E-17, 1.));
#305 = DIRECTION('', (1., -6.12323399573677E-17, 0.));
#306 = AXIS2_PLACEMENT_3D('MCS', #307, #308, #309);
#307 = CARTESIAN_POINT('', (1.68722975549459E-31, 2.75545529808154E-15, -45.));
#308 = DIRECTION('', (-3.74939945665465E-33, -6.12323399573677E-17, 1.));
#309 = DIRECTION('', (1., -6.12323399573677E-17, 0.));
#310 = AXIS2_PLACEMENT_3D('PCS', #311, #312, #313);
#311 = CARTESIAN_POINT('', (0., 0., 0.));
#312 = DIRECTION('', (0., 0., 1.));
#313 = DIRECTION('', (1., 0., 0.));
#314 = CARTESIAN_POINT('CRP', (6., 0., -83.));
#315 = (
   GEOMETRIC_REPRESENTATION_CONTEXT (3)
   GLOBAL_UNCERTAINTY_ASSIGNED_CONTEXT ((#317))
   GLOBAL_UNIT_ASSIGNED_CONTEXT ((#316, #318, #319))
   REPRESENTATION_CONTEXT ('', '3D')
);
#316 = (
   LENGTH_UNIT ()
   NAMED_UNIT (*)
   SI_UNIT (.MILLI., .METRE.)
);
#317 = UNCERTAINTY_MEASURE_WITH_UNIT(LENGTH_MEASURE(1.E-6), #316, 'DISTANCE_ACCURACY_VALUE', '');
#318 = (
   NAMED_UNIT (*)
   SI_UNIT ($, .STERADIAN.)
   SOLID_ANGLE_UNIT ()
);
#319 = (
   NAMED_UNIT (*)
   PLANE_ANGLE_UNIT ()
   SI_UNIT ($, .RADIAN.)
);
#320 = SHAPE_REPRESENTATION('', (), #315);
#321 = PRODUCT_DEFINITION_SHAPE('', '', #322);
#322 = PRODUCT_DEFINITION('', '', #325, #329);
#323 = APPLICATION_CONTEXT('configuration controlled 3D designs of mechanical parts and assemblies');
#324 = APPLICATION_PROTOCOL_DEFINITION('International Standard', 'automotive_design', 2002, #323);
#325 = PRODUCT_DEFINITION_FORMATION_WITH_SPECIFIED_SOURCE('', '', #326, .NOT_KNOWN.);
#326 = PRODUCT('EmptyName', 'EmptyName', '', (#327));
#327 = PRODUCT_CONTEXT('', #323, 'mechanical');
#328 = PRODUCT_RELATED_PRODUCT_CATEGORY('detail', '', (#326));
#329 = PRODUCT_DEFINITION_CONTEXT('part definition', #323, 'design');
#330 = SHAPE_DEFINITION_REPRESENTATION(#321, #320);
#331 = CONSTRUCTIVE_GEOMETRY_REPRESENTATION('supplemental geometry', (#302, #306, #310), #315);
#332 = CONSTRUCTIVE_GEOMETRY_REPRESENTATION_RELATIONSHIP('', '', #320, #331);
#333 = SHAPE_REPRESENTATION_RELATIONSHIP('', '', #320, #334);
#334 = SHAPE_REPRESENTATION('', (#271), #315);
#335 = SHAPE_REPRESENTATION_RELATIONSHIP('', '', #320, #336);
#336 = ADVANCED_BREP_SHAPE_REPRESENTATION('', (#1, #116), #315);
ENDSEC;
END-ISO-10303-21;
