ISO-10303-21;
HEADER;
FILE_DESCRIPTION(('STEP'), '1');
FILE_NAME('C:\\Users\\ds2002\\OneDrive - Sandvik\\HomeShare\\Documents\\Batchrepair\\CorSRT2\\NEW_MILSQ_SLD\\Output\\MOD000000000000000020084581900000.stp', '2019-01-02T12:07:40', (''), (''), 'Express v3.0.0.0', 'Express Tool', 'Unknown');
FILE_SCHEMA(('AUTOMOTIVE_DESIGN'));
ENDSEC;

DATA;
#1 = MANIFOLD_SOLID_BREP('NOCUT', #2);
#2 = CLOSED_SHELL('', (#3, #50, #89, #136, #145, #176));
#3 = ADVANCED_FACE('', (#4), #31, .T.);
#4 = FACE_OUTER_BOUND('', #5, .T.);
#5 = EDGE_LOOP('', (#6, #16, #23, #24));
#6 = ORIENTED_EDGE('', *, *, #7, .F.);
#7 = EDGE_CURVE('', #8, #10, #12, .T.);
#8 = VERTEX_POINT('', #9);
#9 = CARTESIAN_POINT('', (-2.0125, 2.4959832575122E-15, -38.75));
#10 = VERTEX_POINT('', #11);
#11 = CARTESIAN_POINT('', (-1., 3.42901103761259E-15, -55.));
#12 = LINE('', #13, #14);
#13 = CARTESIAN_POINT('', (-2.0125, 2.4959832575122E-15, -38.75));
#14 = VECTOR('', #15, 16.2815127138113);
#15 = DIRECTION('', (1.0125, 9.33027780100391E-16, -16.25));
#16 = ORIENTED_EDGE('', *, *, #17, .T.);
#17 = EDGE_CURVE('', #8, #8, #18, .T.);
#18 = CIRCLE('', #19, 2.0125);
#19 = AXIS2_PLACEMENT_3D('', #20, #21, #22);
#20 = CARTESIAN_POINT('', (-2.77555756156289E-17, 3.33066907387547E-16, -38.75));
#21 = DIRECTION('', (0., 0., -1.));
#22 = DIRECTION('', (-1., 1.0747410435402E-15, 0.));
#23 = ORIENTED_EDGE('', *, *, #7, .T.);
#24 = ORIENTED_EDGE('', *, *, #25, .F.);
#25 = EDGE_CURVE('', #10, #10, #26, .T.);
#26 = CIRCLE('', #27, 0.999999999999999);
#27 = AXIS2_PLACEMENT_3D('', #28, #29, #30);
#28 = CARTESIAN_POINT('', (-1.49186218934005E-16, 3.1641356201817E-15, -55.));
#29 = DIRECTION('', (6.40563842309548E-30, 2.41835897239E-14, -1.));
#30 = DIRECTION('', (-1., 2.64875417430894E-16, 0.));
#31 = (
   BOUNDED_SURFACE ()
   B_SPLINE_SURFACE (2, 1, ((#32, #33), (#34, #35), (#36, #37), (#38, #39), (#40, #41), (#42, #43), (#44, #45), (#46, #47), (#48, #49)), .UNSPECIFIED., .T., .F., .U.)
   B_SPLINE_SURFACE_WITH_KNOTS ((3, 2, 2, 2, 3), (2, 2), (0., 0.25, 0.5, 0.75, 1.), (0., 1.), .UNSPECIFIED.)
   GEOMETRIC_REPRESENTATION_ITEM ()
   RATIONAL_B_SPLINE_SURFACE (((1., 1.), (0.707106781186548, 0.707106781186548), (1., 1.), (0.707106781186548, 0.707106781186548), (1., 1.), (0.707106781186548, 0.707106781186548), (1., 1.), (0.707106781186548, 0.707106781186548), (1., 1.)))
   REPRESENTATION_ITEM ('')
   SURFACE ()
);
#32 = CARTESIAN_POINT('', (-2.0125, 2.4959832575122E-15, -38.75));
#33 = CARTESIAN_POINT('', (-0.999999999999941, 4.48833205450329E-15, -55.));
#34 = CARTESIAN_POINT('', (-2.0125, 2.0125, -38.75));
#35 = CARTESIAN_POINT('', (-0.99999999999994, 1., -55.));
#36 = CARTESIAN_POINT('', (2.96949804908402E-15, 2.0125, -38.75));
#37 = CARTESIAN_POINT('', (5.92604804766557E-14, 1., -55.));
#38 = CARTESIAN_POINT('', (2.0125, 2.0125, -38.75));
#39 = CARTESIAN_POINT('', (1.00000000000006, 1., -55.));
#40 = CARTESIAN_POINT('', (2.0125, -1.80543387933373E-15, -38.75));
#41 = CARTESIAN_POINT('', (1.00000000000006, 2.35098192439351E-15, -55.));
#42 = CARTESIAN_POINT('', (2.0125, -2.0125, -38.75));
#43 = CARTESIAN_POINT('', (1.00000000000006, -0.999999999999997, -55.));
#44 = CARTESIAN_POINT('', (-1.08545891943351E-15, -2.0125, -38.75));
#45 = CARTESIAN_POINT('', (5.72455950264607E-14, -0.999999999999996, -55.));
#46 = CARTESIAN_POINT('', (-2.0125, -2.0125, -38.75));
#47 = CARTESIAN_POINT('', (-0.999999999999942, -0.999999999999995, -55.));
#48 = CARTESIAN_POINT('', (-2.0125, 2.4959832575122E-15, -38.75));
#49 = CARTESIAN_POINT('', (-0.999999999999941, 4.48833205450329E-15, -55.));
#50 = ADVANCED_FACE('', (#51), #70, .T.);
#51 = FACE_OUTER_BOUND('', #52, .T.);
#52 = EDGE_LOOP('', (#53, #61, #68, #69));
#53 = ORIENTED_EDGE('', *, *, #54, .F.);
#54 = EDGE_CURVE('', #55, #8, #57, .T.);
#55 = VERTEX_POINT('', #56);
#56 = CARTESIAN_POINT('', (-3., 2.45051824509385E-15, -37.02));
#57 = LINE('', #58, #59);
#58 = CARTESIAN_POINT('', (-3., 2.45051824509385E-15, -37.02));
#59 = VECTOR('', #60, 1.99199805471792);
#60 = DIRECTION('', (0.9875, 4.54650124183498E-17, -1.73));
#61 = ORIENTED_EDGE('', *, *, #62, .T.);
#62 = EDGE_CURVE('', #55, #55, #63, .T.);
#63 = CIRCLE('', #64, 3.);
#64 = AXIS2_PLACEMENT_3D('', #65, #66, #67);
#65 = CARTESIAN_POINT('', (-7.07767178198537E-16, 8.88178419700125E-16, -37.02));
#66 = DIRECTION('', (0., 0., -1.));
#67 = DIRECTION('', (-1., 5.20779941797908E-16, 0.));
#68 = ORIENTED_EDGE('', *, *, #54, .T.);
#69 = ORIENTED_EDGE('', *, *, #17, .F.);
#70 = (
   BOUNDED_SURFACE ()
   B_SPLINE_SURFACE (2, 1, ((#71, #72), (#73, #74), (#75, #76), (#77, #78), (#79, #80), (#81, #82), (#83, #84), (#85, #86), (#87, #88)), .UNSPECIFIED., .T., .F., .U.)
   B_SPLINE_SURFACE_WITH_KNOTS ((3, 2, 2, 2, 3), (2, 2), (0., 0.25, 0.5, 0.75, 1.), (0., 1.), .UNSPECIFIED.)
   GEOMETRIC_REPRESENTATION_ITEM ()
   RATIONAL_B_SPLINE_SURFACE (((1., 1.), (0.707106781186548, 0.707106781186548), (1., 1.), (0.707106781186548, 0.707106781186548), (1., 1.), (0.707106781186548, 0.707106781186548), (1., 1.), (0.707106781186548, 0.707106781186548), (1., 1.)))
   REPRESENTATION_ITEM ('')
   SURFACE ()
);
#71 = CARTESIAN_POINT('', (-3., 2.45051824509385E-15, -37.02));
#72 = CARTESIAN_POINT('', (-2.0125, 4.88100894822977E-16, -38.75));
#73 = CARTESIAN_POINT('', (-3., 3., -37.02));
#74 = CARTESIAN_POINT('', (-2.0125, 2.0125, -38.75));
#75 = CARTESIAN_POINT('', (8.79042444440302E-16, 3., -37.02));
#76 = CARTESIAN_POINT('', (8.08960020508837E-16, 2.0125, -38.75));
#77 = CARTESIAN_POINT('', (3., 3., -37.02));
#78 = CARTESIAN_POINT('', (2.0125, 2.0125, -38.75));
#79 = CARTESIAN_POINT('', (3., 2.02470098576343E-15, -37.02));
#80 = CARTESIAN_POINT('', (2.0125, 2.0244848335549E-16, -38.75));
#81 = CARTESIAN_POINT('', (3., -3., -37.02));
#82 = CARTESIAN_POINT('', (2.0125, -2.0125, -38.75));
#83 = CARTESIAN_POINT('', (8.20619224854092E-16, -3., -37.02));
#84 = CARTESIAN_POINT('', (7.69767777369755E-16, -2.0125, -38.75));
#85 = CARTESIAN_POINT('', (-3., -3., -37.02));
#86 = CARTESIAN_POINT('', (-2.0125, -2.0125, -38.75));
#87 = CARTESIAN_POINT('', (-3., 2.45051824509385E-15, -37.02));
#88 = CARTESIAN_POINT('', (-2.0125, 4.88100894822977E-16, -38.75));
#89 = ADVANCED_FACE('', (#90), #117, .T.);
#90 = FACE_OUTER_BOUND('', #91, .T.);
#91 = EDGE_LOOP('', (#92, #102, #109, #110));
#92 = ORIENTED_EDGE('', *, *, #93, .T.);
#93 = EDGE_CURVE('', #94, #96, #98, .T.);
#94 = VERTEX_POINT('', #95);
#95 = CARTESIAN_POINT('', (-3., 2.02066721859313E-16, -0.299999999999997));
#96 = VERTEX_POINT('', #97);
#97 = CARTESIAN_POINT('', (-2.7, 1.65327317884893E-16, 0.));
#98 = LINE('', #99, #100);
#99 = CARTESIAN_POINT('', (-3., 2.02066721859313E-16, -0.299999999999997));
#100 = VECTOR('', #101, 0.424264068711926);
#101 = DIRECTION('', (0.3, -3.673940397442E-17, 0.299999999999997));
#102 = ORIENTED_EDGE('', *, *, #103, .T.);
#103 = EDGE_CURVE('', #96, #96, #104, .T.);
#104 = CIRCLE('', #105, 2.7);
#105 = AXIS2_PLACEMENT_3D('', #106, #107, #108);
#106 = CARTESIAN_POINT('', (6.24500451351651E-17, -1.88737914186277E-15, -1.07852076885685E-31));
#107 = DIRECTION('', (6.60738625565492E-33, 6.12323399573678E-17, -1.));
#108 = DIRECTION('', (-1., 7.60261651758392E-16, 3.99452136613649E-32));
#109 = ORIENTED_EDGE('', *, *, #93, .F.);
#110 = ORIENTED_EDGE('', *, *, #111, .F.);
#111 = EDGE_CURVE('', #94, #94, #112, .T.);
#112 = CIRCLE('', #113, 3.);
#113 = AXIS2_PLACEMENT_3D('', #114, #115, #116);
#114 = CARTESIAN_POINT('', (-8.32667268468867E-16, 1.66533453693773E-16, -0.299999999999997));
#115 = DIRECTION('', (7.45939217764516E-34, 6.29780982393227E-17, -1.));
#116 = DIRECTION('', (-1., 1.18444227218465E-17, 0.));
#117 = (
   BOUNDED_SURFACE ()
   B_SPLINE_SURFACE (1, 2, ((#118, #119, #120, #121, #122, #123, #124, #125, #126), (#127, #128, #129, #130, #131, #132, #133, #134, #135)), .UNSPECIFIED., .F., .T., .U.)
   B_SPLINE_SURFACE_WITH_KNOTS ((2, 2), (3, 2, 2, 2, 3), (0., 1.), (0., 0.25, 0.5, 0.75, 1.), .UNSPECIFIED.)
   GEOMETRIC_REPRESENTATION_ITEM ()
   RATIONAL_B_SPLINE_SURFACE (((1., 0.707106781186548, 1., 0.707106781186548, 1., 0.707106781186548, 1., 0.707106781186548, 1.), (1., 0.707106781186548, 1., 0.707106781186548, 1., 0.707106781186548, 1., 0.707106781186548, 1.)))
   REPRESENTATION_ITEM ('')
   SURFACE ()
);
#118 = CARTESIAN_POINT('', (-3., 1.49129302665284E-15, -0.299999999999997));
#119 = CARTESIAN_POINT('', (-3., 3., -0.299999999999985));
#120 = CARTESIAN_POINT('', (2.34149119846292E-15, 3., -0.299999999999985));
#121 = CARTESIAN_POINT('', (3., 3., -0.299999999999985));
#122 = CARTESIAN_POINT('', (3., -1.34594359183367E-15, -0.299999999999997));
#123 = CARTESIAN_POINT('', (3., -3., -0.300000000000009));
#124 = CARTESIAN_POINT('', (-1.28351380279387E-16, -3., -0.300000000000009));
#125 = CARTESIAN_POINT('', (-3., -3., -0.300000000000009));
#126 = CARTESIAN_POINT('', (-3., 1.49129302665284E-15, -0.299999999999997));
#127 = CARTESIAN_POINT('', (-2.7, 1.65327317884893E-16, -2.18952885050753E-47));
#128 = CARTESIAN_POINT('', (-2.7, 2.7, 1.04916075827078E-14));
#129 = CARTESIAN_POINT('', (2.19962936753859E-15, 2.7, 1.04916075827078E-14));
#130 = CARTESIAN_POINT('', (2.7, 2.7, 1.04916075827078E-14));
#131 = CARTESIAN_POINT('', (2.7, -2.38818563875297E-15, 1.12461399303431E-30));
#132 = CARTESIAN_POINT('', (2.7, -2.7, -1.04916075827078E-14));
#133 = CARTESIAN_POINT('', (-2.32289533294833E-17, -2.7, -1.04916075827078E-14));
#134 = CARTESIAN_POINT('', (-2.7, -2.7, -1.04916075827078E-14));
#135 = CARTESIAN_POINT('', (-2.7, 1.65327317884893E-16, -2.18952885050753E-47));
#136 = ADVANCED_FACE('', (#137), #140, .T.);
#137 = FACE_OUTER_BOUND('', #138, .T.);
#138 = EDGE_LOOP('', (#139));
#139 = ORIENTED_EDGE('', *, *, #103, .F.);
#140 = B_SPLINE_SURFACE_WITH_KNOTS('', 1, 1, ((#141, #142), (#143, #144)), .UNSPECIFIED., .F., .F., .U., (2, 2), (2, 2), (1.50021428024809, 6.90021428024809), (1.50021428024809, 6.90021428024809), .UNSPECIFIED.);
#141 = CARTESIAN_POINT('', (2.7, -2.7, 6.94010003971609E-15));
#142 = CARTESIAN_POINT('', (-2.7, -2.7, -7.27075467548589E-15));
#143 = CARTESIAN_POINT('', (2.7, 2.7, 7.27075467548587E-15));
#144 = CARTESIAN_POINT('', (-2.7, 2.7, -6.9401000397161E-15));
#145 = ADVANCED_FACE('', (#146), #157, .T.);
#146 = FACE_OUTER_BOUND('', #147, .T.);
#147 = EDGE_LOOP('', (#148, #154, #155, #156));
#148 = ORIENTED_EDGE('', *, *, #149, .T.);
#149 = EDGE_CURVE('', #55, #94, #150, .T.);
#150 = LINE('', #151, #152);
#151 = CARTESIAN_POINT('', (-3., 2.45051824509385E-15, -37.02));
#152 = VECTOR('', #153, 36.72);
#153 = DIRECTION('', (0., -2.24845152323454E-15, 36.72));
#154 = ORIENTED_EDGE('', *, *, #111, .T.);
#155 = ORIENTED_EDGE('', *, *, #149, .F.);
#156 = ORIENTED_EDGE('', *, *, #62, .F.);
#157 = (
   BOUNDED_SURFACE ()
   B_SPLINE_SURFACE (1, 2, ((#158, #159, #160, #161, #162, #163, #164, #165, #166), (#167, #168, #169, #170, #171, #172, #173, #174, #175)), .UNSPECIFIED., .F., .T., .U.)
   B_SPLINE_SURFACE_WITH_KNOTS ((2, 2), (3, 2, 2, 2, 3), (0., 1.), (0., 4.7123889803847, 9.4247779607694, 14.1371669411541, 18.8495559215388), .UNSPECIFIED.)
   GEOMETRIC_REPRESENTATION_ITEM ()
   RATIONAL_B_SPLINE_SURFACE (((1., 0.707106781186548, 1., 0.707106781186548, 1., 0.707106781186548, 1., 0.707106781186548, 1.), (1., 0.707106781186548, 1., 0.707106781186548, 1., 0.707106781186548, 1., 0.707106781186548, 1.)))
   REPRESENTATION_ITEM ('')
   SURFACE ()
);
#158 = CARTESIAN_POINT('', (-3., 2.20046816618459E-15, -37.02));
#159 = CARTESIAN_POINT('', (-3., 3., -37.02));
#160 = CARTESIAN_POINT('', (2.57243777013738E-15, 3., -37.02));
#161 = CARTESIAN_POINT('', (3., 3., -37.02));
#162 = CARTESIAN_POINT('', (3., -1.61102952151536E-15, -37.02));
#163 = CARTESIAN_POINT('', (3., -3., -37.02));
#164 = CARTESIAN_POINT('', (-8.71665877818362E-16, -3., -37.02));
#165 = CARTESIAN_POINT('', (-3., -3., -37.02));
#166 = CARTESIAN_POINT('', (-3., 2.20046816618459E-15, -37.02));
#167 = CARTESIAN_POINT('', (-3., 2.02066721859312E-16, -0.299999999999997));
#168 = CARTESIAN_POINT('', (-3., 3., -0.299999999999997));
#169 = CARTESIAN_POINT('', (3.25189426120798E-15, 3., -0.299999999999997));
#170 = CARTESIAN_POINT('', (3., 3., -0.299999999999997));
#171 = CARTESIAN_POINT('', (3., -3.60943096584064E-15, -0.299999999999997));
#172 = CARTESIAN_POINT('', (3., -3., -0.299999999999997));
#173 = CARTESIAN_POINT('', (-1.92209386747767E-16, -3., -0.299999999999997));
#174 = CARTESIAN_POINT('', (-3., -3., -0.299999999999997));
#175 = CARTESIAN_POINT('', (-3., 2.02066721859312E-16, -0.299999999999997));
#176 = ADVANCED_FACE('', (#177), #180, .T.);
#177 = FACE_OUTER_BOUND('', #178, .T.);
#178 = EDGE_LOOP('', (#179));
#179 = ORIENTED_EDGE('', *, *, #25, .T.);
#180 = B_SPLINE_SURFACE_WITH_KNOTS('', 1, 1, ((#181, #182), (#183, #184)), .UNSPECIFIED., .F., .F., .U., (2, 2), (2, 2), (59.4175982743315, 61.4175982743315), (53.8386475781176, 55.8386475781176), .UNSPECIFIED.);
#181 = CARTESIAN_POINT('', (-0.999999999999999, 1., -55.));
#182 = CARTESIAN_POINT('', (-0.999999999999999, -1., -55.));
#183 = CARTESIAN_POINT('', (1., 1., -55.));
#184 = CARTESIAN_POINT('', (1., -1., -55.));
#185 = DRAUGHTING_MODEL('', (#193, #317, #365, #370, #375, #380, #385, #390), #404);
#186 = PRESENTATION_STYLE_ASSIGNMENT((#187));
#187 = SURFACE_STYLE_USAGE(.POSITIVE., #188);
#188 = SURFACE_SIDE_STYLE('', (#189));
#189 = SURFACE_STYLE_FILL_AREA(#190);
#190 = FILL_AREA_STYLE('', (#191));
#191 = FILL_AREA_STYLE_COLOUR('', #192);
#192 = COLOUR_RGB('', 0.50196078431373, 0.50196078431373, 0.50196078431373);
#193 = STYLED_ITEM('', (#186), #1);
#194 = MANIFOLD_SOLID_BREP('CUT', #195);
#195 = CLOSED_SHELL('', (#196, #213, #252, #301));
#196 = ADVANCED_FACE('', (#197), #208, .T.);
#197 = FACE_OUTER_BOUND('', #198, .T.);
#198 = EDGE_LOOP('', (#199));
#199 = ORIENTED_EDGE('', *, *, #200, .F.);
#200 = EDGE_CURVE('', #201, #201, #203, .T.);
#201 = VERTEX_POINT('', #202);
#202 = CARTESIAN_POINT('', (-1., 3.42901103761259E-15, -55.));
#203 = CIRCLE('', #204, 0.999999999999999);
#204 = AXIS2_PLACEMENT_3D('', #205, #206, #207);
#205 = CARTESIAN_POINT('', (-1.49186218934005E-16, 3.1641356201817E-15, -55.));
#206 = DIRECTION('', (6.40563842309548E-30, 2.41835897239E-14, -1.));
#207 = DIRECTION('', (-1., 2.64875417430894E-16, 0.));
#208 = B_SPLINE_SURFACE_WITH_KNOTS('', 1, 1, ((#209, #210), (#211, #212)), .UNSPECIFIED., .F., .F., .U., (2, 2), (2, 2), (53.8386475781176, 55.8386475781176), (59.4175982743315, 61.4175982743315), .UNSPECIFIED.);
#209 = CARTESIAN_POINT('', (-1., 0.999999999999997, -55.));
#210 = CARTESIAN_POINT('', (1., 0.999999999999997, -55.));
#211 = CARTESIAN_POINT('', (-1., -1., -55.));
#212 = CARTESIAN_POINT('', (1., -1., -55.));
#213 = ADVANCED_FACE('', (#214), #233, .T.);
#214 = FACE_OUTER_BOUND('', #215, .T.);
#215 = EDGE_LOOP('', (#216, #224, #225, #226));
#216 = ORIENTED_EDGE('', *, *, #217, .F.);
#217 = EDGE_CURVE('', #201, #218, #220, .T.);
#218 = VERTEX_POINT('', #219);
#219 = CARTESIAN_POINT('', (-1., 3.53922924953585E-15, -56.8));
#220 = LINE('', #221, #222);
#221 = CARTESIAN_POINT('', (-1., 3.42901103761259E-15, -55.));
#222 = VECTOR('', #223, 1.8);
#223 = DIRECTION('', (0., 1.1021821192326E-16, -1.8));
#224 = ORIENTED_EDGE('', *, *, #200, .T.);
#225 = ORIENTED_EDGE('', *, *, #217, .T.);
#226 = ORIENTED_EDGE('', *, *, #227, .F.);
#227 = EDGE_CURVE('', #218, #218, #228, .T.);
#228 = CIRCLE('', #229, 0.999999999999999);
#229 = AXIS2_PLACEMENT_3D('', #230, #231, #232);
#230 = CARTESIAN_POINT('', (-1.04083408558608E-16, 2.91433543964104E-15, -56.8));
#231 = DIRECTION('', (0., 0., -1.));
#232 = DIRECTION('', (-1., 6.24893809894814E-16, 0.));
#233 = (
   BOUNDED_SURFACE ()
   B_SPLINE_SURFACE (2, 1, ((#234, #235), (#236, #237), (#238, #239), (#240, #241), (#242, #243), (#244, #245), (#246, #247), (#248, #249), (#250, #251)), .UNSPECIFIED., .T., .F., .U.)
   B_SPLINE_SURFACE_WITH_KNOTS ((3, 2, 2, 2, 3), (2, 2), (0., 1.5707963267949, 3.14159265358979, 4.71238898038469, 6.28318530717959), (0., 1.), .UNSPECIFIED.)
   GEOMETRIC_REPRESENTATION_ITEM ()
   RATIONAL_B_SPLINE_SURFACE (((1., 1.), (0.707106781186548, 0.707106781186548), (1., 1.), (0.707106781186548, 0.707106781186548), (1., 1.), (0.707106781186548, 0.707106781186548), (1., 1.), (0.707106781186548, 0.707106781186548), (1., 1.)))
   REPRESENTATION_ITEM ('')
   SURFACE ()
);
#234 = CARTESIAN_POINT('', (-1., 3.42901103761259E-15, -55.));
#235 = CARTESIAN_POINT('', (-1., 3.17921085707193E-15, -56.8));
#236 = CARTESIAN_POINT('', (-0.999999999999999, 1., -55.));
#237 = CARTESIAN_POINT('', (-0.999999999999999, 1., -56.8));
#238 = CARTESIAN_POINT('', (5.44568585395209E-17, 1., -55.));
#239 = CARTESIAN_POINT('', (5.44568585395208E-17, 1., -56.8));
#240 = CARTESIAN_POINT('', (0.999999999999999, 1., -55.));
#241 = CARTESIAN_POINT('', (0.999999999999999, 1., -56.8));
#242 = CARTESIAN_POINT('', (0.999999999999999, 3.02172488266554E-15, -55.));
#243 = CARTESIAN_POINT('', (0.999999999999999, 2.77192470212488E-15, -56.8));
#244 = CARTESIAN_POINT('', (0.999999999999999, -0.999999999999996, -55.));
#245 = CARTESIAN_POINT('', (0.999999999999999, -0.999999999999997, -56.8));
#246 = CARTESIAN_POINT('', (-2.30364616492796E-16, -0.999999999999996, -55.));
#247 = CARTESIAN_POINT('', (-2.30364616492797E-16, -0.999999999999997, -56.8));
#248 = CARTESIAN_POINT('', (-1., -0.999999999999996, -55.));
#249 = CARTESIAN_POINT('', (-1., -0.999999999999996, -56.8));
#250 = CARTESIAN_POINT('', (-1., 3.42901103761259E-15, -55.));
#251 = CARTESIAN_POINT('', (-1., 3.17921085707193E-15, -56.8));
#252 = ADVANCED_FACE('', (#253), #273, .T.);
#253 = FACE_OUTER_BOUND('', #254, .T.);
#254 = EDGE_LOOP('', (#255, #264, #265, #266));
#255 = ORIENTED_EDGE('', *, *, #256, .F.);
#256 = EDGE_CURVE('', #218, #257, #259, .T.);
#257 = VERTEX_POINT('', #258);
#258 = CARTESIAN_POINT('', (-0.8, 3.53922924953585E-15, -57.));
#259 = CIRCLE('', #260, 0.199999999999997);
#260 = AXIS2_PLACEMENT_3D('', #261, #262, #263);
#261 = CARTESIAN_POINT('', (-0.799999999999998, 3.52698278154437E-15, -56.8));
#262 = DIRECTION('', (-6.12323399574023E-17, -1., -6.12323399574002E-17));
#263 = DIRECTION('', (-1., 6.12323399574001E-17, 3.55271367880049E-14));
#264 = ORIENTED_EDGE('', *, *, #227, .T.);
#265 = ORIENTED_EDGE('', *, *, #256, .T.);
#266 = ORIENTED_EDGE('', *, *, #267, .F.);
#267 = EDGE_CURVE('', #257, #257, #268, .T.);
#268 = CIRCLE('', #269, 0.8);
#269 = AXIS2_PLACEMENT_3D('', #270, #271, #272);
#270 = CARTESIAN_POINT('', (-2.46330733588707E-16, 2.73392419813945E-15, -57.));
#271 = DIRECTION('', (3.0429948383679E-29, 3.02294871548747E-14, -1.));
#272 = DIRECTION('', (-1., 1.0066313142455E-15, 0.));
#273 = (
   BOUNDED_SURFACE ()
   B_SPLINE_SURFACE (2, 2, ((#274, #275, #276), (#277, #278, #279), (#280, #281, #282), (#283, #284, #285), (#286, #287, #288), (#289, #290, #291), (#292, #293, #294), (#295, #296, #297), (#298, #299, #300)), .UNSPECIFIED., .T., .F., .U.)
   B_SPLINE_SURFACE_WITH_KNOTS ((3, 2, 2, 2, 3), (3, 3), (0., 0.25, 0.5, 0.75, 1.), (0., 1.), .UNSPECIFIED.)
   GEOMETRIC_REPRESENTATION_ITEM ()
   RATIONAL_B_SPLINE_SURFACE (((1., 0.707106781186547, 1.), (0.707106781186548, 0.5, 0.707106781186548), (1., 0.707106781186547, 1.), (0.707106781186548, 0.5, 0.707106781186548), (1., 0.707106781186547, 1.), (0.707106781186548, 0.5, 0.707106781186548), (1., 0.707106781186547, 1.), (0.707106781186548, 0.5, 0.707106781186548), (1., 0.707106781186547, 1.)))
   REPRESENTATION_ITEM ('')
   SURFACE ()
);
#274 = CARTESIAN_POINT('', (-1., 3.53922924953585E-15, -56.8));
#275 = CARTESIAN_POINT('', (-1., 3.55147571752732E-15, -57.));
#276 = CARTESIAN_POINT('', (-0.8, 3.53922924953585E-15, -57.));
#277 = CARTESIAN_POINT('', (-1., 1., -56.8));
#278 = CARTESIAN_POINT('', (-0.999999999999995, 1., -57.));
#279 = CARTESIAN_POINT('', (-0.799999999999995, 0.800000000000005, -57.));
#280 = CARTESIAN_POINT('', (5.71222149523829E-17, 1., -56.8));
#281 = CARTESIAN_POINT('', (6.11369506966535E-15, 1., -57.));
#282 = CARTESIAN_POINT('', (6.11369506966539E-15, 0.8, -57.));
#283 = CARTESIAN_POINT('', (1., 1., -56.8));
#284 = CARTESIAN_POINT('', (1.00000000000001, 0.999999999999996, -57.));
#285 = CARTESIAN_POINT('', (0.800000000000008, 0.799999999999995, -57.));
#286 = CARTESIAN_POINT('', (1., 3.4111070318236E-15, -56.8));
#287 = CARTESIAN_POINT('', (1., -5.84762126657042E-15, -57.));
#288 = CARTESIAN_POINT('', (0.800000000000003, -5.85986773456197E-15, -57.));
#289 = CARTESIAN_POINT('', (1., -0.999999999999996, -56.8));
#290 = CARTESIAN_POINT('', (0.999999999999998, -1.00000000000001, -57.));
#291 = CARTESIAN_POINT('', (0.799999999999998, -0.800000000000007, -57.));
#292 = CARTESIAN_POINT('', (5.1464677154538E-17, -0.999999999999997, -56.8));
#293 = CARTESIAN_POINT('', (-3.16293723451799E-15, -1., -57.));
#294 = CARTESIAN_POINT('', (-3.18743017050096E-15, -0.800000000000003, -57.));
#295 = CARTESIAN_POINT('', (-1., -0.999999999999997, -56.8));
#296 = CARTESIAN_POINT('', (-1., -0.999999999999998, -57.));
#297 = CARTESIAN_POINT('', (-0.800000000000005, -0.799999999999998, -57.));
#298 = CARTESIAN_POINT('', (-1., 3.53922924953585E-15, -56.8));
#299 = CARTESIAN_POINT('', (-1., 3.55147571752732E-15, -57.));
#300 = CARTESIAN_POINT('', (-0.8, 3.53922924953585E-15, -57.));
#301 = ADVANCED_FACE('', (#302), #305, .T.);
#302 = FACE_OUTER_BOUND('', #303, .T.);
#303 = EDGE_LOOP('', (#304));
#304 = ORIENTED_EDGE('', *, *, #267, .T.);
#305 = B_SPLINE_SURFACE_WITH_KNOTS('', 1, 1, ((#306, #307), (#308, #309)), .UNSPECIFIED., .F., .F., .U., (2, 2), (2, 2), (0.444507934888319, 2.04450793488832), (0.444507934888323, 2.04450793488832), .UNSPECIFIED.);
#306 = CARTESIAN_POINT('', (0.8, -0.799999999999997, -57.));
#307 = CARTESIAN_POINT('', (0.8, 0.800000000000004, -57.));
#308 = CARTESIAN_POINT('', (-0.8, -0.799999999999997, -57.));
#309 = CARTESIAN_POINT('', (-0.8, 0.800000000000004, -57.));
#310 = PRESENTATION_STYLE_ASSIGNMENT((#311));
#311 = SURFACE_STYLE_USAGE(.POSITIVE., #312);
#312 = SURFACE_SIDE_STYLE('', (#313));
#313 = SURFACE_STYLE_FILL_AREA(#314);
#314 = FILL_AREA_STYLE('', (#315));
#315 = FILL_AREA_STYLE_COLOUR('', #316);
#316 = COLOUR_RGB('', 0.8, 0.8, 0.8);
#317 = STYLED_ITEM('', (#310), #194);
#318 = TRIMMED_CURVE('cutting part line', #319, (#323), (#324), .T., .CARTESIAN.);
#319 = LINE('', #320, #321);
#320 = CARTESIAN_POINT('', (-6.18650910348016E-31, -3.36777869765522E-15, -55.));
#321 = VECTOR('', #322, 1.);
#322 = DIRECTION('', (1., -1.83697019872105E-16, 0.));
#323 = CARTESIAN_POINT('', (-6.18650910348016E-31, -3.36777869765522E-15, -55.));
#324 = CARTESIAN_POINT('', (1., -3.55147571752733E-15, -55.));
#325 = TRIMMED_CURVE('cutting part line', #326, (#330), (#331), .T., .CARTESIAN.);
#326 = LINE('', #327, #328);
#327 = CARTESIAN_POINT('', (1., -3.55147571752733E-15, -55.));
#328 = VECTOR('', #329, 1.8);
#329 = DIRECTION('', (0., -1.1021821192326E-16, -1.8));
#330 = CARTESIAN_POINT('', (1., -3.55147571752733E-15, -55.));
#331 = CARTESIAN_POINT('', (1., -3.66169392945059E-15, -56.8));
#332 = TRIMMED_CURVE('cutting part line', #333, (#338), (#339), .T., .CARTESIAN.);
#333 = CIRCLE('', #334, 0.199999999999975);
#334 = AXIS2_PLACEMENT_3D('', #335, #336, #337);
#335 = CARTESIAN_POINT('', (0.80000000000002, -3.62495452547617E-15, -56.8));
#336 = DIRECTION('', (1.83697019872078E-16, 1., -6.12323399573416E-17));
#337 = DIRECTION('', (1., -1.83697019872071E-16, 1.06581410364026E-13));
#338 = CARTESIAN_POINT('', (0.999999999999995, -3.66169392945058E-15, -56.8));
#339 = CARTESIAN_POINT('', (0.8, -3.63720099346764E-15, -57.));
#340 = TRIMMED_CURVE('cutting part line', #341, (#345), (#346), .T., .CARTESIAN.);
#341 = LINE('', #342, #343);
#342 = CARTESIAN_POINT('', (0.8, -3.63720099346764E-15, -57.));
#343 = VECTOR('', #344, 0.8);
#344 = DIRECTION('', (-0.8, 1.46957615897678E-16, 0.));
#345 = CARTESIAN_POINT('', (0.8, -3.63720099346764E-15, -57.));
#346 = CARTESIAN_POINT('', (-4.2743153805863E-31, -3.49024337756996E-15, -57.));
#347 = TRIMMED_CURVE('cutting part line', #348, (#352), (#353), .T., .CARTESIAN.);
#348 = LINE('', #349, #350);
#349 = CARTESIAN_POINT('', (-6.41147307087945E-31, -3.49024337756996E-15, -57.));
#350 = VECTOR('', #351, 2.);
#351 = DIRECTION('', (2.24963967399291E-32, 1.2246467991474E-16, 2.));
#352 = CARTESIAN_POINT('', (-6.41147307087945E-31, -3.49024337756996E-15, -57.));
#353 = CARTESIAN_POINT('', (-6.18650910348016E-31, -3.36777869765522E-15, -55.));
#354 = COMPOSITE_CURVE('cutting part line', (#355, #356, #357, #358, #359), .U.);
#355 = COMPOSITE_CURVE_SEGMENT(.CONTINUOUS., .T., #318);
#356 = COMPOSITE_CURVE_SEGMENT(.CONTINUOUS., .T., #325);
#357 = COMPOSITE_CURVE_SEGMENT(.CONTINUOUS., .T., #332);
#358 = COMPOSITE_CURVE_SEGMENT(.CONTINUOUS., .T., #340);
#359 = COMPOSITE_CURVE_SEGMENT(.CONTINUOUS., .T., #347);
#360 = GEOMETRIC_SET('', (#354, #403));
#361 = PRESENTATION_STYLE_ASSIGNMENT((#362));
#362 = CURVE_STYLE('', #364, POSITIVE_LENGTH_MEASURE(1.E-6), #363);
#363 = COLOUR_RGB('', 0., 0., 1.);
#364 = DRAUGHTING_PRE_DEFINED_CURVE_FONT('continuous');
#365 = STYLED_ITEM('', (#361), #354);
#366 = PRESENTATION_STYLE_ASSIGNMENT((#367));
#367 = CURVE_STYLE('', #369, POSITIVE_LENGTH_MEASURE(1.E-6), #368);
#368 = COLOUR_RGB('', 0., 0., 1.);
#369 = DRAUGHTING_PRE_DEFINED_CURVE_FONT('continuous');
#370 = OVER_RIDING_STYLED_ITEM('', (#366), #318, #365);
#371 = PRESENTATION_STYLE_ASSIGNMENT((#372));
#372 = CURVE_STYLE('', #374, POSITIVE_LENGTH_MEASURE(1.E-6), #373);
#373 = COLOUR_RGB('', 0., 0., 1.);
#374 = DRAUGHTING_PRE_DEFINED_CURVE_FONT('continuous');
#375 = OVER_RIDING_STYLED_ITEM('', (#371), #325, #365);
#376 = PRESENTATION_STYLE_ASSIGNMENT((#377));
#377 = CURVE_STYLE('', #379, POSITIVE_LENGTH_MEASURE(1.E-6), #378);
#378 = COLOUR_RGB('', 0., 0., 1.);
#379 = DRAUGHTING_PRE_DEFINED_CURVE_FONT('continuous');
#380 = OVER_RIDING_STYLED_ITEM('', (#376), #332, #365);
#381 = PRESENTATION_STYLE_ASSIGNMENT((#382));
#382 = CURVE_STYLE('', #384, POSITIVE_LENGTH_MEASURE(1.E-6), #383);
#383 = COLOUR_RGB('', 0., 0., 1.);
#384 = DRAUGHTING_PRE_DEFINED_CURVE_FONT('continuous');
#385 = OVER_RIDING_STYLED_ITEM('', (#381), #340, #365);
#386 = PRESENTATION_STYLE_ASSIGNMENT((#387));
#387 = CURVE_STYLE('', #389, POSITIVE_LENGTH_MEASURE(1.E-6), #388);
#388 = COLOUR_RGB('', 0., 0., 1.);
#389 = DRAUGHTING_PRE_DEFINED_CURVE_FONT('continuous');
#390 = OVER_RIDING_STYLED_ITEM('', (#386), #347, #365);
#391 = AXIS2_PLACEMENT_3D('CIP', #392, #393, #394);
#392 = CARTESIAN_POINT('', (2.13715769029315E-31, 3.49024337756996E-15, -57.));
#393 = DIRECTION('', (-3.74939945665465E-33, -6.12323399573677E-17, 1.));
#394 = DIRECTION('', (1., -6.12323399573677E-17, 0.));
#395 = AXIS2_PLACEMENT_3D('MCS', #396, #397, #398);
#396 = CARTESIAN_POINT('', (1.34978380439567E-31, 2.20436423846524E-15, -36.));
#397 = DIRECTION('', (-3.74939945665465E-33, -6.12323399573677E-17, 1.));
#398 = DIRECTION('', (1., -6.12323399573677E-17, 0.));
#399 = AXIS2_PLACEMENT_3D('PCS', #400, #401, #402);
#400 = CARTESIAN_POINT('', (0., 0., 0.));
#401 = DIRECTION('', (0., 0., 1.));
#402 = DIRECTION('', (1., 0., 0.));
#403 = CARTESIAN_POINT('CRP', (1., 0., -57.));
#404 = (
   GEOMETRIC_REPRESENTATION_CONTEXT (3)
   GLOBAL_UNCERTAINTY_ASSIGNED_CONTEXT ((#406))
   GLOBAL_UNIT_ASSIGNED_CONTEXT ((#405, #407, #408))
   REPRESENTATION_CONTEXT ('', '3D')
);
#405 = (
   LENGTH_UNIT ()
   NAMED_UNIT (*)
   SI_UNIT (.MILLI., .METRE.)
);
#406 = UNCERTAINTY_MEASURE_WITH_UNIT(LENGTH_MEASURE(1.E-6), #405, 'DISTANCE_ACCURACY_VALUE', '');
#407 = (
   NAMED_UNIT (*)
   SI_UNIT ($, .STERADIAN.)
   SOLID_ANGLE_UNIT ()
);
#408 = (
   NAMED_UNIT (*)
   PLANE_ANGLE_UNIT ()
   SI_UNIT ($, .RADIAN.)
);
#409 = SHAPE_REPRESENTATION('', (), #404);
#410 = PRODUCT_DEFINITION_SHAPE('', '', #411);
#411 = PRODUCT_DEFINITION('', '', #414, #418);
#412 = APPLICATION_CONTEXT('configuration controlled 3D designs of mechanical parts and assemblies');
#413 = APPLICATION_PROTOCOL_DEFINITION('International Standard', 'automotive_design', 2002, #412);
#414 = PRODUCT_DEFINITION_FORMATION_WITH_SPECIFIED_SOURCE('', '', #415, .NOT_KNOWN.);
#415 = PRODUCT('EmptyName', 'EmptyName', '', (#416));
#416 = PRODUCT_CONTEXT('', #412, 'mechanical');
#417 = PRODUCT_RELATED_PRODUCT_CATEGORY('detail', '', (#415));
#418 = PRODUCT_DEFINITION_CONTEXT('part definition', #412, 'design');
#419 = SHAPE_DEFINITION_REPRESENTATION(#410, #409);
#420 = CONSTRUCTIVE_GEOMETRY_REPRESENTATION('supplemental geometry', (#391, #395, #399), #404);
#421 = CONSTRUCTIVE_GEOMETRY_REPRESENTATION_RELATIONSHIP('', '', #409, #420);
#422 = SHAPE_REPRESENTATION_RELATIONSHIP('', '', #409, #423);
#423 = SHAPE_REPRESENTATION('', (#360), #404);
#424 = SHAPE_REPRESENTATION_RELATIONSHIP('', '', #409, #425);
#425 = ADVANCED_BREP_SHAPE_REPRESENTATION('', (#1, #194), #404);
ENDSEC;
END-ISO-10303-21;
