ISO-10303-21;
HEADER;
FILE_DESCRIPTION(('STEP'), '1');
FILE_NAME('C:\\Users\\ds2002\\OneDrive - Sandvik\\HomeShare\\Documents\\Batchrepair\\CorSRT2\\NEW_MILSQ_SLD\\Output\\MOD000000000000000020082327900000.stp', '2019-01-02T12:08:59', (''), (''), 'Express v3.0.0.0', 'Express Tool', 'Unknown');
FILE_SCHEMA(('AUTOMOTIVE_DESIGN'));
ENDSEC;

DATA;
#1 = MANIFOLD_SOLID_BREP('NOCUT', #2);
#2 = CLOSED_SHELL('', (#3, #31, #70, #109, #148, #157, #196));
#3 = ADVANCED_FACE('', (#4, #15), #26, .T.);
#4 = FACE_OUTER_BOUND('', #5, .T.);
#5 = EDGE_LOOP('', (#6));
#6 = ORIENTED_EDGE('', *, *, #7, .F.);
#7 = EDGE_CURVE('', #8, #8, #10, .T.);
#8 = VERTEX_POINT('', #9);
#9 = CARTESIAN_POINT('', (-2.5, 3.88825358729285E-15, -61.));
#10 = CIRCLE('', #11, 2.5);
#11 = AXIS2_PLACEMENT_3D('', #12, #13, #14);
#12 = CARTESIAN_POINT('', (-6.93889390390723E-18, -6.66133814775094E-16, -61.));
#13 = DIRECTION('', (0., 0., -1.));
#14 = DIRECTION('', (-1., 1.82175496082718E-15, 0.));
#15 = FACE_BOUND('', #16, .T.);
#16 = EDGE_LOOP('', (#17));
#17 = ORIENTED_EDGE('', *, *, #18, .T.);
#18 = EDGE_CURVE('', #19, #19, #21, .T.);
#19 = VERTEX_POINT('', #20);
#20 = CARTESIAN_POINT('', (-2.4, 3.88213035329711E-15, -61.));
#21 = CIRCLE('', #22, 2.4);
#22 = AXIS2_PLACEMENT_3D('', #23, #24, #25);
#23 = CARTESIAN_POINT('', (6.24500451351651E-16, 1.4432899320127E-15, -61.));
#24 = DIRECTION('', (2.96059473233374E-15, -9.631751906669E-15, -1.));
#25 = DIRECTION('', (-1., 1.0161835088685E-15, -2.96059473233375E-15));
#26 = B_SPLINE_SURFACE_WITH_KNOTS('', 1, 1, ((#27, #28), (#29, #30)), .UNSPECIFIED., .F., .F., .U., (2, 2), (2, 2), (0.0454545454545454, 0.954545454545455), (0.0454545454545454, 0.954545454545455), .UNSPECIFIED.);
#27 = CARTESIAN_POINT('', (2.5, -2.5, -61.));
#28 = CARTESIAN_POINT('', (-2.5, -2.5, -61.));
#29 = CARTESIAN_POINT('', (2.5, 2.5, -61.));
#30 = CARTESIAN_POINT('', (-2.5, 2.5, -61.));
#31 = ADVANCED_FACE('', (#32), #51, .T.);
#32 = FACE_OUTER_BOUND('', #33, .T.);
#33 = EDGE_LOOP('', (#34, #42, #49, #50));
#34 = ORIENTED_EDGE('', *, *, #35, .F.);
#35 = EDGE_CURVE('', #36, #19, #38, .T.);
#36 = VERTEX_POINT('', #37);
#37 = CARTESIAN_POINT('', (-2.4, 1.86146313470398E-15, -28.));
#38 = LINE('', #39, #40);
#39 = CARTESIAN_POINT('', (-2.4, 1.86146313470398E-15, -28.));
#40 = VECTOR('', #41, 33.);
#41 = DIRECTION('', (0., 2.02066721859313E-15, -33.));
#42 = ORIENTED_EDGE('', *, *, #43, .T.);
#43 = EDGE_CURVE('', #36, #36, #44, .T.);
#44 = CIRCLE('', #45, 2.4);
#45 = AXIS2_PLACEMENT_3D('', #46, #47, #48);
#46 = CARTESIAN_POINT('', (-2.22044604925031E-16, 1.4432899320127E-15, -28.));
#47 = DIRECTION('', (8.77858434671437E-31, 5.03824785914576E-15, -1.));
#48 = DIRECTION('', (-1., 1.74238834454699E-16, 0.));
#49 = ORIENTED_EDGE('', *, *, #35, .T.);
#50 = ORIENTED_EDGE('', *, *, #18, .F.);
#51 = (
   BOUNDED_SURFACE ()
   B_SPLINE_SURFACE (2, 1, ((#52, #53), (#54, #55), (#56, #57), (#58, #59), (#60, #61), (#62, #63), (#64, #65), (#66, #67), (#68, #69)), .UNSPECIFIED., .T., .F., .U.)
   B_SPLINE_SURFACE_WITH_KNOTS ((3, 2, 2, 2, 3), (2, 2), (0., 3.76991118430775, 7.5398223686155, 11.3097335529233, 15.079644737231), (0., 1.), .UNSPECIFIED.)
   GEOMETRIC_REPRESENTATION_ITEM ()
   RATIONAL_B_SPLINE_SURFACE (((1., 1.), (0.707106781186548, 0.707106781186548), (1., 1.), (0.707106781186548, 0.707106781186548), (1., 1.), (0.707106781186548, 0.707106781186548), (1., 1.), (0.707106781186548, 0.707106781186548), (1., 1.)))
   REPRESENTATION_ITEM ('')
   SURFACE ()
);
#52 = CARTESIAN_POINT('', (-2.4, 1.86146313470398E-15, -28.));
#53 = CARTESIAN_POINT('', (-2.4, 3.0271973105604E-15, -61.));
#54 = CARTESIAN_POINT('', (-2.4, 2.4, -28.));
#55 = CARTESIAN_POINT('', (-2.4, 2.4, -61.));
#56 = CARTESIAN_POINT('', (1.138577324782E-15, 2.4, -28.));
#57 = CARTESIAN_POINT('', (1.138577324782E-15, 2.4, -61.));
#58 = CARTESIAN_POINT('', (2.4, 2.4, -28.));
#59 = CARTESIAN_POINT('', (2.4, 2.4, -61.));
#60 = CARTESIAN_POINT('', (2.4, -1.01243639059604E-15, -28.));
#61 = CARTESIAN_POINT('', (2.4, 1.53297785260378E-16, -61.));
#62 = CARTESIAN_POINT('', (2.4, -2.4, -28.));
#63 = CARTESIAN_POINT('', (2.4, -2.4, -61.));
#64 = CARTESIAN_POINT('', (-1.44140696872265E-15, -2.4, -28.));
#65 = CARTESIAN_POINT('', (-1.44140696872265E-15, -2.4, -61.));
#66 = CARTESIAN_POINT('', (-2.4, -2.4, -28.));
#67 = CARTESIAN_POINT('', (-2.4, -2.4, -61.));
#68 = CARTESIAN_POINT('', (-2.4, 1.86146313470398E-15, -28.));
#69 = CARTESIAN_POINT('', (-2.4, 3.0271973105604E-15, -61.));
#70 = ADVANCED_FACE('', (#71), #90, .T.);
#71 = FACE_OUTER_BOUND('', #72, .T.);
#72 = EDGE_LOOP('', (#73, #81, #88, #89));
#73 = ORIENTED_EDGE('', *, *, #74, .T.);
#74 = EDGE_CURVE('', #36, #75, #77, .T.);
#75 = VERTEX_POINT('', #76);
#76 = CARTESIAN_POINT('', (-2.4, 1.6165337748745E-16, -0.239999999999998));
#77 = LINE('', #78, #79);
#78 = CARTESIAN_POINT('', (-2.4, 1.86146313470398E-15, -28.));
#79 = VECTOR('', #80, 27.76);
#80 = DIRECTION('', (0., -1.69980975721653E-15, 27.76));
#81 = ORIENTED_EDGE('', *, *, #82, .T.);
#82 = EDGE_CURVE('', #75, #75, #83, .T.);
#83 = CIRCLE('', #84, 2.4);
#84 = AXIS2_PLACEMENT_3D('', #85, #86, #87);
#85 = CARTESIAN_POINT('', (-8.39606162372775E-16, -3.88578058618805E-16, -0.239999999999999));
#86 = DIRECTION('', (-3.93203987888076E-16, 1.20049442730533E-15, -1.));
#87 = DIRECTION('', (-1., 2.29263098377607E-16, 3.93203987888076E-16));
#88 = ORIENTED_EDGE('', *, *, #74, .F.);
#89 = ORIENTED_EDGE('', *, *, #43, .F.);
#90 = (
   BOUNDED_SURFACE ()
   B_SPLINE_SURFACE (1, 2, ((#91, #92, #93, #94, #95, #96, #97, #98, #99), (#100, #101, #102, #103, #104, #105, #106, #107, #108)), .UNSPECIFIED., .F., .T., .U.)
   B_SPLINE_SURFACE_WITH_KNOTS ((2, 2), (3, 2, 2, 2, 3), (0., 1.), (0., 3.76991118430775, 7.5398223686155, 11.3097335529233, 15.079644737231), .UNSPECIFIED.)
   GEOMETRIC_REPRESENTATION_ITEM ()
   RATIONAL_B_SPLINE_SURFACE (((1., 0.707106781186548, 1., 0.707106781186548, 1., 0.707106781186548, 1., 0.707106781186548, 1.), (1., 0.707106781186548, 1., 0.707106781186548, 1., 0.707106781186548, 1., 0.707106781186548, 1.)))
   REPRESENTATION_ITEM ('')
   SURFACE ()
);
#91 = CARTESIAN_POINT('', (-2.40000000000001, 8.27787192262548E-16, -28.));
#92 = CARTESIAN_POINT('', (-2.40000000000001, 2.4, -28.));
#93 = CARTESIAN_POINT('', (-1.13516750459372E-14, 2.4, -28.));
#94 = CARTESIAN_POINT('', (2.39999999999999, 2.4, -28.));
#95 = CARTESIAN_POINT('', (2.39999999999999, 2.12395518454006E-17, -28.));
#96 = CARTESIAN_POINT('', (2.39999999999999, -2.4, -28.));
#97 = CARTESIAN_POINT('', (-1.1864307454559E-14, -2.4, -28.));
#98 = CARTESIAN_POINT('', (-2.40000000000001, -2.4, -28.));
#99 = CARTESIAN_POINT('', (-2.40000000000001, 8.27787192262548E-16, -28.));
#100 = CARTESIAN_POINT('', (-2.4, 1.61653377487451E-16, -0.239999999999998));
#101 = CARTESIAN_POINT('', (-2.4, 2.4, -0.239999999999998));
#102 = CARTESIAN_POINT('', (-4.36332342164201E-16, 2.4, -0.239999999999999));
#103 = CARTESIAN_POINT('', (2.4, 2.4, -0.24));
#104 = CARTESIAN_POINT('', (2.4, -6.44894262929696E-16, -0.24));
#105 = CARTESIAN_POINT('', (2.4, -2.4, -0.24));
#106 = CARTESIAN_POINT('', (-9.48964750785983E-16, -2.4, -0.239999999999999));
#107 = CARTESIAN_POINT('', (-2.4, -2.4, -0.239999999999998));
#108 = CARTESIAN_POINT('', (-2.4, 1.61653377487451E-16, -0.239999999999998));
#109 = ADVANCED_FACE('', (#110), #129, .T.);
#110 = FACE_OUTER_BOUND('', #111, .T.);
#111 = EDGE_LOOP('', (#112, #120, #127, #128));
#112 = ORIENTED_EDGE('', *, *, #113, .T.);
#113 = EDGE_CURVE('', #75, #114, #116, .T.);
#114 = VERTEX_POINT('', #115);
#115 = CARTESIAN_POINT('', (-2.16, 1.32261854307914E-16, 0.));
#116 = LINE('', #117, #118);
#117 = CARTESIAN_POINT('', (-2.4, 1.61653377487451E-16, -0.239999999999998));
#118 = VECTOR('', #119, 0.339411254969541);
#119 = DIRECTION('', (0.24, -2.9391523179537E-17, 0.239999999999998));
#120 = ORIENTED_EDGE('', *, *, #121, .T.);
#121 = EDGE_CURVE('', #114, #114, #122, .T.);
#122 = CIRCLE('', #123, 2.16);
#123 = AXIS2_PLACEMENT_3D('', #124, #125, #126);
#124 = CARTESIAN_POINT('', (6.93889390390723E-18, 3.33066907387547E-16, -7.78751025318189E-16));
#125 = DIRECTION('', (-3.60532882091754E-16, 1.06355223224082E-15, -1.));
#126 = DIRECTION('', (-1., -9.29653023516819E-17, 3.60532882091754E-16));
#127 = ORIENTED_EDGE('', *, *, #113, .F.);
#128 = ORIENTED_EDGE('', *, *, #82, .F.);
#129 = (
   BOUNDED_SURFACE ()
   B_SPLINE_SURFACE (1, 2, ((#130, #131, #132, #133, #134, #135, #136, #137, #138), (#139, #140, #141, #142, #143, #144, #145, #146, #147)), .UNSPECIFIED., .F., .T., .U.)
   B_SPLINE_SURFACE_WITH_KNOTS ((2, 2), (3, 2, 2, 2, 3), (0., 1.), (0., 0.25, 0.5, 0.75, 1.), .UNSPECIFIED.)
   GEOMETRIC_REPRESENTATION_ITEM ()
   RATIONAL_B_SPLINE_SURFACE (((1., 0.707106781186548, 1., 0.707106781186548, 1., 0.707106781186548, 1., 0.707106781186548, 1.), (1., 0.707106781186548, 1., 0.707106781186548, 1., 0.707106781186548, 1., 0.707106781186548, 1.)))
   REPRESENTATION_ITEM ('')
   SURFACE ()
);
#130 = CARTESIAN_POINT('', (-2.4, -3.34139028106552E-16, -0.239999999999998));
#131 = CARTESIAN_POINT('', (-2.4, 2.4, -0.240000000000002));
#132 = CARTESIAN_POINT('', (-4.49663339339834E-16, 2.4, -0.240000000000003));
#133 = CARTESIAN_POINT('', (2.4, 2.4, -0.240000000000004));
#134 = CARTESIAN_POINT('', (2.4, 4.06009654976886E-16, -0.24));
#135 = CARTESIAN_POINT('', (2.4, -2.4, -0.239999999999995));
#136 = CARTESIAN_POINT('', (5.84400575538972E-16, -2.4, -0.239999999999994));
#137 = CARTESIAN_POINT('', (-2.4, -2.4, -0.239999999999994));
#138 = CARTESIAN_POINT('', (-2.4, -3.34139028106552E-16, -0.239999999999998));
#139 = CARTESIAN_POINT('', (-2.16, 1.32261854307914E-16, -1.97215226305253E-31));
#140 = CARTESIAN_POINT('', (-2.16, 2.16, -3.9968028886506E-15));
#141 = CARTESIAN_POINT('', (-3.26128013483641E-16, 2.16, -4.77555391396878E-15));
#142 = CARTESIAN_POINT('', (2.16, 2.16, -5.55430493928697E-15));
#143 = CARTESIAN_POINT('', (2.16, 7.98395669083008E-16, -1.55750205063638E-15));
#144 = CARTESIAN_POINT('', (2.16, -2.16, 2.43930083801422E-15));
#145 = CARTESIAN_POINT('', (6.04529509907284E-16, -2.16, 3.21805186333241E-15));
#146 = CARTESIAN_POINT('', (-2.16, -2.16, 3.9968028886506E-15));
#147 = CARTESIAN_POINT('', (-2.16, 1.32261854307914E-16, -1.97215226305253E-31));
#148 = ADVANCED_FACE('', (#149), #152, .T.);
#149 = FACE_OUTER_BOUND('', #150, .T.);
#150 = EDGE_LOOP('', (#151));
#151 = ORIENTED_EDGE('', *, *, #121, .F.);
#152 = B_SPLINE_SURFACE_WITH_KNOTS('', 1, 1, ((#153, #154), (#155, #156)), .UNSPECIFIED., .F., .F., .U., (2, 2), (2, 2), (0.0454545454545454, 0.954545454545454), (0.0454545454545454, 0.954545454545454), .UNSPECIFIED.);
#153 = CARTESIAN_POINT('', (2.16, -2.16, -1.32261854307914E-16));
#154 = CARTESIAN_POINT('', (-2.16, -2.16, -1.32261854307914E-16));
#155 = CARTESIAN_POINT('', (2.16, 2.16, 1.32261854307914E-16));
#156 = CARTESIAN_POINT('', (-2.16, 2.16, 1.32261854307914E-16));
#157 = ADVANCED_FACE('', (#158), #177, .T.);
#158 = FACE_OUTER_BOUND('', #159, .T.);
#159 = EDGE_LOOP('', (#160, #169, #175, #176));
#160 = ORIENTED_EDGE('', *, *, #161, .F.);
#161 = EDGE_CURVE('', #162, #162, #164, .T.);
#162 = VERTEX_POINT('', #163);
#163 = CARTESIAN_POINT('', (-2.5, 3.94948592725021E-15, -62.));
#164 = CIRCLE('', #165, 2.5);
#165 = AXIS2_PLACEMENT_3D('', #166, #167, #168);
#166 = CARTESIAN_POINT('', (-7.70217223333702E-16, 8.32667268468867E-16, -62.));
#167 = DIRECTION('', (0., 0., -1.));
#168 = DIRECTION('', (-1., 1.24672746351254E-15, 0.));
#169 = ORIENTED_EDGE('', *, *, #170, .F.);
#170 = EDGE_CURVE('', #8, #162, #171, .T.);
#171 = LINE('', #172, #173);
#172 = CARTESIAN_POINT('', (-2.5, 3.88825358729285E-15, -61.));
#173 = VECTOR('', #174, 1.);
#174 = DIRECTION('', (0., 6.12323399573605E-17, -1.));
#175 = ORIENTED_EDGE('', *, *, #7, .T.);
#176 = ORIENTED_EDGE('', *, *, #170, .T.);
#177 = (
   BOUNDED_SURFACE ()
   B_SPLINE_SURFACE (2, 1, ((#178, #179), (#180, #181), (#182, #183), (#184, #185), (#186, #187), (#188, #189), (#190, #191), (#192, #193), (#194, #195)), .UNSPECIFIED., .T., .F., .U.)
   B_SPLINE_SURFACE_WITH_KNOTS ((3, 2, 2, 2, 3), (2, 2), (0., 3.92699081698725, 7.8539816339745, 11.7809724509617, 15.707963267949), (0., 0.117647058823529), .UNSPECIFIED.)
   GEOMETRIC_REPRESENTATION_ITEM ()
   RATIONAL_B_SPLINE_SURFACE (((1., 1.), (0.707106781186548, 0.707106781186548), (1., 1.), (0.707106781186548, 0.707106781186548), (1., 1.), (0.707106781186548, 0.707106781186548), (1., 1.), (0.707106781186548, 0.707106781186548), (1., 1.)))
   REPRESENTATION_ITEM ('')
   SURFACE ()
);
#178 = CARTESIAN_POINT('', (-2.5, 3.88825358729285E-15, -61.));
#179 = CARTESIAN_POINT('', (-2.5, 3.94376473852411E-15, -62.));
#180 = CARTESIAN_POINT('', (-2.5, 2.5, -61.));
#181 = CARTESIAN_POINT('', (-2.5, 2.5, -62.));
#182 = CARTESIAN_POINT('', (5.10907373037306E-15, 2.5, -61.));
#183 = CARTESIAN_POINT('', (2.26690278733268E-15, 2.5, -62.));
#184 = CARTESIAN_POINT('', (2.50000000000001, 2.5, -61.));
#185 = CARTESIAN_POINT('', (2.5, 2.5, -62.));
#186 = CARTESIAN_POINT('', (2.5, -3.58209188750601E-15, -61.));
#187 = CARTESIAN_POINT('', (2.5, -3.52658073627475E-15, -62.));
#188 = CARTESIAN_POINT('', (2.5, -2.5, -61.));
#189 = CARTESIAN_POINT('', (2.5, -2.5, -62.));
#190 = CARTESIAN_POINT('', (-2.05511004463896E-15, -2.5, -61.));
#191 = CARTESIAN_POINT('', (-4.89728098767934E-15, -2.5, -62.));
#192 = CARTESIAN_POINT('', (-2.5, -2.5, -61.));
#193 = CARTESIAN_POINT('', (-2.50000000000001, -2.5, -62.));
#194 = CARTESIAN_POINT('', (-2.5, 3.88825358729285E-15, -61.));
#195 = CARTESIAN_POINT('', (-2.5, 3.94376473852411E-15, -62.));
#196 = ADVANCED_FACE('', (#197), #200, .T.);
#197 = FACE_OUTER_BOUND('', #198, .T.);
#198 = EDGE_LOOP('', (#199));
#199 = ORIENTED_EDGE('', *, *, #161, .T.);
#200 = B_SPLINE_SURFACE_WITH_KNOTS('', 1, 1, ((#201, #202), (#203, #204)), .UNSPECIFIED., .F., .F., .U., (2, 2), (2, 2), (0.495939044418127, 0.53147249484695), (0.46852750515305, 0.504060955581873), .UNSPECIFIED.);
#201 = CARTESIAN_POINT('', (-2.50000000000001, 2.50000000000001, -62.));
#202 = CARTESIAN_POINT('', (-2.50000000000001, -2.49999999999999, -62.));
#203 = CARTESIAN_POINT('', (2.49999999999999, 2.50000000000001, -62.));
#204 = CARTESIAN_POINT('', (2.49999999999999, -2.49999999999999, -62.));
#205 = DRAUGHTING_MODEL('', (#213, #337, #385, #390, #395, #400, #405, #410), #424);
#206 = PRESENTATION_STYLE_ASSIGNMENT((#207));
#207 = SURFACE_STYLE_USAGE(.POSITIVE., #208);
#208 = SURFACE_SIDE_STYLE('', (#209));
#209 = SURFACE_STYLE_FILL_AREA(#210);
#210 = FILL_AREA_STYLE('', (#211));
#211 = FILL_AREA_STYLE_COLOUR('', #212);
#212 = COLOUR_RGB('', 0.50196078431373, 0.50196078431373, 0.50196078431373);
#213 = STYLED_ITEM('', (#206), #1);
#214 = MANIFOLD_SOLID_BREP('CUT', #215);
#215 = CLOSED_SHELL('', (#216, #233, #272, #321));
#216 = ADVANCED_FACE('', (#217), #228, .T.);
#217 = FACE_OUTER_BOUND('', #218, .T.);
#218 = EDGE_LOOP('', (#219));
#219 = ORIENTED_EDGE('', *, *, #220, .F.);
#220 = EDGE_CURVE('', #221, #221, #223, .T.);
#221 = VERTEX_POINT('', #222);
#222 = CARTESIAN_POINT('', (-2.5, 3.94948592725021E-15, -62.));
#223 = CIRCLE('', #224, 2.5);
#224 = AXIS2_PLACEMENT_3D('', #225, #226, #227);
#225 = CARTESIAN_POINT('', (-7.70217223333702E-16, 8.32667268468867E-16, -62.));
#226 = DIRECTION('', (0., 0., -1.));
#227 = DIRECTION('', (-1., 1.24672746351254E-15, 0.));
#228 = B_SPLINE_SURFACE_WITH_KNOTS('', 1, 1, ((#229, #230), (#231, #232)), .UNSPECIFIED., .F., .F., .U., (2, 2), (2, 2), (0.46852750515305, 0.504060955581873), (0.495939044418127, 0.53147249484695), .UNSPECIFIED.);
#229 = CARTESIAN_POINT('', (-2.5, 2.5, -62.));
#230 = CARTESIAN_POINT('', (2.5, 2.5, -62.));
#231 = CARTESIAN_POINT('', (-2.5, -2.5, -62.));
#232 = CARTESIAN_POINT('', (2.5, -2.5, -62.));
#233 = ADVANCED_FACE('', (#234), #253, .T.);
#234 = FACE_OUTER_BOUND('', #235, .T.);
#235 = EDGE_LOOP('', (#236, #237, #245, #252));
#236 = ORIENTED_EDGE('', *, *, #220, .T.);
#237 = ORIENTED_EDGE('', *, *, #238, .T.);
#238 = EDGE_CURVE('', #221, #239, #241, .T.);
#239 = VERTEX_POINT('', #240);
#240 = CARTESIAN_POINT('', (-2.5, 4.40872847693047E-15, -69.5));
#241 = LINE('', #242, #243);
#242 = CARTESIAN_POINT('', (-2.5, 3.94948592725021E-15, -62.));
#243 = VECTOR('', #244, 7.5);
#244 = DIRECTION('', (0., 4.5924254968026E-16, -7.5));
#245 = ORIENTED_EDGE('', *, *, #246, .F.);
#246 = EDGE_CURVE('', #239, #239, #247, .T.);
#247 = CIRCLE('', #248, 2.5);
#248 = AXIS2_PLACEMENT_3D('', #249, #250, #251);
#249 = CARTESIAN_POINT('', (9.15933995315754E-16, 4.44089209850063E-16, -69.5));
#250 = DIRECTION('', (0., 0., -1.));
#251 = DIRECTION('', (-1., 1.58585570683216E-15, 0.));
#252 = ORIENTED_EDGE('', *, *, #238, .F.);
#253 = (
   BOUNDED_SURFACE ()
   B_SPLINE_SURFACE (2, 1, ((#254, #255), (#256, #257), (#258, #259), (#260, #261), (#262, #263), (#264, #265), (#266, #267), (#268, #269), (#270, #271)), .UNSPECIFIED., .T., .F., .U.)
   B_SPLINE_SURFACE_WITH_KNOTS ((3, 2, 2, 2, 3), (2, 2), (0., 3.92699081698725, 7.8539816339745, 11.7809724509617, 15.707963267949), (0.117647058823529, 1.), .UNSPECIFIED.)
   GEOMETRIC_REPRESENTATION_ITEM ()
   RATIONAL_B_SPLINE_SURFACE (((1., 1.), (0.707106781186548, 0.707106781186548), (1., 1.), (0.707106781186548, 0.707106781186548), (1., 1.), (0.707106781186548, 0.707106781186548), (1., 1.), (0.707106781186548, 0.707106781186548), (1., 1.)))
   REPRESENTATION_ITEM ('')
   SURFACE ()
);
#254 = CARTESIAN_POINT('', (-2.5, 3.94948592725021E-15, -62.));
#255 = CARTESIAN_POINT('', (-2.5, 4.33806398586901E-15, -69.5));
#256 = CARTESIAN_POINT('', (-2.5, 2.5, -62.));
#257 = CARTESIAN_POINT('', (-2.5, 2.5, -69.5));
#258 = CARTESIAN_POINT('', (5.11479491909916E-15, 2.5, -62.));
#259 = CARTESIAN_POINT('', (5.11479491909916E-15, 2.5, -69.5));
#260 = CARTESIAN_POINT('', (2.50000000000001, 2.5, -62.));
#261 = CARTESIAN_POINT('', (2.50000000000001, 2.5, -69.5));
#262 = CARTESIAN_POINT('', (2.5, -3.53230192500085E-15, -62.));
#263 = CARTESIAN_POINT('', (2.5, -3.14372386638205E-15, -69.5));
#264 = CARTESIAN_POINT('', (2.5, -2.5, -62.));
#265 = CARTESIAN_POINT('', (2.5, -2.5, -69.5));
#266 = CARTESIAN_POINT('', (-2.06083123336506E-15, -2.5, -62.));
#267 = CARTESIAN_POINT('', (-2.06083123336506E-15, -2.5, -69.5));
#268 = CARTESIAN_POINT('', (-2.5, -2.5, -62.));
#269 = CARTESIAN_POINT('', (-2.5, -2.5, -69.5));
#270 = CARTESIAN_POINT('', (-2.5, 3.94948592725021E-15, -62.));
#271 = CARTESIAN_POINT('', (-2.5, 4.33806398586901E-15, -69.5));
#272 = ADVANCED_FACE('', (#273), #293, .T.);
#273 = FACE_OUTER_BOUND('', #274, .T.);
#274 = EDGE_LOOP('', (#275, #284, #285, #286));
#275 = ORIENTED_EDGE('', *, *, #276, .F.);
#276 = EDGE_CURVE('', #239, #277, #279, .T.);
#277 = VERTEX_POINT('', #278);
#278 = CARTESIAN_POINT('', (-2., 4.40872847693047E-15, -70.));
#279 = CIRCLE('', #280, 0.499999999999979);
#280 = AXIS2_PLACEMENT_3D('', #281, #282, #283);
#281 = CARTESIAN_POINT('', (-2.00000000000002, 4.37811230695178E-15, -69.5));
#282 = DIRECTION('', (-6.123233995738E-17, -1., -6.12323399573805E-17));
#283 = DIRECTION('', (-1., 6.12323399573782E-17, 2.84217094304053E-14));
#284 = ORIENTED_EDGE('', *, *, #246, .T.);
#285 = ORIENTED_EDGE('', *, *, #276, .T.);
#286 = ORIENTED_EDGE('', *, *, #287, .F.);
#287 = EDGE_CURVE('', #277, #277, #288, .T.);
#288 = CIRCLE('', #289, 2.);
#289 = AXIS2_PLACEMENT_3D('', #290, #291, #292);
#290 = CARTESIAN_POINT('', (3.95516952522712E-16, 2.1094237467878E-15, -70.));
#291 = DIRECTION('', (0., 0., -1.));
#292 = DIRECTION('', (-1., 1.14965236507134E-15, 0.));
#293 = (
   BOUNDED_SURFACE ()
   B_SPLINE_SURFACE (2, 2, ((#294, #295, #296), (#297, #298, #299), (#300, #301, #302), (#303, #304, #305), (#306, #307, #308), (#309, #310, #311), (#312, #313, #314), (#315, #316, #317), (#318, #319, #320)), .UNSPECIFIED., .T., .F., .U.)
   B_SPLINE_SURFACE_WITH_KNOTS ((3, 2, 2, 2, 3), (3, 3), (0., 0.25, 0.5, 0.75, 1.), (0., 1.), .UNSPECIFIED.)
   GEOMETRIC_REPRESENTATION_ITEM ()
   RATIONAL_B_SPLINE_SURFACE (((1., 0.707106781186548, 1.), (0.707106781186548, 0.5, 0.707106781186548), (1., 0.707106781186548, 1.), (0.707106781186548, 0.5, 0.707106781186548), (1., 0.707106781186548, 1.), (0.707106781186548, 0.5, 0.707106781186548), (1., 0.707106781186548, 1.), (0.707106781186548, 0.5, 0.707106781186548), (1., 0.707106781186548, 1.)))
   REPRESENTATION_ITEM ('')
   SURFACE ()
);
#294 = CARTESIAN_POINT('', (-2.5, 4.40872847693047E-15, -69.5));
#295 = CARTESIAN_POINT('', (-2.5, 4.43934464690916E-15, -70.));
#296 = CARTESIAN_POINT('', (-2., 4.40872847693047E-15, -70.));
#297 = CARTESIAN_POINT('', (-2.5, 2.5, -69.5));
#298 = CARTESIAN_POINT('', (-2.5, 2.5, -70.));
#299 = CARTESIAN_POINT('', (-2., 2., -70.));
#300 = CARTESIAN_POINT('', (4.82463692715744E-15, 2.5, -69.5));
#301 = CARTESIAN_POINT('', (4.85525309713613E-15, 2.5, -70.));
#302 = CARTESIAN_POINT('', (4.85525309713613E-15, 2., -70.));
#303 = CARTESIAN_POINT('', (2.50000000000001, 2.5, -69.5));
#304 = CARTESIAN_POINT('', (2.50000000000001, 2.5, -70.));
#305 = CARTESIAN_POINT('', (2.00000000000001, 2., -70.));
#306 = CARTESIAN_POINT('', (2.5, -4.43563368453118E-15, -69.5));
#307 = CARTESIAN_POINT('', (2.5, -4.46624985450987E-15, -70.));
#308 = CARTESIAN_POINT('', (2., -4.49686602448855E-15, -70.));
#309 = CARTESIAN_POINT('', (2.5, -2.5, -69.5));
#310 = CARTESIAN_POINT('', (2.5, -2.5, -70.));
#311 = CARTESIAN_POINT('', (2., -2., -70.));
#312 = CARTESIAN_POINT('', (-3.71356353451737E-15, -2.5, -69.5));
#313 = CARTESIAN_POINT('', (-3.74417970449606E-15, -2.5, -70.));
#314 = CARTESIAN_POINT('', (-3.80541204445342E-15, -2., -70.));
#315 = CARTESIAN_POINT('', (-2.5, -2.5, -69.5));
#316 = CARTESIAN_POINT('', (-2.5, -2.5, -70.));
#317 = CARTESIAN_POINT('', (-2., -2., -70.));
#318 = CARTESIAN_POINT('', (-2.5, 4.40872847693047E-15, -69.5));
#319 = CARTESIAN_POINT('', (-2.5, 4.43934464690916E-15, -70.));
#320 = CARTESIAN_POINT('', (-2., 4.40872847693047E-15, -70.));
#321 = ADVANCED_FACE('', (#322), #325, .T.);
#322 = FACE_OUTER_BOUND('', #323, .T.);
#323 = EDGE_LOOP('', (#324));
#324 = ORIENTED_EDGE('', *, *, #287, .T.);
#325 = B_SPLINE_SURFACE_WITH_KNOTS('', 1, 1, ((#326, #327), (#328, #329)), .UNSPECIFIED., .F., .F., .U., (2, 2), (2, 2), (0.0454545454545455, 0.954545454545454), (0.0454545454545454, 0.954545454545454), .UNSPECIFIED.);
#326 = CARTESIAN_POINT('', (2., -2., -70.));
#327 = CARTESIAN_POINT('', (2., 2., -70.));
#328 = CARTESIAN_POINT('', (-2., -2., -70.));
#329 = CARTESIAN_POINT('', (-2., 2., -70.));
#330 = PRESENTATION_STYLE_ASSIGNMENT((#331));
#331 = SURFACE_STYLE_USAGE(.POSITIVE., #332);
#332 = SURFACE_SIDE_STYLE('', (#333));
#333 = SURFACE_STYLE_FILL_AREA(#334);
#334 = FILL_AREA_STYLE('', (#335));
#335 = FILL_AREA_STYLE_COLOUR('', #336);
#336 = COLOUR_RGB('', 0.8, 0.8, 0.8);
#337 = STYLED_ITEM('', (#330), #214);
#338 = TRIMMED_CURVE('cutting part line', #339, (#343), (#344), .T., .CARTESIAN.);
#339 = LINE('', #340, #341);
#340 = CARTESIAN_POINT('', (2.35922392732846E-16, 0., -70.));
#341 = VECTOR('', #342, 2.);
#342 = DIRECTION('', (2., 0., 0.));
#343 = CARTESIAN_POINT('', (2.35922392732846E-16, 0., -70.));
#344 = CARTESIAN_POINT('', (2., 0., -70.));
#345 = TRIMMED_CURVE('cutting part line', #346, (#351), (#352), .T., .CARTESIAN.);
#346 = CIRCLE('', #347, 0.49999999999999);
#347 = AXIS2_PLACEMENT_3D('', #348, #349, #350);
#348 = CARTESIAN_POINT('', (2., -5.06428962032615E-16, -69.5));
#349 = DIRECTION('', (2.04003480774872E-15, -1., 6.93889390390769E-17));
#350 = DIRECTION('', (8.8817841970015E-16, -6.9388939039075E-17, -1.));
#351 = CARTESIAN_POINT('', (2., -5.41123431552152E-16, -70.));
#352 = CARTESIAN_POINT('', (2.49999999999999, 5.13588441841728E-16, -69.5));
#353 = TRIMMED_CURVE('cutting part line', #354, (#358), (#359), .T., .CARTESIAN.);
#354 = LINE('', #355, #356);
#355 = CARTESIAN_POINT('', (2.5, 3.88518876298356E-16, -69.5));
#356 = VECTOR('', #357, 7.5);
#357 = DIRECTION('', (0., -3.88518876298356E-16, 7.5));
#358 = CARTESIAN_POINT('', (2.5, 3.88518876298356E-16, -69.5));
#359 = CARTESIAN_POINT('', (2.5, 0., -62.));
#360 = TRIMMED_CURVE('cutting part line', #361, (#365), (#366), .T., .CARTESIAN.);
#361 = LINE('', #362, #363);
#362 = CARTESIAN_POINT('', (2.5, 0., -62.));
#363 = VECTOR('', #364, 2.5);
#364 = DIRECTION('', (-2.5, 0., 7.105427357601E-15));
#365 = CARTESIAN_POINT('', (2.5, 0., -62.));
#366 = CARTESIAN_POINT('', (0., 0., -62.));
#367 = TRIMMED_CURVE('cutting part line', #368, (#372), (#373), .T., .CARTESIAN.);
#368 = LINE('', #369, #370);
#369 = CARTESIAN_POINT('', (0., 0., -62.));
#370 = VECTOR('', #371, 8.);
#371 = DIRECTION('', (0., 0., -8.));
#372 = CARTESIAN_POINT('', (0., 0., -62.));
#373 = CARTESIAN_POINT('', (0., 0., -70.));
#374 = COMPOSITE_CURVE('cutting part line', (#375, #376, #377, #378, #379), .U.);
#375 = COMPOSITE_CURVE_SEGMENT(.CONTINUOUS., .T., #338);
#376 = COMPOSITE_CURVE_SEGMENT(.CONTINUOUS., .T., #345);
#377 = COMPOSITE_CURVE_SEGMENT(.CONTINUOUS., .T., #353);
#378 = COMPOSITE_CURVE_SEGMENT(.CONTINUOUS., .T., #360);
#379 = COMPOSITE_CURVE_SEGMENT(.CONTINUOUS., .T., #367);
#380 = GEOMETRIC_SET('', (#374, #423));
#381 = PRESENTATION_STYLE_ASSIGNMENT((#382));
#382 = CURVE_STYLE('', #384, POSITIVE_LENGTH_MEASURE(1.E-6), #383);
#383 = COLOUR_RGB('', 0., 0., 1.);
#384 = DRAUGHTING_PRE_DEFINED_CURVE_FONT('continuous');
#385 = STYLED_ITEM('', (#381), #374);
#386 = PRESENTATION_STYLE_ASSIGNMENT((#387));
#387 = CURVE_STYLE('', #389, POSITIVE_LENGTH_MEASURE(1.E-6), #388);
#388 = COLOUR_RGB('', 0., 0., 1.);
#389 = DRAUGHTING_PRE_DEFINED_CURVE_FONT('continuous');
#390 = OVER_RIDING_STYLED_ITEM('', (#386), #338, #385);
#391 = PRESENTATION_STYLE_ASSIGNMENT((#392));
#392 = CURVE_STYLE('', #394, POSITIVE_LENGTH_MEASURE(1.E-6), #393);
#393 = COLOUR_RGB('', 0., 0., 1.);
#394 = DRAUGHTING_PRE_DEFINED_CURVE_FONT('continuous');
#395 = OVER_RIDING_STYLED_ITEM('', (#391), #345, #385);
#396 = PRESENTATION_STYLE_ASSIGNMENT((#397));
#397 = CURVE_STYLE('', #399, POSITIVE_LENGTH_MEASURE(1.E-6), #398);
#398 = COLOUR_RGB('', 0., 0., 1.);
#399 = DRAUGHTING_PRE_DEFINED_CURVE_FONT('continuous');
#400 = OVER_RIDING_STYLED_ITEM('', (#396), #353, #385);
#401 = PRESENTATION_STYLE_ASSIGNMENT((#402));
#402 = CURVE_STYLE('', #404, POSITIVE_LENGTH_MEASURE(1.E-6), #403);
#403 = COLOUR_RGB('', 0., 0., 1.);
#404 = DRAUGHTING_PRE_DEFINED_CURVE_FONT('continuous');
#405 = OVER_RIDING_STYLED_ITEM('', (#401), #360, #385);
#406 = PRESENTATION_STYLE_ASSIGNMENT((#407));
#407 = CURVE_STYLE('', #409, POSITIVE_LENGTH_MEASURE(1.E-6), #408);
#408 = COLOUR_RGB('', 0., 0., 1.);
#409 = DRAUGHTING_PRE_DEFINED_CURVE_FONT('continuous');
#410 = OVER_RIDING_STYLED_ITEM('', (#406), #367, #385);
#411 = AXIS2_PLACEMENT_3D('MCS', #412, #413, #414);
#412 = CARTESIAN_POINT('', (0., 0., -28.));
#413 = DIRECTION('', (0., 0., 1.));
#414 = DIRECTION('', (1., 0., 0.));
#415 = AXIS2_PLACEMENT_3D('PCS', #416, #417, #418);
#416 = CARTESIAN_POINT('', (0., 0., 0.));
#417 = DIRECTION('', (0., 0., 1.));
#418 = DIRECTION('', (1., 0., 0.));
#419 = AXIS2_PLACEMENT_3D('CIP', #420, #421, #422);
#420 = CARTESIAN_POINT('', (0., 0., -70.));
#421 = DIRECTION('', (0., 0., 1.));
#422 = DIRECTION('', (1., 0., 0.));
#423 = CARTESIAN_POINT('CRP', (2.5, 0., -70.));
#424 = (
   GEOMETRIC_REPRESENTATION_CONTEXT (3)
   GLOBAL_UNCERTAINTY_ASSIGNED_CONTEXT ((#426))
   GLOBAL_UNIT_ASSIGNED_CONTEXT ((#425, #427, #428))
   REPRESENTATION_CONTEXT ('', '3D')
);
#425 = (
   LENGTH_UNIT ()
   NAMED_UNIT (*)
   SI_UNIT (.MILLI., .METRE.)
);
#426 = UNCERTAINTY_MEASURE_WITH_UNIT(LENGTH_MEASURE(1.E-6), #425, 'DISTANCE_ACCURACY_VALUE', '');
#427 = (
   NAMED_UNIT (*)
   SI_UNIT ($, .STERADIAN.)
   SOLID_ANGLE_UNIT ()
);
#428 = (
   NAMED_UNIT (*)
   PLANE_ANGLE_UNIT ()
   SI_UNIT ($, .RADIAN.)
);
#429 = SHAPE_REPRESENTATION('', (), #424);
#430 = PRODUCT_DEFINITION_SHAPE('', '', #431);
#431 = PRODUCT_DEFINITION('', '', #434, #438);
#432 = APPLICATION_CONTEXT('configuration controlled 3D designs of mechanical parts and assemblies');
#433 = APPLICATION_PROTOCOL_DEFINITION('International Standard', 'automotive_design', 2002, #432);
#434 = PRODUCT_DEFINITION_FORMATION_WITH_SPECIFIED_SOURCE('', '', #435, .NOT_KNOWN.);
#435 = PRODUCT('product-name', '2S221-0500-050-NG   H10F', '', (#436));
#436 = PRODUCT_CONTEXT('', #432, 'mechanical');
#437 = PRODUCT_RELATED_PRODUCT_CATEGORY('detail', '', (#435));
#438 = PRODUCT_DEFINITION_CONTEXT('part definition', #432, 'design');
#439 = SHAPE_DEFINITION_REPRESENTATION(#430, #429);
#440 = CONSTRUCTIVE_GEOMETRY_REPRESENTATION('supplemental geometry', (#411, #415, #419), #424);
#441 = CONSTRUCTIVE_GEOMETRY_REPRESENTATION_RELATIONSHIP('', '', #429, #440);
#442 = SHAPE_REPRESENTATION_RELATIONSHIP('', '', #429, #443);
#443 = SHAPE_REPRESENTATION('', (#380), #424);
#444 = SHAPE_REPRESENTATION_RELATIONSHIP('', '', #429, #445);
#445 = ADVANCED_BREP_SHAPE_REPRESENTATION('', (#1, #214), #424);
ENDSEC;
END-ISO-10303-21;
