ISO-10303-21;
HEADER;
FILE_DESCRIPTION(('STEP'), '1');
FILE_NAME('C:\\Users\\ds2002\\OneDrive - Sandvik\\HomeShare\\Documents\\Batchrepair\\CorSRT2\\NEW_MILSQ_SLD\\Output\\MOD000000000000000020082236800000.stp', '2019-01-02T12:11:43', (''), (''), 'Express v3.0.0.0', 'Express Tool', 'Unknown');
FILE_SCHEMA(('AUTOMOTIVE_DESIGN'));
ENDSEC;

DATA;
#1 = MANIFOLD_SOLID_BREP('NOCUT', #2);
#2 = CLOSED_SHELL('', (#3, #50, #59, #98));
#3 = ADVANCED_FACE('', (#4), #31, .T.);
#4 = FACE_OUTER_BOUND('', #5, .T.);
#5 = EDGE_LOOP('', (#6, #16, #23, #24));
#6 = ORIENTED_EDGE('', *, *, #7, .T.);
#7 = EDGE_CURVE('', #8, #10, #12, .T.);
#8 = VERTEX_POINT('', #9);
#9 = CARTESIAN_POINT('', (-12.7, 8.55415789204427E-16, -1.27));
#10 = VERTEX_POINT('', #11);
#11 = CARTESIAN_POINT('', (-11.43, 6.99885645712712E-16, 0.));
#12 = LINE('', #13, #14);
#13 = CARTESIAN_POINT('', (-12.7, 8.55415789204427E-16, -1.27));
#14 = VECTOR('', #15, 1.79605122421383);
#15 = DIRECTION('', (1.27, -1.55530143491714E-16, 1.27));
#16 = ORIENTED_EDGE('', *, *, #17, .T.);
#17 = EDGE_CURVE('', #10, #10, #18, .T.);
#18 = CIRCLE('', #19, 11.43);
#19 = AXIS2_PLACEMENT_3D('', #20, #21, #22);
#20 = CARTESIAN_POINT('', (-1.38777878078145E-15, -2.66453525910038E-15, -2.09541177949331E-31));
#21 = DIRECTION('', (-3.08820065279244E-34, 6.12323399573676E-17, -1.));
#22 = DIRECTION('', (-1., 2.94350035416718E-16, 1.83325615003789E-32));
#23 = ORIENTED_EDGE('', *, *, #7, .F.);
#24 = ORIENTED_EDGE('', *, *, #25, .F.);
#25 = EDGE_CURVE('', #8, #8, #26, .T.);
#26 = CIRCLE('', #27, 12.7);
#27 = AXIS2_PLACEMENT_3D('', #28, #29, #30);
#28 = CARTESIAN_POINT('', (6.43929354282591E-15, -1.99840144432528E-15, -1.27));
#29 = DIRECTION('', (0., 0., -1.));
#30 = DIRECTION('', (-1., 2.24710018388166E-16, 0.));
#31 = (
   BOUNDED_SURFACE ()
   B_SPLINE_SURFACE (1, 2, ((#32, #33, #34, #35, #36, #37, #38, #39, #40), (#41, #42, #43, #44, #45, #46, #47, #48, #49)), .UNSPECIFIED., .F., .T., .U.)
   B_SPLINE_SURFACE_WITH_KNOTS ((2, 2), (3, 2, 2, 2, 3), (0., 1.), (0., 0.25, 0.5, 0.75, 1.), .UNSPECIFIED.)
   GEOMETRIC_REPRESENTATION_ITEM ()
   RATIONAL_B_SPLINE_SURFACE (((1., 0.707106781186548, 1., 0.707106781186548, 1., 0.707106781186548, 1., 0.707106781186548, 1.), (1., 0.707106781186548, 1., 0.707106781186548, 1., 0.707106781186548, 1., 0.707106781186548, 1.)))
   REPRESENTATION_ITEM ('')
   SURFACE ()
);
#32 = CARTESIAN_POINT('', (-12.7, -2.75039133857249E-15, -1.27));
#33 = CARTESIAN_POINT('', (-12.7, 12.7, -1.27000000000004));
#34 = CARTESIAN_POINT('', (6.96356552667667E-15, 12.7, -1.27000000000004));
#35 = CARTESIAN_POINT('', (12.7, 12.7, -1.27000000000004));
#36 = CARTESIAN_POINT('', (12.7, -7.68471589246207E-15, -1.27));
#37 = CARTESIAN_POINT('', (12.7, -12.7, -1.26999999999996));
#38 = CARTESIAN_POINT('', (3.58454240770423E-15, -12.7, -1.26999999999996));
#39 = CARTESIAN_POINT('', (-12.7, -12.7, -1.26999999999996));
#40 = CARTESIAN_POINT('', (-12.7, -2.75039133857249E-15, -1.27));
#41 = CARTESIAN_POINT('', (-11.43, 6.99885645712712E-16, -8.75811540203011E-47));
#42 = CARTESIAN_POINT('', (-11.43, 11.43, -3.39728245535298E-14));
#43 = CARTESIAN_POINT('', (6.7168492989822E-15, 11.43, -3.39728245535297E-14));
#44 = CARTESIAN_POINT('', (11.43, 11.43, -3.39728245535298E-14));
#45 = CARTESIAN_POINT('', (11.43, -3.74100645278791E-15, -4.6042053439343E-30));
#46 = CARTESIAN_POINT('', (11.43, -11.43, 3.39728245535297E-14));
#47 = CARTESIAN_POINT('', (3.675728491907E-15, -11.43, 3.39728245535297E-14));
#48 = CARTESIAN_POINT('', (-11.43, -11.43, 3.39728245535298E-14));
#49 = CARTESIAN_POINT('', (-11.43, 6.99885645712712E-16, -8.75811540203011E-47));
#50 = ADVANCED_FACE('', (#51), #54, .T.);
#51 = FACE_OUTER_BOUND('', #52, .T.);
#52 = EDGE_LOOP('', (#53));
#53 = ORIENTED_EDGE('', *, *, #17, .F.);
#54 = B_SPLINE_SURFACE_WITH_KNOTS('', 1, 1, ((#55, #56), (#57, #58)), .UNSPECIFIED., .F., .F., .U., (2, 2), (2, 2), (6.3509071197169, 29.2109071197169), (6.3509071197169, 29.2109071197169), .UNSPECIFIED.);
#55 = CARTESIAN_POINT('', (11.43, -11.43, 6.40554171188829E-15));
#56 = CARTESIAN_POINT('', (-11.43, -11.43, -7.80531300331371E-15));
#57 = CARTESIAN_POINT('', (11.43, 11.43, 2.20161677185157E-14));
#58 = CARTESIAN_POINT('', (-11.43, 11.43, 7.80531300331372E-15));
#59 = ADVANCED_FACE('', (#60), #79, .T.);
#60 = FACE_OUTER_BOUND('', #61, .T.);
#61 = EDGE_LOOP('', (#62, #71, #77, #78));
#62 = ORIENTED_EDGE('', *, *, #63, .F.);
#63 = EDGE_CURVE('', #64, #64, #66, .T.);
#64 = VERTEX_POINT('', #65);
#65 = CARTESIAN_POINT('', (-12.7, 5.0547296634807E-15, -69.85));
#66 = CIRCLE('', #67, 12.7);
#67 = AXIS2_PLACEMENT_3D('', #68, #69, #70);
#68 = CARTESIAN_POINT('', (-2.22044604925031E-16, 4.21884749357559E-15, -69.85));
#69 = DIRECTION('', (0., 0., -1.));
#70 = DIRECTION('', (-1., 6.58174936933153E-17, 0.));
#71 = ORIENTED_EDGE('', *, *, #72, .T.);
#72 = EDGE_CURVE('', #64, #8, #73, .T.);
#73 = LINE('', #74, #75);
#74 = CARTESIAN_POINT('', (-12.7, 5.0547296634807E-15, -69.85));
#75 = VECTOR('', #76, 68.58);
#76 = DIRECTION('', (0., -4.19931387427627E-15, 68.58));
#77 = ORIENTED_EDGE('', *, *, #25, .T.);
#78 = ORIENTED_EDGE('', *, *, #72, .F.);
#79 = (
   BOUNDED_SURFACE ()
   B_SPLINE_SURFACE (1, 2, ((#80, #81, #82, #83, #84, #85, #86, #87, #88), (#89, #90, #91, #92, #93, #94, #95, #96, #97)), .UNSPECIFIED., .F., .T., .U.)
   B_SPLINE_SURFACE_WITH_KNOTS ((2, 2), (3, 2, 2, 2, 3), (-0.20888418826018, 1.), (0., 0.25, 0.5, 0.75, 1.), .UNSPECIFIED.)
   GEOMETRIC_REPRESENTATION_ITEM ()
   RATIONAL_B_SPLINE_SURFACE (((1., 0.707106781186548, 1., 0.707106781186548, 1., 0.707106781186548, 1., 0.707106781186548, 1.), (1., 0.707106781186548, 1., 0.707106781186548, 1., 0.707106781186548, 1., 0.707106781186548, 1.)))
   REPRESENTATION_ITEM ('')
   SURFACE ()
);
#80 = CARTESIAN_POINT('', (-12.7, 4.85221867785498E-15, -69.85));
#81 = CARTESIAN_POINT('', (-12.7, 12.7, -69.85));
#82 = CARTESIAN_POINT('', (-1.70751806587128E-14, 12.7, -69.85));
#83 = CARTESIAN_POINT('', (12.7, 12.7, -69.85));
#84 = CARTESIAN_POINT('', (12.7, 1.84634540397152E-14, -69.85));
#85 = CARTESIAN_POINT('', (12.7, -12.7, -69.85));
#86 = CARTESIAN_POINT('', (-1.90864386193545E-15, -12.7, -69.85));
#87 = CARTESIAN_POINT('', (-12.7, -12.7, -69.85));
#88 = CARTESIAN_POINT('', (-12.7, 4.85221867785498E-15, -69.85));
#89 = CARTESIAN_POINT('', (-12.7, 8.55415789204427E-16, -1.27));
#90 = CARTESIAN_POINT('', (-12.7, 12.7, -1.27));
#91 = CARTESIAN_POINT('', (-5.08477199276112E-15, 12.7, -1.27));
#92 = CARTESIAN_POINT('', (12.7, 12.7, -1.27));
#93 = CARTESIAN_POINT('', (12.7, 1.44666511510647E-14, -1.27));
#94 = CARTESIAN_POINT('', (12.7, -12.7, -1.27000000000001));
#95 = CARTESIAN_POINT('', (1.00817648040162E-14, -12.7, -1.27));
#96 = CARTESIAN_POINT('', (-12.7, -12.7, -1.27));
#97 = CARTESIAN_POINT('', (-12.7, 8.55415789204427E-16, -1.27));
#98 = ADVANCED_FACE('', (#99), #102, .T.);
#99 = FACE_OUTER_BOUND('', #100, .T.);
#100 = EDGE_LOOP('', (#101));
#101 = ORIENTED_EDGE('', *, *, #63, .T.);
#102 = B_SPLINE_SURFACE_WITH_KNOTS('', 1, 1, ((#103, #104), (#105, #106)), .UNSPECIFIED., .F., .F., .U., (2, 2), (2, 2), (99.825579672184, 125.225579672184), (90.300578547184, 115.700578547184), .UNSPECIFIED.);
#103 = CARTESIAN_POINT('', (-12.7, 12.7, -69.85));
#104 = CARTESIAN_POINT('', (-12.7, -12.7, -69.85));
#105 = CARTESIAN_POINT('', (12.7, 12.7, -69.85));
#106 = CARTESIAN_POINT('', (12.7, -12.7, -69.85));
#107 = DRAUGHTING_MODEL('', (#115, #229, #276, #281, #286, #291, #296, #301), #315);
#108 = PRESENTATION_STYLE_ASSIGNMENT((#109));
#109 = SURFACE_STYLE_USAGE(.POSITIVE., #110);
#110 = SURFACE_SIDE_STYLE('', (#111));
#111 = SURFACE_STYLE_FILL_AREA(#112);
#112 = FILL_AREA_STYLE('', (#113));
#113 = FILL_AREA_STYLE_COLOUR('', #114);
#114 = COLOUR_RGB('', 0.50196078431373, 0.50196078431373, 0.50196078431373);
#115 = STYLED_ITEM('', (#108), #1);
#116 = MANIFOLD_SOLID_BREP('CUT', #117);
#117 = CLOSED_SHELL('', (#118, #135, #174, #213));
#118 = ADVANCED_FACE('', (#119), #130, .T.);
#119 = FACE_OUTER_BOUND('', #120, .T.);
#120 = EDGE_LOOP('', (#121));
#121 = ORIENTED_EDGE('', *, *, #122, .F.);
#122 = EDGE_CURVE('', #123, #123, #125, .T.);
#123 = VERTEX_POINT('', #124);
#124 = CARTESIAN_POINT('', (-12.7, 5.0547296634807E-15, -69.85));
#125 = CIRCLE('', #126, 12.7);
#126 = AXIS2_PLACEMENT_3D('', #127, #128, #129);
#127 = CARTESIAN_POINT('', (-2.22044604925031E-16, 4.21884749357559E-15, -69.85));
#128 = DIRECTION('', (0., 0., -1.));
#129 = DIRECTION('', (-1., 6.58174936933153E-17, 0.));
#130 = B_SPLINE_SURFACE_WITH_KNOTS('', 1, 1, ((#131, #132), (#133, #134)), .UNSPECIFIED., .F., .F., .U., (2, 2), (2, 2), (90.300578547184, 115.700578547184), (99.825579672184, 125.225579672184), .UNSPECIFIED.);
#131 = CARTESIAN_POINT('', (-12.7, 12.7, -69.85));
#132 = CARTESIAN_POINT('', (12.7, 12.7, -69.85));
#133 = CARTESIAN_POINT('', (-12.7, -12.7, -69.85));
#134 = CARTESIAN_POINT('', (12.7, -12.7, -69.85));
#135 = ADVANCED_FACE('', (#136), #155, .T.);
#136 = FACE_OUTER_BOUND('', #137, .T.);
#137 = EDGE_LOOP('', (#138, #139, #147, #154));
#138 = ORIENTED_EDGE('', *, *, #122, .T.);
#139 = ORIENTED_EDGE('', *, *, #140, .F.);
#140 = EDGE_CURVE('', #141, #123, #143, .T.);
#141 = VERTEX_POINT('', #142);
#142 = CARTESIAN_POINT('', (-12.7, 6.98018059344013E-15, -101.295));
#143 = LINE('', #144, #145);
#144 = CARTESIAN_POINT('', (-12.7, 6.98018059344013E-15, -101.295));
#145 = VECTOR('', #146, 31.445);
#146 = DIRECTION('', (0., -1.92545092995943E-15, 31.445));
#147 = ORIENTED_EDGE('', *, *, #148, .F.);
#148 = EDGE_CURVE('', #141, #141, #149, .T.);
#149 = CIRCLE('', #150, 12.7);
#150 = AXIS2_PLACEMENT_3D('', #151, #152, #153);
#151 = CARTESIAN_POINT('', (3.66373598126302E-15, 7.7715611723761E-15, -101.295));
#152 = DIRECTION('', (1.11896493820488E-15, -3.64034717732382E-15, -1.));
#153 = DIRECTION('', (-1., -6.23134314122808E-17, -1.11896493820488E-15));
#154 = ORIENTED_EDGE('', *, *, #140, .T.);
#155 = (
   BOUNDED_SURFACE ()
   B_SPLINE_SURFACE (1, 2, ((#156, #157, #158, #159, #160, #161, #162, #163, #164), (#165, #166, #167, #168, #169, #170, #171, #172, #173)), .UNSPECIFIED., .F., .T., .U.)
   B_SPLINE_SURFACE_WITH_KNOTS ((2, 2), (3, 2, 2, 2, 3), (-0.763176449850168, -0.20888418826018), (0., 0.25, 0.5, 0.75, 1.), .UNSPECIFIED.)
   GEOMETRIC_REPRESENTATION_ITEM ()
   RATIONAL_B_SPLINE_SURFACE (((1., 0.707106781186548, 1., 0.707106781186548, 1., 0.707106781186548, 1., 0.707106781186548, 1.), (1., 0.707106781186548, 1., 0.707106781186548, 1., 0.707106781186548, 1., 0.707106781186548, 1.)))
   REPRESENTATION_ITEM ('')
   SURFACE ()
);
#156 = CARTESIAN_POINT('', (-12.7, 7.27517571273101E-15, -101.295));
#157 = CARTESIAN_POINT('', (-12.7, 12.7, -101.295));
#158 = CARTESIAN_POINT('', (-6.76964014899818E-15, 12.7, -101.295));
#159 = CARTESIAN_POINT('', (12.7, 12.7, -101.295));
#160 = CARTESIAN_POINT('', (12.7, 2.04813891033398E-14, -101.295));
#161 = CARTESIAN_POINT('', (12.7, -12.7, -101.295));
#162 = CARTESIAN_POINT('', (7.99187467652777E-15, -12.7, -101.295));
#163 = CARTESIAN_POINT('', (-12.7, -12.7, -101.295));
#164 = CARTESIAN_POINT('', (-12.7, 7.27517571273101E-15, -101.295));
#165 = CARTESIAN_POINT('', (-12.7, 5.0547296634807E-15, -69.85));
#166 = CARTESIAN_POINT('', (-12.7, 12.7, -69.85));
#167 = CARTESIAN_POINT('', (-6.76964014899818E-15, 12.7, -69.85));
#168 = CARTESIAN_POINT('', (12.7, 12.7, -69.85));
#169 = CARTESIAN_POINT('', (12.7, 1.82609430540895E-14, -69.85));
#170 = CARTESIAN_POINT('', (12.7, -12.7, -69.85));
#171 = CARTESIAN_POINT('', (7.99187467652777E-15, -12.7, -69.85));
#172 = CARTESIAN_POINT('', (-12.7, -12.7, -69.85));
#173 = CARTESIAN_POINT('', (-12.7, 5.0547296634807E-15, -69.85));
#174 = ADVANCED_FACE('', (#175), #194, .T.);
#175 = FACE_OUTER_BOUND('', #176, .T.);
#176 = EDGE_LOOP('', (#177, #185, #186, #187));
#177 = ORIENTED_EDGE('', *, *, #178, .F.);
#178 = EDGE_CURVE('', #141, #179, #181, .T.);
#179 = VERTEX_POINT('', #180);
#180 = CARTESIAN_POINT('', (-12.395, 6.98018059344013E-15, -101.6));
#181 = LINE('', #182, #183);
#182 = CARTESIAN_POINT('', (-12.7, 6.98018059344013E-15, -101.295));
#183 = VECTOR('', #184, 0.431335136523789);
#184 = DIRECTION('', (0.305, 0., -0.304999999999993));
#185 = ORIENTED_EDGE('', *, *, #148, .T.);
#186 = ORIENTED_EDGE('', *, *, #178, .T.);
#187 = ORIENTED_EDGE('', *, *, #188, .F.);
#188 = EDGE_CURVE('', #179, #179, #189, .T.);
#189 = CIRCLE('', #190, 12.395);
#190 = AXIS2_PLACEMENT_3D('', #191, #192, #193);
#191 = CARTESIAN_POINT('', (-1.72084568816899E-15, 1.99840144432528E-15, -101.6));
#192 = DIRECTION('', (0., 0., -1.));
#193 = DIRECTION('', (-1., 4.01918446883005E-16, 0.));
#194 = (
   BOUNDED_SURFACE ()
   B_SPLINE_SURFACE (2, 1, ((#195, #196), (#197, #198), (#199, #200), (#201, #202), (#203, #204), (#205, #206), (#207, #208), (#209, #210), (#211, #212)), .UNSPECIFIED., .T., .F., .U.)
   B_SPLINE_SURFACE_WITH_KNOTS ((3, 2, 2, 2, 3), (2, 2), (0., 0.25, 0.5, 0.75, 1.), (0., 1.), .UNSPECIFIED.)
   GEOMETRIC_REPRESENTATION_ITEM ()
   RATIONAL_B_SPLINE_SURFACE (((1., 1.), (0.707106781186548, 0.707106781186548), (1., 1.), (0.707106781186548, 0.707106781186548), (1., 1.), (0.707106781186548, 0.707106781186548), (1., 1.), (0.707106781186548, 0.707106781186548), (1., 1.)))
   REPRESENTATION_ITEM ('')
   SURFACE ()
);
#195 = CARTESIAN_POINT('', (-12.7, 6.98018059344013E-15, -101.295));
#196 = CARTESIAN_POINT('', (-12.395, 5.01485922655895E-15, -101.6));
#197 = CARTESIAN_POINT('', (-12.7, 12.7, -101.295));
#198 = CARTESIAN_POINT('', (-12.395, 12.395, -101.6));
#199 = CARTESIAN_POINT('', (7.81235326168804E-15, 12.7, -101.295));
#200 = CARTESIAN_POINT('', (7.64206459789411E-15, 12.395, -101.6));
#201 = CARTESIAN_POINT('', (12.7, 12.7, -101.295));
#202 = CARTESIAN_POINT('', (12.395, 12.395, -101.6));
#203 = CARTESIAN_POINT('', (12.7, -7.20123599792324E-15, -101.295));
#204 = CARTESIAN_POINT('', (12.395, -8.82598003721656E-15, -101.6));
#205 = CARTESIAN_POINT('', (12.7, -12.7, -101.295));
#206 = CARTESIAN_POINT('', (12.395, -12.395, -101.6));
#207 = CARTESIAN_POINT('', (-4.8137618947582E-15, -12.7, -101.295));
#208 = CARTESIAN_POINT('', (-4.68082495833826E-15, -12.395, -101.6));
#209 = CARTESIAN_POINT('', (-12.7, -12.7, -101.295));
#210 = CARTESIAN_POINT('', (-12.395, -12.395, -101.6));
#211 = CARTESIAN_POINT('', (-12.7, 6.98018059344013E-15, -101.295));
#212 = CARTESIAN_POINT('', (-12.395, 5.01485922655895E-15, -101.6));
#213 = ADVANCED_FACE('', (#214), #217, .T.);
#214 = FACE_OUTER_BOUND('', #215, .T.);
#215 = EDGE_LOOP('', (#216));
#216 = ORIENTED_EDGE('', *, *, #188, .T.);
#217 = B_SPLINE_SURFACE_WITH_KNOTS('', 1, 1, ((#218, #219), (#220, #221)), .UNSPECIFIED., .F., .F., .U., (2, 2), (2, 2), (6.887094816176, 31.677094816176), (6.887094816176, 31.677094816176), .UNSPECIFIED.);
#218 = CARTESIAN_POINT('', (12.395, -12.395, -101.6));
#219 = CARTESIAN_POINT('', (12.395, 12.395, -101.6));
#220 = CARTESIAN_POINT('', (-12.395, -12.395, -101.6));
#221 = CARTESIAN_POINT('', (-12.395, 12.395, -101.6));
#222 = PRESENTATION_STYLE_ASSIGNMENT((#223));
#223 = SURFACE_STYLE_USAGE(.POSITIVE., #224);
#224 = SURFACE_SIDE_STYLE('', (#225));
#225 = SURFACE_STYLE_FILL_AREA(#226);
#226 = FILL_AREA_STYLE('', (#227));
#227 = FILL_AREA_STYLE_COLOUR('', #228);
#228 = COLOUR_RGB('', 0.8, 0.8, 0.8);
#229 = STYLED_ITEM('', (#222), #116);
#230 = TRIMMED_CURVE('cutting part line', #231, (#235), (#236), .T., .CARTESIAN.);
#231 = LINE('', #232, #233);
#232 = CARTESIAN_POINT('', (-7.85686656141981E-31, -4.27707894602213E-15, -69.85));
#233 = VECTOR('', #234, 12.7);
#234 = DIRECTION('', (12.7, -2.33295215237571E-15, 0.));
#235 = CARTESIAN_POINT('', (-7.85686656141981E-31, -4.27707894602213E-15, -69.85));
#236 = CARTESIAN_POINT('', (12.7, -6.61003109839784E-15, -69.85));
#237 = TRIMMED_CURVE('cutting part line', #238, (#242), (#243), .T., .CARTESIAN.);
#238 = LINE('', #239, #240);
#239 = CARTESIAN_POINT('', (12.7, -6.61003109839784E-15, -69.85));
#240 = VECTOR('', #241, 31.445);
#241 = DIRECTION('', (0., -1.92545092995943E-15, -31.445));
#242 = CARTESIAN_POINT('', (12.7, -6.61003109839784E-15, -69.85));
#243 = CARTESIAN_POINT('', (12.7, -8.53548202835727E-15, -101.295));
#244 = TRIMMED_CURVE('cutting part line', #245, (#249), (#250), .T., .CARTESIAN.);
#245 = LINE('', #246, #247);
#246 = CARTESIAN_POINT('', (12.7, -8.53548202835727E-15, -101.295));
#247 = VECTOR('', #248, 0.431335136523789);
#248 = DIRECTION('', (-0.305, 3.73517273739935E-17, -0.304999999999993));
#249 = CARTESIAN_POINT('', (12.7, -8.53548202835727E-15, -101.295));
#250 = CARTESIAN_POINT('', (12.395, -8.49813030098327E-15, -101.6));
#251 = TRIMMED_CURVE('cutting part line', #252, (#256), (#257), .T., .CARTESIAN.);
#252 = LINE('', #253, #254);
#253 = CARTESIAN_POINT('', (12.395, -8.49813030098327E-15, -101.6));
#254 = VECTOR('', #255, 12.395);
#255 = DIRECTION('', (-12.395, 2.27692456131472E-15, 0.));
#256 = CARTESIAN_POINT('', (12.395, -8.49813030098327E-15, -101.6));
#257 = CARTESIAN_POINT('', (-7.61877969592223E-31, -6.22120573966855E-15, -101.6));
#258 = TRIMMED_CURVE('cutting part line', #259, (#263), (#264), .T., .CARTESIAN.);
#259 = LINE('', #260, #261);
#260 = CARTESIAN_POINT('', (-1.14281695438834E-30, -6.22120573966855E-15, -101.6));
#261 = VECTOR('', #262, 31.75);
#262 = DIRECTION('', (3.57130298246354E-31, 1.94412679364642E-15, 31.75));
#263 = CARTESIAN_POINT('', (-1.14281695438834E-30, -6.22120573966855E-15, -101.6));
#264 = CARTESIAN_POINT('', (-7.85686656141981E-31, -4.27707894602213E-15, -69.85));
#265 = COMPOSITE_CURVE('cutting part line', (#266, #267, #268, #269, #270), .U.);
#266 = COMPOSITE_CURVE_SEGMENT(.CONTINUOUS., .T., #230);
#267 = COMPOSITE_CURVE_SEGMENT(.CONTINUOUS., .T., #237);
#268 = COMPOSITE_CURVE_SEGMENT(.CONTINUOUS., .T., #244);
#269 = COMPOSITE_CURVE_SEGMENT(.CONTINUOUS., .T., #251);
#270 = COMPOSITE_CURVE_SEGMENT(.CONTINUOUS., .T., #258);
#271 = GEOMETRIC_SET('', (#265, #314));
#272 = PRESENTATION_STYLE_ASSIGNMENT((#273));
#273 = CURVE_STYLE('', #275, POSITIVE_LENGTH_MEASURE(1.E-6), #274);
#274 = COLOUR_RGB('', 0., 0., 1.);
#275 = DRAUGHTING_PRE_DEFINED_CURVE_FONT('continuous');
#276 = STYLED_ITEM('', (#272), #265);
#277 = PRESENTATION_STYLE_ASSIGNMENT((#278));
#278 = CURVE_STYLE('', #280, POSITIVE_LENGTH_MEASURE(1.E-6), #279);
#279 = COLOUR_RGB('', 0., 0., 1.);
#280 = DRAUGHTING_PRE_DEFINED_CURVE_FONT('continuous');
#281 = OVER_RIDING_STYLED_ITEM('', (#277), #230, #276);
#282 = PRESENTATION_STYLE_ASSIGNMENT((#283));
#283 = CURVE_STYLE('', #285, POSITIVE_LENGTH_MEASURE(1.E-6), #284);
#284 = COLOUR_RGB('', 0., 0., 1.);
#285 = DRAUGHTING_PRE_DEFINED_CURVE_FONT('continuous');
#286 = OVER_RIDING_STYLED_ITEM('', (#282), #237, #276);
#287 = PRESENTATION_STYLE_ASSIGNMENT((#288));
#288 = CURVE_STYLE('', #290, POSITIVE_LENGTH_MEASURE(1.E-6), #289);
#289 = COLOUR_RGB('', 0., 0., 1.);
#290 = DRAUGHTING_PRE_DEFINED_CURVE_FONT('continuous');
#291 = OVER_RIDING_STYLED_ITEM('', (#287), #244, #276);
#292 = PRESENTATION_STYLE_ASSIGNMENT((#293));
#293 = CURVE_STYLE('', #295, POSITIVE_LENGTH_MEASURE(1.E-6), #294);
#294 = COLOUR_RGB('', 0., 0., 1.);
#295 = DRAUGHTING_PRE_DEFINED_CURVE_FONT('continuous');
#296 = OVER_RIDING_STYLED_ITEM('', (#292), #251, #276);
#297 = PRESENTATION_STYLE_ASSIGNMENT((#298));
#298 = CURVE_STYLE('', #300, POSITIVE_LENGTH_MEASURE(1.E-6), #299);
#299 = COLOUR_RGB('', 0., 0., 1.);
#300 = DRAUGHTING_PRE_DEFINED_CURVE_FONT('continuous');
#301 = OVER_RIDING_STYLED_ITEM('', (#297), #258, #276);
#302 = AXIS2_PLACEMENT_3D('CIP', #303, #304, #305);
#303 = CARTESIAN_POINT('', (3.80938984796112E-31, 6.22120573966855E-15, -101.6));
#304 = DIRECTION('', (-3.74939945665465E-33, -6.12323399573677E-17, 1.));
#305 = DIRECTION('', (1., -6.12323399573677E-17, 0.));
#306 = AXIS2_PLACEMENT_3D('MCS', #307, #308, #309);
#307 = CARTESIAN_POINT('', (2.17465168485969E-31, 3.55147571752732E-15, -58.));
#308 = DIRECTION('', (-3.74939945665465E-33, -6.12323399573677E-17, 1.));
#309 = DIRECTION('', (1., -6.12323399573677E-17, 0.));
#310 = AXIS2_PLACEMENT_3D('PCS', #311, #312, #313);
#311 = CARTESIAN_POINT('', (0., 0., 0.));
#312 = DIRECTION('', (0., 0., 1.));
#313 = DIRECTION('', (1., 0., 0.));
#314 = CARTESIAN_POINT('CRP', (12.7, 0., -101.6));
#315 = (
   GEOMETRIC_REPRESENTATION_CONTEXT (3)
   GLOBAL_UNCERTAINTY_ASSIGNED_CONTEXT ((#317))
   GLOBAL_UNIT_ASSIGNED_CONTEXT ((#316, #318, #319))
   REPRESENTATION_CONTEXT ('', '3D')
);
#316 = (
   LENGTH_UNIT ()
   NAMED_UNIT (*)
   SI_UNIT (.MILLI., .METRE.)
);
#317 = UNCERTAINTY_MEASURE_WITH_UNIT(LENGTH_MEASURE(1.E-6), #316, 'DISTANCE_ACCURACY_VALUE', '');
#318 = (
   NAMED_UNIT (*)
   SI_UNIT ($, .STERADIAN.)
   SOLID_ANGLE_UNIT ()
);
#319 = (
   NAMED_UNIT (*)
   PLANE_ANGLE_UNIT ()
   SI_UNIT ($, .RADIAN.)
);
#320 = SHAPE_REPRESENTATION('', (), #315);
#321 = PRODUCT_DEFINITION_SHAPE('', '', #322);
#322 = PRODUCT_DEFINITION('', '', #325, #329);
#323 = APPLICATION_CONTEXT('configuration controlled 3D designs of mechanical parts and assemblies');
#324 = APPLICATION_PROTOCOL_DEFINITION('International Standard', 'automotive_design', 2002, #323);
#325 = PRODUCT_DEFINITION_FORMATION_WITH_SPECIFIED_SOURCE('', '', #326, .NOT_KNOWN.);
#326 = PRODUCT('NONE', '1P220-2540-XA       1630', '', (#327));
#327 = PRODUCT_CONTEXT('', #323, 'mechanical');
#328 = PRODUCT_RELATED_PRODUCT_CATEGORY('detail', '', (#326));
#329 = PRODUCT_DEFINITION_CONTEXT('part definition', #323, 'design');
#330 = SHAPE_DEFINITION_REPRESENTATION(#321, #320);
#331 = CONSTRUCTIVE_GEOMETRY_REPRESENTATION('supplemental geometry', (#302, #306, #310), #315);
#332 = CONSTRUCTIVE_GEOMETRY_REPRESENTATION_RELATIONSHIP('', '', #320, #331);
#333 = SHAPE_REPRESENTATION_RELATIONSHIP('', '', #320, #334);
#334 = SHAPE_REPRESENTATION('', (#271), #315);
#335 = SHAPE_REPRESENTATION_RELATIONSHIP('', '', #320, #336);
#336 = ADVANCED_BREP_SHAPE_REPRESENTATION('', (#1, #116), #315);
ENDSEC;
END-ISO-10303-21;
