ISO-10303-21;
HEADER;
FILE_DESCRIPTION(('STEP'), '1');
FILE_NAME('C:\\Users\\ds2002\\OneDrive - Sandvik\\HomeShare\\Documents\\Batchrepair\\CorSRT2\\NEW_MILSQ_SLD\\Output\\MOD000000000000000020084566600000.stp', '2019-01-02T12:10:22', (''), (''), 'Express v3.0.0.0', 'Express Tool', 'Unknown');
FILE_SCHEMA(('AUTOMOTIVE_DESIGN'));
ENDSEC;

DATA;
#1 = MANIFOLD_SOLID_BREP('NOCUT', #2);
#2 = CLOSED_SHELL('', (#3, #20, #37, #85));
#3 = ADVANCED_FACE('', (#4), #15, .T.);
#4 = FACE_OUTER_BOUND('', #5, .T.);
#5 = EDGE_LOOP('', (#6));
#6 = ORIENTED_EDGE('', *, *, #7, .F.);
#7 = EDGE_CURVE('', #8, #8, #10, .T.);
#8 = VERTEX_POINT('', #9);
#9 = CARTESIAN_POINT('', (-6.0000000000002, 0., -57.));
#10 = CIRCLE('', #11, 6.0000000000002);
#11 = AXIS2_PLACEMENT_3D('', #12, #13, #14);
#12 = CARTESIAN_POINT('', (5.55111512312578E-17, -3.66373598126302E-15, -57.));
#13 = DIRECTION('', (0., 0., 1.));
#14 = DIRECTION('', (-1., 6.10622663543816E-16, 0.));
#15 = B_SPLINE_SURFACE_WITH_KNOTS('', 1, 1, ((#16, #17), (#18, #19)), .UNSPECIFIED., .F., .F., .U., (2, 2), (2, 2), (-6.0010000000002, 6.0010000000002), (-6.0010000000002, 6.0010000000002), .UNSPECIFIED.);
#16 = CARTESIAN_POINT('', (6.0010000000002, -6.0010000000002, -57.));
#17 = CARTESIAN_POINT('', (6.0010000000002, 6.0010000000002, -57.));
#18 = CARTESIAN_POINT('', (-6.0010000000002, -6.0010000000002, -57.));
#19 = CARTESIAN_POINT('', (-6.0010000000002, 6.0010000000002, -57.));
#20 = ADVANCED_FACE('', (#21), #32, .T.);
#21 = FACE_OUTER_BOUND('', #22, .T.);
#22 = EDGE_LOOP('', (#23));
#23 = ORIENTED_EDGE('', *, *, #24, .T.);
#24 = EDGE_CURVE('', #25, #25, #27, .T.);
#25 = VERTEX_POINT('', #26);
#26 = CARTESIAN_POINT('', (5.2000000000002, 0., 0.));
#27 = CIRCLE('', #28, 5.2000000000002);
#28 = AXIS2_PLACEMENT_3D('', #29, #30, #31);
#29 = CARTESIAN_POINT('', (8.32667268468867E-17, 1.55431223447522E-15, 0.));
#30 = DIRECTION('', (0., 0., 1.));
#31 = DIRECTION('', (1., -2.98906198937531E-16, 0.));
#32 = B_SPLINE_SURFACE_WITH_KNOTS('', 1, 1, ((#33, #34), (#35, #36)), .UNSPECIFIED., .F., .F., .U., (2, 2), (2, 2), (-5.20100000000015, 5.20100000000025), (-5.2010000000002, 5.2010000000002), .UNSPECIFIED.);
#33 = CARTESIAN_POINT('', (5.2010000000002, 5.2010000000002, 0.));
#34 = CARTESIAN_POINT('', (5.2010000000002, -5.2010000000002, 0.));
#35 = CARTESIAN_POINT('', (-5.2010000000002, 5.2010000000002, 0.));
#36 = CARTESIAN_POINT('', (-5.2010000000002, -5.2010000000002, 0.));
#37 = ADVANCED_FACE('', (#38), #66, .T.);
#38 = FACE_OUTER_BOUND('', #39, .T.);
#39 = EDGE_LOOP('', (#40, #48, #49, #50, #59));
#40 = ORIENTED_EDGE('', *, *, #41, .T.);
#41 = EDGE_CURVE('', #42, #25, #44, .T.);
#42 = VERTEX_POINT('', #43);
#43 = CARTESIAN_POINT('', (6.0000000000002, 0., -0.799999999999995));
#44 = LINE('', #45, #46);
#45 = CARTESIAN_POINT('', (6.0000000000002, -1.79950083083827E-15, -0.799999999999998));
#46 = VECTOR('', #47, 1.13137084989847);
#47 = DIRECTION('', (-0.799999999999997, 1.7972542630095E-15, 0.799999999999997));
#48 = ORIENTED_EDGE('', *, *, #24, .F.);
#49 = ORIENTED_EDGE('', *, *, #41, .F.);
#50 = ORIENTED_EDGE('', *, *, #51, .F.);
#51 = EDGE_CURVE('', #52, #42, #54, .T.);
#52 = VERTEX_POINT('', #53);
#53 = CARTESIAN_POINT('', (-6.0000000000002, -7.34788079488436E-16, -0.799999999999995));
#54 = CIRCLE('', #55, 6.0000000000002);
#55 = AXIS2_PLACEMENT_3D('', #56, #57, #58);
#56 = CARTESIAN_POINT('', (-5.55111512312578E-17, -3.66373598126302E-15, -0.799999999999995));
#57 = DIRECTION('', (-1.85037170770854E-17, 6.01984494166805E-17, -1.));
#58 = DIRECTION('', (1., 6.10622663543816E-16, -1.85037170770853E-17));
#59 = ORIENTED_EDGE('', *, *, #60, .F.);
#60 = EDGE_CURVE('', #42, #52, #61, .T.);
#61 = CIRCLE('', #62, 6.0000000000002);
#62 = AXIS2_PLACEMENT_3D('', #63, #64, #65);
#63 = CARTESIAN_POINT('', (-5.55111512312578E-17, -3.66373598126302E-15, -0.799999999999995));
#64 = DIRECTION('', (-1.85037170770854E-17, 6.01984494166805E-17, -1.));
#65 = DIRECTION('', (1., 6.10622663543816E-16, -1.85037170770853E-17));
#66 = (
   BOUNDED_SURFACE ()
   B_SPLINE_SURFACE (2, 1, ((#67, #68), (#69, #70), (#71, #72), (#73, #74), (#75, #76), (#77, #78), (#79, #80), (#81, #82), (#83, #84)), .UNSPECIFIED., .T., .F., .U.)
   B_SPLINE_SURFACE_WITH_KNOTS ((3, 2, 2, 2, 3), (2, 2), (0., 0.25, 0.5, 0.75, 1.), (0., 1.), .UNSPECIFIED.)
   GEOMETRIC_REPRESENTATION_ITEM ()
   RATIONAL_B_SPLINE_SURFACE (((1., 1.), (0.707106781186548, 0.707106781186548), (1., 1.), (0.707106781186548, 0.707106781186548), (1., 1.), (0.707106781186548, 0.707106781186548), (1., 1.), (0.707106781186548, 0.707106781186548), (1., 1.)))
   REPRESENTATION_ITEM ('')
   SURFACE ()
);
#67 = CARTESIAN_POINT('', (5.1990000000002, 0., 0.001));
#68 = CARTESIAN_POINT('', (6.00100000000019, -1.80174739866702E-15, -0.800999999999995));
#69 = CARTESIAN_POINT('', (5.1990000000002, -5.1990000000002, 0.00100000000001224));
#70 = CARTESIAN_POINT('', (6.0010000000002, -6.0010000000002, -0.800999999999981));
#71 = CARTESIAN_POINT('', (9.28969598982203E-16, -5.1990000000002, 0.00100000000001224));
#72 = CARTESIAN_POINT('', (1.06370967882375E-15, -6.0010000000002, -0.800999999999981));
#73 = CARTESIAN_POINT('', (-5.1990000000002, -5.1990000000002, 0.00100000000001224));
#74 = CARTESIAN_POINT('', (-6.00100000000019, -6.0010000000002, -0.800999999999981));
#75 = CARTESIAN_POINT('', (-5.1990000000002, -1.74691689550189E-15, 0.001));
#76 = CARTESIAN_POINT('', (-6.00100000000019, -3.81814445385202E-15, -0.800999999999995));
#77 = CARTESIAN_POINT('', (-5.1990000000002, 5.1990000000002, 0.000999999999987765));
#78 = CARTESIAN_POINT('', (-6.0010000000002, 6.00100000000019, -0.801000000000009));
#79 = CARTESIAN_POINT('', (-1.45464116739642E-15, 5.1990000000002, 0.000999999999987765));
#80 = CARTESIAN_POINT('', (-1.68759792052959E-15, 6.00100000000019, -0.801000000000009));
#81 = CARTESIAN_POINT('', (5.1990000000002, 5.1990000000002, 0.000999999999987765));
#82 = CARTESIAN_POINT('', (6.00100000000019, 6.00100000000019, -0.801000000000009));
#83 = CARTESIAN_POINT('', (5.1990000000002, 0., 0.001));
#84 = CARTESIAN_POINT('', (6.00100000000019, -1.80174739866702E-15, -0.800999999999995));
#85 = ADVANCED_FACE('', (#86), #98, .T.);
#86 = FACE_OUTER_BOUND('', #87, .T.);
#87 = EDGE_LOOP('', (#88, #94, #95, #96, #97));
#88 = ORIENTED_EDGE('', *, *, #89, .T.);
#89 = EDGE_CURVE('', #52, #8, #90, .T.);
#90 = LINE('', #91, #92);
#91 = CARTESIAN_POINT('', (-6.0000000000002, 1.01768797744381E-16, -0.799999999999995));
#92 = VECTOR('', #93, 56.2);
#93 = DIRECTION('', (0., -9.25152930262473E-17, -56.2));
#94 = ORIENTED_EDGE('', *, *, #7, .T.);
#95 = ORIENTED_EDGE('', *, *, #89, .F.);
#96 = ORIENTED_EDGE('', *, *, #51, .T.);
#97 = ORIENTED_EDGE('', *, *, #60, .T.);
#98 = (
   BOUNDED_SURFACE ()
   B_SPLINE_SURFACE (2, 1, ((#99, #100), (#101, #102), (#103, #104), (#105, #106), (#107, #108), (#109, #110), (#111, #112), (#113, #114), (#115, #116)), .UNSPECIFIED., .T., .F., .U.)
   B_SPLINE_SURFACE_WITH_KNOTS ((3, 2, 2, 2, 3), (2, 2), (0., 0.25, 0.5, 0.75, 1.), (0., 1.), .UNSPECIFIED.)
   GEOMETRIC_REPRESENTATION_ITEM ()
   RATIONAL_B_SPLINE_SURFACE (((1., 1.), (0.707106781186548, 0.707106781186548), (1., 1.), (0.707106781186548, 0.707106781186548), (1., 1.), (0.707106781186548, 0.707106781186548), (1., 1.), (0.707106781186548, 0.707106781186548), (1., 1.)))
   REPRESENTATION_ITEM ('')
   SURFACE ()
);
#99 = CARTESIAN_POINT('', (-6.0000000000002, -9.86076131526265E-32, -62.6212));
#100 = CARTESIAN_POINT('', (-6.0000000000002, 1.11022302462516E-16, 4.82120000000002));
#101 = CARTESIAN_POINT('', (-6.0000000000002, -6.0000000000002, -62.6212));
#102 = CARTESIAN_POINT('', (-6.0000000000002, -6.0000000000002, 4.82120000000002));
#103 = CARTESIAN_POINT('', (-6.44949795900507E-16, -6.0000000000002, -62.6212));
#104 = CARTESIAN_POINT('', (-6.44949795900507E-16, -6.0000000000002, 4.82120000000002));
#105 = CARTESIAN_POINT('', (6.0000000000002, -6.0000000000002, -62.6212));
#106 = CARTESIAN_POINT('', (6.0000000000002, -6.0000000000002, 4.82120000000002));
#107 = CARTESIAN_POINT('', (6.0000000000002, -2.06705570903862E-15, -62.6212));
#108 = CARTESIAN_POINT('', (6.0000000000002, -1.95603340657611E-15, 4.82120000000002));
#109 = CARTESIAN_POINT('', (6.0000000000002, 6.0000000000002, -62.6212));
#110 = CARTESIAN_POINT('', (6.0000000000002, 6.0000000000002, 4.82120000000002));
#111 = CARTESIAN_POINT('', (2.15689399262655E-15, 6.0000000000002, -62.6212));
#112 = CARTESIAN_POINT('', (2.15689399262655E-15, 6.0000000000002, 4.82120000000002));
#113 = CARTESIAN_POINT('', (-6.0000000000002, 6.0000000000002, -62.6212));
#114 = CARTESIAN_POINT('', (-6.0000000000002, 6.0000000000002, 4.82120000000002));
#115 = CARTESIAN_POINT('', (-6.0000000000002, -9.86076131526265E-32, -62.6212));
#116 = CARTESIAN_POINT('', (-6.0000000000002, 1.11022302462516E-16, 4.82120000000002));
#117 = DRAUGHTING_MODEL('', (#125, #239, #286, #291, #296, #301, #306, #311), #325);
#118 = PRESENTATION_STYLE_ASSIGNMENT((#119));
#119 = SURFACE_STYLE_USAGE(.POSITIVE., #120);
#120 = SURFACE_SIDE_STYLE('', (#121));
#121 = SURFACE_STYLE_FILL_AREA(#122);
#122 = FILL_AREA_STYLE('', (#123));
#123 = FILL_AREA_STYLE_COLOUR('', #124);
#124 = COLOUR_RGB('', 0.50196078431373, 0.50196078431373, 0.50196078431373);
#125 = STYLED_ITEM('', (#118), #1);
#126 = MANIFOLD_SOLID_BREP('CUT', #127);
#127 = CLOSED_SHELL('', (#128, #145, #192, #223));
#128 = ADVANCED_FACE('', (#129), #140, .T.);
#129 = FACE_OUTER_BOUND('', #130, .T.);
#130 = EDGE_LOOP('', (#131));
#131 = ORIENTED_EDGE('', *, *, #132, .T.);
#132 = EDGE_CURVE('', #133, #133, #135, .T.);
#133 = VERTEX_POINT('', #134);
#134 = CARTESIAN_POINT('', (-5.9000000000002, 0., -83.));
#135 = CIRCLE('', #136, 5.9000000000002);
#136 = AXIS2_PLACEMENT_3D('', #137, #138, #139);
#137 = CARTESIAN_POINT('', (-9.43689570931383E-16, 2.22044604925031E-16, -83.));
#138 = DIRECTION('', (0., 0., -1.));
#139 = DIRECTION('', (-1., -3.76346788008515E-17, 0.));
#140 = B_SPLINE_SURFACE_WITH_KNOTS('', 1, 1, ((#141, #142), (#143, #144)), .UNSPECIFIED., .F., .F., .U., (2, 2), (2, 2), (-11.9010000000004, -0.0990000000000286), (-5.9010000000002, 5.9010000000002), .UNSPECIFIED.);
#141 = CARTESIAN_POINT('', (-5.9010000000002, 5.9010000000002, -83.));
#142 = CARTESIAN_POINT('', (-5.9010000000002, -5.9010000000002, -83.));
#143 = CARTESIAN_POINT('', (5.9010000000002, 5.9010000000002, -83.));
#144 = CARTESIAN_POINT('', (5.9010000000002, -5.9010000000002, -83.));
#145 = ADVANCED_FACE('', (#146), #173, .T.);
#146 = FACE_OUTER_BOUND('', #147, .T.);
#147 = EDGE_LOOP('', (#148, #158, #165, #166));
#148 = ORIENTED_EDGE('', *, *, #149, .T.);
#149 = EDGE_CURVE('', #150, #152, #154, .T.);
#150 = VERTEX_POINT('', #151);
#151 = CARTESIAN_POINT('', (-6.0000000000002, 0., -57.));
#152 = VERTEX_POINT('', #153);
#153 = CARTESIAN_POINT('', (-6.0000000000002, 0., -82.9));
#154 = LINE('', #155, #156);
#155 = CARTESIAN_POINT('', (-6.0000000000002, -9.86076131526265E-32, -57.));
#156 = VECTOR('', #157, 25.9);
#157 = DIRECTION('', (0., 0., -25.9));
#158 = ORIENTED_EDGE('', *, *, #159, .T.);
#159 = EDGE_CURVE('', #152, #152, #160, .T.);
#160 = CIRCLE('', #161, 6.0000000000002);
#161 = AXIS2_PLACEMENT_3D('', #162, #163, #164);
#162 = CARTESIAN_POINT('', (5.55111512312578E-17, -3.66373598126302E-15, -82.9));
#163 = DIRECTION('', (4.92234932375267E-30, 8.06119657463298E-15, 1.));
#164 = DIRECTION('', (-1., 6.10622663543816E-16, 0.));
#165 = ORIENTED_EDGE('', *, *, #149, .F.);
#166 = ORIENTED_EDGE('', *, *, #167, .F.);
#167 = EDGE_CURVE('', #150, #150, #168, .T.);
#168 = CIRCLE('', #169, 6.0000000000002);
#169 = AXIS2_PLACEMENT_3D('', #170, #171, #172);
#170 = CARTESIAN_POINT('', (5.55111512312578E-17, -3.66373598126302E-15, -57.));
#171 = DIRECTION('', (0., 0., 1.));
#172 = DIRECTION('', (-1., 6.10622663543816E-16, 0.));
#173 = (
   BOUNDED_SURFACE ()
   B_SPLINE_SURFACE (2, 1, ((#174, #175), (#176, #177), (#178, #179), (#180, #181), (#182, #183), (#184, #185), (#186, #187), (#188, #189), (#190, #191)), .UNSPECIFIED., .T., .F., .U.)
   B_SPLINE_SURFACE_WITH_KNOTS ((3, 2, 2, 2, 3), (2, 2), (0., 0.25, 0.5, 0.75, 1.), (0., 1.), .UNSPECIFIED.)
   GEOMETRIC_REPRESENTATION_ITEM ()
   RATIONAL_B_SPLINE_SURFACE (((1., 1.), (0.707106781186548, 0.707106781186548), (1., 1.), (0.707106781186548, 0.707106781186548), (1., 1.), (0.707106781186548, 0.707106781186548), (1., 1.), (0.707106781186548, 0.707106781186548), (1., 1.)))
   REPRESENTATION_ITEM ('')
   SURFACE ()
);
#174 = CARTESIAN_POINT('', (-6.0000000000002, -9.86076131526265E-32, -85.4912));
#175 = CARTESIAN_POINT('', (-6.0000000000002, -9.86076131526265E-32, -54.4088));
#176 = CARTESIAN_POINT('', (-6.0000000000002, -6.0000000000002, -85.4912));
#177 = CARTESIAN_POINT('', (-6.0000000000002, -6.0000000000002, -54.4088));
#178 = CARTESIAN_POINT('', (-6.44949795900507E-16, -6.0000000000002, -85.4912));
#179 = CARTESIAN_POINT('', (-6.44949795900507E-16, -6.0000000000002, -54.4088));
#180 = CARTESIAN_POINT('', (6.0000000000002, -6.0000000000002, -85.4912));
#181 = CARTESIAN_POINT('', (6.0000000000002, -6.0000000000002, -54.4088));
#182 = CARTESIAN_POINT('', (6.0000000000002, -2.06705570903862E-15, -85.4912));
#183 = CARTESIAN_POINT('', (6.0000000000002, -2.06705570903862E-15, -54.4088));
#184 = CARTESIAN_POINT('', (6.0000000000002, 6.0000000000002, -85.4912));
#185 = CARTESIAN_POINT('', (6.0000000000002, 6.0000000000002, -54.4088));
#186 = CARTESIAN_POINT('', (2.15689399262655E-15, 6.0000000000002, -85.4912));
#187 = CARTESIAN_POINT('', (2.15689399262655E-15, 6.0000000000002, -54.4088));
#188 = CARTESIAN_POINT('', (-6.0000000000002, 6.0000000000002, -85.4912));
#189 = CARTESIAN_POINT('', (-6.0000000000002, 6.0000000000002, -54.4088));
#190 = CARTESIAN_POINT('', (-6.0000000000002, -9.86076131526265E-32, -85.4912));
#191 = CARTESIAN_POINT('', (-6.0000000000002, -9.86076131526265E-32, -54.4088));
#192 = ADVANCED_FACE('', (#193), #204, .T.);
#193 = FACE_OUTER_BOUND('', #194, .T.);
#194 = EDGE_LOOP('', (#195, #201, #202, #203));
#195 = ORIENTED_EDGE('', *, *, #196, .T.);
#196 = EDGE_CURVE('', #152, #133, #197, .T.);
#197 = LINE('', #198, #199);
#198 = CARTESIAN_POINT('', (-6.0000000000002, 5.42065748738453E-16, -82.9));
#199 = VECTOR('', #200, 0.141421356237303);
#200 = DIRECTION('', (0.0999999999999961, -5.36698761127177E-16, -0.0999999999999943));
#201 = ORIENTED_EDGE('', *, *, #132, .F.);
#202 = ORIENTED_EDGE('', *, *, #196, .F.);
#203 = ORIENTED_EDGE('', *, *, #159, .F.);
#204 = (
   BOUNDED_SURFACE ()
   B_SPLINE_SURFACE (2, 1, ((#205, #206), (#207, #208), (#209, #210), (#211, #212), (#213, #214), (#215, #216), (#217, #218), (#219, #220), (#221, #222)), .UNSPECIFIED., .T., .F., .U.)
   B_SPLINE_SURFACE_WITH_KNOTS ((3, 2, 2, 2, 3), (2, 2), (0., 0.25, 0.5, 0.75, 1.), (0., 1.), .UNSPECIFIED.)
   GEOMETRIC_REPRESENTATION_ITEM ()
   RATIONAL_B_SPLINE_SURFACE (((1., 1.), (0.707106781186548, 0.707106781186548), (1., 1.), (0.707106781186548, 0.707106781186548), (1., 1.), (0.707106781186548, 0.707106781186548), (1., 1.), (0.707106781186548, 0.707106781186548), (1., 1.)))
   REPRESENTATION_ITEM ('')
   SURFACE ()
);
#205 = CARTESIAN_POINT('', (-5.8990000000002, 0., -83.001));
#206 = CARTESIAN_POINT('', (-6.00100000000021, 5.47432736349753E-16, -82.899));
#207 = CARTESIAN_POINT('', (-5.8990000000002, -5.8990000000002, -83.001));
#208 = CARTESIAN_POINT('', (-6.00100000000021, -6.00100000000021, -82.899));
#209 = CARTESIAN_POINT('', (-1.39164968483493E-16, -5.8990000000002, -83.001));
#210 = CARTESIAN_POINT('', (-1.37731891196319E-16, -6.0010000000002, -82.899));
#211 = CARTESIAN_POINT('', (5.8990000000002, -5.8990000000002, -83.001));
#212 = CARTESIAN_POINT('', (6.00100000000021, -6.0010000000002, -82.899));
#213 = CARTESIAN_POINT('', (5.8990000000002, 1.65759272883077E-16, -83.001));
#214 = CARTESIAN_POINT('', (6.00100000000021, 7.16058163807177E-16, -82.899));
#215 = CARTESIAN_POINT('', (5.8990000000002, 5.8990000000002, -83.001));
#216 = CARTESIAN_POINT('', (6.00100000000021, 6.00100000000021, -82.899));
#217 = CARTESIAN_POINT('', (4.17494905450479E-16, 5.8990000000002, -83.001));
#218 = CARTESIAN_POINT('', (4.28553225514608E-16, 6.00100000000021, -82.899));
#219 = CARTESIAN_POINT('', (-5.8990000000002, 5.89900000000021, -83.001));
#220 = CARTESIAN_POINT('', (-6.0010000000002, 6.00100000000021, -82.899));
#221 = CARTESIAN_POINT('', (-5.8990000000002, 0., -83.001));
#222 = CARTESIAN_POINT('', (-6.00100000000021, 5.47432736349753E-16, -82.899));
#223 = ADVANCED_FACE('', (#224), #227, .T.);
#224 = FACE_OUTER_BOUND('', #225, .T.);
#225 = EDGE_LOOP('', (#226));
#226 = ORIENTED_EDGE('', *, *, #167, .T.);
#227 = B_SPLINE_SURFACE_WITH_KNOTS('', 1, 1, ((#228, #229), (#230, #231)), .UNSPECIFIED., .F., .F., .U., (2, 2), (2, 2), (-6.0010000000002, 6.0010000000002), (-6.0010000000002, 6.0010000000002), .UNSPECIFIED.);
#228 = CARTESIAN_POINT('', (-6.0010000000002, -6.0010000000002, -57.));
#229 = CARTESIAN_POINT('', (-6.0010000000002, 6.0010000000002, -57.));
#230 = CARTESIAN_POINT('', (6.0010000000002, -6.0010000000002, -57.));
#231 = CARTESIAN_POINT('', (6.0010000000002, 6.0010000000002, -57.));
#232 = PRESENTATION_STYLE_ASSIGNMENT((#233));
#233 = SURFACE_STYLE_USAGE(.POSITIVE., #234);
#234 = SURFACE_SIDE_STYLE('', (#235));
#235 = SURFACE_STYLE_FILL_AREA(#236);
#236 = FILL_AREA_STYLE('', (#237));
#237 = FILL_AREA_STYLE_COLOUR('', #238);
#238 = COLOUR_RGB('', 0.8, 0.8, 0.8);
#239 = STYLED_ITEM('', (#232), #126);
#240 = TRIMMED_CURVE('cutting part line', #241, (#245), (#246), .T., .CARTESIAN.);
#241 = LINE('', #242, #243);
#242 = CARTESIAN_POINT('', (-7.35522753814166E-16, 0., -83.));
#243 = VECTOR('', #244, 5.9000000000002);
#244 = DIRECTION('', (5.9000000000002, 0., 0.));
#245 = CARTESIAN_POINT('', (-7.35522753814166E-16, 0., -83.));
#246 = CARTESIAN_POINT('', (5.9000000000002, 0., -83.));
#247 = TRIMMED_CURVE('cutting part line', #248, (#252), (#253), .T., .CARTESIAN.);
#248 = LINE('', #249, #250);
#249 = CARTESIAN_POINT('', (5.90000000000018, 4.45587801064437E-16, -83.));
#250 = VECTOR('', #251, 0.141421356237457);
#251 = DIRECTION('', (0.100000000000101, 5.44144084452017E-16, 0.100000000000108));
#252 = CARTESIAN_POINT('', (5.90000000000018, 4.45587801064437E-16, -83.));
#253 = CARTESIAN_POINT('', (6.00000000000028, 9.89731885516453E-16, -82.8999999999999));
#254 = TRIMMED_CURVE('cutting part line', #255, (#259), (#260), .T., .CARTESIAN.);
#255 = LINE('', #256, #257);
#256 = CARTESIAN_POINT('', (6.0000000000002, 0., -82.9));
#257 = VECTOR('', #258, 25.9);
#258 = DIRECTION('', (0., 0., 25.9));
#259 = CARTESIAN_POINT('', (6.0000000000002, 0., -82.9));
#260 = CARTESIAN_POINT('', (6.0000000000002, 0., -57.));
#261 = TRIMMED_CURVE('cutting part line', #262, (#266), (#267), .T., .CARTESIAN.);
#262 = LINE('', #263, #264);
#263 = CARTESIAN_POINT('', (6.0000000000002, 0., -57.));
#264 = VECTOR('', #265, 6.0000000000002);
#265 = DIRECTION('', (-6.0000000000002, 0., 0.));
#266 = CARTESIAN_POINT('', (6.0000000000002, 0., -57.));
#267 = CARTESIAN_POINT('', (-2.77555756156289E-17, 0., -57.));
#268 = TRIMMED_CURVE('cutting part line', #269, (#273), (#274), .T., .CARTESIAN.);
#269 = LINE('', #270, #271);
#270 = CARTESIAN_POINT('', (0., 0., -57.));
#271 = VECTOR('', #272, 26.);
#272 = DIRECTION('', (0., 0., -26.));
#273 = CARTESIAN_POINT('', (0., 0., -57.));
#274 = CARTESIAN_POINT('', (0., 0., -83.));
#275 = COMPOSITE_CURVE('cutting part line', (#276, #277, #278, #279, #280), .U.);
#276 = COMPOSITE_CURVE_SEGMENT(.CONTINUOUS., .T., #240);
#277 = COMPOSITE_CURVE_SEGMENT(.CONTINUOUS., .T., #247);
#278 = COMPOSITE_CURVE_SEGMENT(.CONTINUOUS., .T., #254);
#279 = COMPOSITE_CURVE_SEGMENT(.CONTINUOUS., .T., #261);
#280 = COMPOSITE_CURVE_SEGMENT(.CONTINUOUS., .T., #268);
#281 = GEOMETRIC_SET('', (#275, #324));
#282 = PRESENTATION_STYLE_ASSIGNMENT((#283));
#283 = CURVE_STYLE('', #285, POSITIVE_LENGTH_MEASURE(1.E-6), #284);
#284 = COLOUR_RGB('', 0., 0., 1.);
#285 = DRAUGHTING_PRE_DEFINED_CURVE_FONT('continuous');
#286 = STYLED_ITEM('', (#282), #275);
#287 = PRESENTATION_STYLE_ASSIGNMENT((#288));
#288 = CURVE_STYLE('', #290, POSITIVE_LENGTH_MEASURE(1.E-6), #289);
#289 = COLOUR_RGB('', 0., 0., 1.);
#290 = DRAUGHTING_PRE_DEFINED_CURVE_FONT('continuous');
#291 = OVER_RIDING_STYLED_ITEM('', (#287), #240, #286);
#292 = PRESENTATION_STYLE_ASSIGNMENT((#293));
#293 = CURVE_STYLE('', #295, POSITIVE_LENGTH_MEASURE(1.E-6), #294);
#294 = COLOUR_RGB('', 0., 0., 1.);
#295 = DRAUGHTING_PRE_DEFINED_CURVE_FONT('continuous');
#296 = OVER_RIDING_STYLED_ITEM('', (#292), #247, #286);
#297 = PRESENTATION_STYLE_ASSIGNMENT((#298));
#298 = CURVE_STYLE('', #300, POSITIVE_LENGTH_MEASURE(1.E-6), #299);
#299 = COLOUR_RGB('', 0., 0., 1.);
#300 = DRAUGHTING_PRE_DEFINED_CURVE_FONT('continuous');
#301 = OVER_RIDING_STYLED_ITEM('', (#297), #254, #286);
#302 = PRESENTATION_STYLE_ASSIGNMENT((#303));
#303 = CURVE_STYLE('', #305, POSITIVE_LENGTH_MEASURE(1.E-6), #304);
#304 = COLOUR_RGB('', 0., 0., 1.);
#305 = DRAUGHTING_PRE_DEFINED_CURVE_FONT('continuous');
#306 = OVER_RIDING_STYLED_ITEM('', (#302), #261, #286);
#307 = PRESENTATION_STYLE_ASSIGNMENT((#308));
#308 = CURVE_STYLE('', #310, POSITIVE_LENGTH_MEASURE(1.E-6), #309);
#309 = COLOUR_RGB('', 0., 0., 1.);
#310 = DRAUGHTING_PRE_DEFINED_CURVE_FONT('continuous');
#311 = OVER_RIDING_STYLED_ITEM('', (#307), #268, #286);
#312 = AXIS2_PLACEMENT_3D('MCS', #313, #314, #315);
#313 = CARTESIAN_POINT('', (0., 0., -45.));
#314 = DIRECTION('', (0., 0., 1.));
#315 = DIRECTION('', (1., 0., 0.));
#316 = AXIS2_PLACEMENT_3D('PCS', #317, #318, #319);
#317 = CARTESIAN_POINT('', (0., 0., 0.));
#318 = DIRECTION('', (0., 0., 1.));
#319 = DIRECTION('', (1., 0., 0.));
#320 = AXIS2_PLACEMENT_3D('CIP', #321, #322, #323);
#321 = CARTESIAN_POINT('', (0., 0., -83.));
#322 = DIRECTION('', (0., 0., 1.));
#323 = DIRECTION('', (1., 0., 0.));
#324 = CARTESIAN_POINT('CRP', (6.00000000000028, 0., -83.));
#325 = (
   GEOMETRIC_REPRESENTATION_CONTEXT (3)
   GLOBAL_UNCERTAINTY_ASSIGNED_CONTEXT ((#327))
   GLOBAL_UNIT_ASSIGNED_CONTEXT ((#326, #328, #329))
   REPRESENTATION_CONTEXT ('', '3D')
);
#326 = (
   LENGTH_UNIT ()
   NAMED_UNIT (*)
   SI_UNIT (.MILLI., .METRE.)
);
#327 = UNCERTAINTY_MEASURE_WITH_UNIT(LENGTH_MEASURE(1.E-6), #326, 'DISTANCE_ACCURACY_VALUE', '');
#328 = (
   NAMED_UNIT (*)
   SI_UNIT ($, .STERADIAN.)
   SOLID_ANGLE_UNIT ()
);
#329 = (
   NAMED_UNIT (*)
   PLANE_ANGLE_UNIT ()
   SI_UNIT ($, .RADIAN.)
);
#330 = SHAPE_REPRESENTATION('', (), #325);
#331 = PRODUCT_DEFINITION_SHAPE('', '', #332);
#332 = PRODUCT_DEFINITION('', '', #335, #339);
#333 = APPLICATION_CONTEXT('configuration controlled 3D designs of mechanical parts and assemblies');
#334 = APPLICATION_PROTOCOL_DEFINITION('International Standard', 'automotive_design', 2002, #333);
#335 = PRODUCT_DEFINITION_FORMATION_WITH_SPECIFIED_SOURCE('', '', #336, .NOT_KNOWN.);
#336 = PRODUCT('R215.36-12050-AC26H-634145282798419200-1', 'R215.36-12050-AC26H 1610', '', (#337));
#337 = PRODUCT_CONTEXT('', #333, 'mechanical');
#338 = PRODUCT_RELATED_PRODUCT_CATEGORY('detail', '', (#336));
#339 = PRODUCT_DEFINITION_CONTEXT('part definition', #333, 'design');
#340 = SHAPE_DEFINITION_REPRESENTATION(#331, #330);
#341 = CONSTRUCTIVE_GEOMETRY_REPRESENTATION('supplemental geometry', (#312, #316, #320), #325);
#342 = CONSTRUCTIVE_GEOMETRY_REPRESENTATION_RELATIONSHIP('', '', #330, #341);
#343 = SHAPE_REPRESENTATION_RELATIONSHIP('', '', #330, #344);
#344 = SHAPE_REPRESENTATION('', (#281), #325);
#345 = SHAPE_REPRESENTATION_RELATIONSHIP('', '', #330, #346);
#346 = ADVANCED_BREP_SHAPE_REPRESENTATION('', (#1, #126), #325);
ENDSEC;
END-ISO-10303-21;
