ISO-10303-21;
HEADER;
FILE_DESCRIPTION(('STEP'), '1');
FILE_NAME('C:\\Users\\ds2002\\OneDrive - Sandvik\\HomeShare\\Documents\\Batchrepair\\CorSRT2\\NEW_MILSQ_SLD\\Output\\MOD000000000000000020082279400000.stp', '2019-01-02T12:09:47', (''), (''), 'Express v3.0.0.0', 'Express Tool', 'Unknown');
FILE_SCHEMA(('AUTOMOTIVE_DESIGN'));
ENDSEC;

DATA;
#1 = MANIFOLD_SOLID_BREP('NOCUT', #2);
#2 = CLOSED_SHELL('', (#3, #20, #37, #85));
#3 = ADVANCED_FACE('', (#4), #15, .T.);
#4 = FACE_OUTER_BOUND('', #5, .T.);
#5 = EDGE_LOOP('', (#6));
#6 = ORIENTED_EDGE('', *, *, #7, .F.);
#7 = EDGE_CURVE('', #8, #8, #10, .T.);
#8 = VERTEX_POINT('', #9);
#9 = CARTESIAN_POINT('', (-8.00000000000026, 0., -65.));
#10 = CIRCLE('', #11, 8.00000000000026);
#11 = AXIS2_PLACEMENT_3D('', #12, #13, #14);
#12 = CARTESIAN_POINT('', (1.4432899320127E-15, 2.22044604925031E-16, -65.));
#13 = DIRECTION('', (0., 0., 1.));
#14 = DIRECTION('', (-1., -2.7755575615628E-17, 0.));
#15 = B_SPLINE_SURFACE_WITH_KNOTS('', 1, 1, ((#16, #17), (#18, #19)), .UNSPECIFIED., .F., .F., .U., (2, 2), (2, 2), (-8.00100000000026, 8.00100000000026), (-8.00100000000026, 8.00100000000026), .UNSPECIFIED.);
#16 = CARTESIAN_POINT('', (8.00100000000026, -8.00100000000026, -65.));
#17 = CARTESIAN_POINT('', (8.00100000000026, 8.00100000000026, -65.));
#18 = CARTESIAN_POINT('', (-8.00100000000026, -8.00100000000026, -65.));
#19 = CARTESIAN_POINT('', (-8.00100000000026, 8.00100000000026, -65.));
#20 = ADVANCED_FACE('', (#21), #32, .T.);
#21 = FACE_OUTER_BOUND('', #22, .T.);
#22 = EDGE_LOOP('', (#23));
#23 = ORIENTED_EDGE('', *, *, #24, .T.);
#24 = EDGE_CURVE('', #25, #25, #27, .T.);
#25 = VERTEX_POINT('', #26);
#26 = CARTESIAN_POINT('', (7.20000000000026, 0., 0.));
#27 = CIRCLE('', #28, 7.20000000000026);
#28 = AXIS2_PLACEMENT_3D('', #29, #30, #31);
#29 = CARTESIAN_POINT('', (1.16573417585641E-15, -2.44249065417534E-15, 0.));
#30 = DIRECTION('', (0., 0., 1.));
#31 = DIRECTION('', (1., 3.39234813079897E-16, 0.));
#32 = B_SPLINE_SURFACE_WITH_KNOTS('', 1, 1, ((#33, #34), (#35, #36)), .UNSPECIFIED., .F., .F., .U., (2, 2), (2, 2), (-7.20100000000021, 7.20100000000031), (-7.20100000000026, 7.20100000000026), .UNSPECIFIED.);
#33 = CARTESIAN_POINT('', (7.20100000000026, 7.20100000000026, 0.));
#34 = CARTESIAN_POINT('', (7.20100000000026, -7.20100000000026, 0.));
#35 = CARTESIAN_POINT('', (-7.20100000000026, 7.20100000000026, 0.));
#36 = CARTESIAN_POINT('', (-7.20100000000026, -7.20100000000026, 0.));
#37 = ADVANCED_FACE('', (#38), #66, .T.);
#38 = FACE_OUTER_BOUND('', #39, .T.);
#39 = EDGE_LOOP('', (#40, #48, #49, #50, #59));
#40 = ORIENTED_EDGE('', *, *, #41, .T.);
#41 = EDGE_CURVE('', #42, #25, #44, .T.);
#42 = VERTEX_POINT('', #43);
#43 = CARTESIAN_POINT('', (8.00000000000026, 0., -0.799999999999995));
#44 = LINE('', #45, #46);
#45 = CARTESIAN_POINT('', (8.00000000000026, -4.01652523757366E-15, -0.799999999999996));
#46 = VECTOR('', #47, 1.13137084989847);
#47 = DIRECTION('', (-0.799999999999997, 4.0115108490124E-15, 0.799999999999997));
#48 = ORIENTED_EDGE('', *, *, #24, .F.);
#49 = ORIENTED_EDGE('', *, *, #41, .F.);
#50 = ORIENTED_EDGE('', *, *, #51, .F.);
#51 = EDGE_CURVE('', #52, #42, #54, .T.);
#52 = VERTEX_POINT('', #53);
#53 = CARTESIAN_POINT('', (-8.00000000000026, -9.79717439317914E-16, -0.799999999999995));
#54 = CIRCLE('', #55, 8.00000000000026);
#55 = AXIS2_PLACEMENT_3D('', #56, #57, #58);
#56 = CARTESIAN_POINT('', (-1.4432899320127E-15, 2.22044604925031E-16, -0.799999999999995));
#57 = DIRECTION('', (-1.3877787807814E-17, 4.51488370625102E-17, -1.));
#58 = DIRECTION('', (1., -2.7755575615628E-17, -1.3877787807814E-17));
#59 = ORIENTED_EDGE('', *, *, #60, .F.);
#60 = EDGE_CURVE('', #42, #52, #61, .T.);
#61 = CIRCLE('', #62, 8.00000000000026);
#62 = AXIS2_PLACEMENT_3D('', #63, #64, #65);
#63 = CARTESIAN_POINT('', (-1.4432899320127E-15, 2.22044604925031E-16, -0.799999999999995));
#64 = DIRECTION('', (-1.3877787807814E-17, 4.51488370625102E-17, -1.));
#65 = DIRECTION('', (1., -2.7755575615628E-17, -1.3877787807814E-17));
#66 = (
   BOUNDED_SURFACE ()
   B_SPLINE_SURFACE (2, 1, ((#67, #68), (#69, #70), (#71, #72), (#73, #74), (#75, #76), (#77, #78), (#79, #80), (#81, #82), (#83, #84)), .UNSPECIFIED., .T., .F., .U.)
   B_SPLINE_SURFACE_WITH_KNOTS ((3, 2, 2, 2, 3), (2, 2), (0., 0.25, 0.5, 0.75, 1.), (0., 1.), .UNSPECIFIED.)
   GEOMETRIC_REPRESENTATION_ITEM ()
   RATIONAL_B_SPLINE_SURFACE (((1., 1.), (0.707106781186548, 0.707106781186548), (1., 1.), (0.707106781186548, 0.707106781186548), (1., 1.), (0.707106781186548, 0.707106781186548), (1., 1.), (0.707106781186548, 0.707106781186548), (1., 1.)))
   REPRESENTATION_ITEM ('')
   SURFACE ()
);
#67 = CARTESIAN_POINT('', (7.19900000000026, -4.93038065763132E-32, 0.001));
#68 = CARTESIAN_POINT('', (8.00100000000026, -4.02153962613492E-15, -0.800999999999995));
#69 = CARTESIAN_POINT('', (7.19900000000026, -7.19900000000026, 0.00100000000003588));
#70 = CARTESIAN_POINT('', (8.00100000000026, -8.00100000000026, -0.800999999999955));
#71 = CARTESIAN_POINT('', (1.99512384982832E-15, -7.19900000000026, 0.00100000000003588));
#72 = CARTESIAN_POINT('', (2.01949544898978E-15, -8.00100000000026, -0.800999999999955));
#73 = CARTESIAN_POINT('', (-7.19900000000026, -7.19900000000026, 0.00100000000003588));
#74 = CARTESIAN_POINT('', (-8.00100000000025, -8.00100000000026, -0.800999999999955));
#75 = CARTESIAN_POINT('', (-7.19900000000026, -4.37534020856149E-16, 0.001));
#76 = CARTESIAN_POINT('', (-8.00100000000025, -4.50781684531398E-15, -0.800999999999995));
#77 = CARTESIAN_POINT('', (-7.19900000000026, 7.19900000000026, 0.000999999999964124));
#78 = CARTESIAN_POINT('', (-8.00100000000025, 8.00100000000025, -0.801000000000035));
#79 = CARTESIAN_POINT('', (6.75966598265965E-16, 7.19900000000026, 0.000999999999964124));
#80 = CARTESIAN_POINT('', (5.53378325812893E-16, 8.00100000000025, -0.801000000000035));
#81 = CARTESIAN_POINT('', (7.19900000000026, 7.19900000000026, 0.000999999999964124));
#82 = CARTESIAN_POINT('', (8.00100000000026, 8.00100000000025, -0.801000000000035));
#83 = CARTESIAN_POINT('', (7.19900000000026, -4.93038065763132E-32, 0.001));
#84 = CARTESIAN_POINT('', (8.00100000000026, -4.02153962613492E-15, -0.800999999999995));
#85 = ADVANCED_FACE('', (#86), #98, .T.);
#86 = FACE_OUTER_BOUND('', #87, .T.);
#87 = EDGE_LOOP('', (#88, #94, #95, #96, #97));
#88 = ORIENTED_EDGE('', *, *, #89, .T.);
#89 = EDGE_CURVE('', #52, #8, #90, .T.);
#90 = LINE('', #91, #92);
#91 = CARTESIAN_POINT('', (-8.00000000000026, -3.94430452610506E-31, -0.799999999999995));
#92 = VECTOR('', #93, 64.2);
#93 = DIRECTION('', (0., 0., -64.2));
#94 = ORIENTED_EDGE('', *, *, #7, .T.);
#95 = ORIENTED_EDGE('', *, *, #89, .F.);
#96 = ORIENTED_EDGE('', *, *, #51, .T.);
#97 = ORIENTED_EDGE('', *, *, #60, .T.);
#98 = (
   BOUNDED_SURFACE ()
   B_SPLINE_SURFACE (2, 1, ((#99, #100), (#101, #102), (#103, #104), (#105, #106), (#107, #108), (#109, #110), (#111, #112), (#113, #114), (#115, #116)), .UNSPECIFIED., .T., .F., .U.)
   B_SPLINE_SURFACE_WITH_KNOTS ((3, 2, 2, 2, 3), (2, 2), (0., 0.25, 0.5, 0.75, 1.), (0., 1.), .UNSPECIFIED.)
   GEOMETRIC_REPRESENTATION_ITEM ()
   RATIONAL_B_SPLINE_SURFACE (((1., 1.), (0.707106781186548, 0.707106781186548), (1., 1.), (0.707106781186548, 0.707106781186548), (1., 1.), (0.707106781186548, 0.707106781186548), (1., 1.), (0.707106781186548, 0.707106781186548), (1., 1.)))
   REPRESENTATION_ITEM ('')
   SURFACE ()
);
#99 = CARTESIAN_POINT('', (-8.00000000000026, -3.94430452610506E-31, -71.4212));
#100 = CARTESIAN_POINT('', (-8.00000000000026, -3.94430452610506E-31, 5.62120000000002));
#101 = CARTESIAN_POINT('', (-8.00000000000026, -8.00000000000026, -71.4212));
#102 = CARTESIAN_POINT('', (-8.00000000000026, -8.00000000000026, 5.62120000000002));
#103 = CARTESIAN_POINT('', (-1.46130386620597E-15, -8.00000000000026, -71.4212));
#104 = CARTESIAN_POINT('', (-1.46130386620597E-15, -8.00000000000026, 5.62120000000002));
#105 = CARTESIAN_POINT('', (8.00000000000026, -8.00000000000026, -71.4212));
#106 = CARTESIAN_POINT('', (8.00000000000026, -8.00000000000026, 5.62120000000002));
#107 = CARTESIAN_POINT('', (8.00000000000026, -4.97652032796848E-15, -71.4212));
#108 = CARTESIAN_POINT('', (8.00000000000026, -4.97652032796848E-15, 5.62120000000002));
#109 = CARTESIAN_POINT('', (8.00000000000026, 8.00000000000025, -71.4212));
#110 = CARTESIAN_POINT('', (8.00000000000026, 8.00000000000025, 5.62120000000002));
#111 = CARTESIAN_POINT('', (4.49493390108042E-15, 8.00000000000026, -71.4212));
#112 = CARTESIAN_POINT('', (4.49493390108042E-15, 8.00000000000026, 5.62120000000002));
#113 = CARTESIAN_POINT('', (-8.00000000000025, 8.00000000000026, -71.4212));
#114 = CARTESIAN_POINT('', (-8.00000000000025, 8.00000000000026, 5.62120000000002));
#115 = CARTESIAN_POINT('', (-8.00000000000026, -3.94430452610506E-31, -71.4212));
#116 = CARTESIAN_POINT('', (-8.00000000000026, -3.94430452610506E-31, 5.62120000000002));
#117 = DRAUGHTING_MODEL('', (#125, #239, #286, #291, #296, #301, #306, #311), #325);
#118 = PRESENTATION_STYLE_ASSIGNMENT((#119));
#119 = SURFACE_STYLE_USAGE(.POSITIVE., #120);
#120 = SURFACE_SIDE_STYLE('', (#121));
#121 = SURFACE_STYLE_FILL_AREA(#122);
#122 = FILL_AREA_STYLE('', (#123));
#123 = FILL_AREA_STYLE_COLOUR('', #124);
#124 = COLOUR_RGB('', 0.50196078431373, 0.50196078431373, 0.50196078431373);
#125 = STYLED_ITEM('', (#118), #1);
#126 = MANIFOLD_SOLID_BREP('CUT', #127);
#127 = CLOSED_SHELL('', (#128, #145, #192, #223));
#128 = ADVANCED_FACE('', (#129), #140, .T.);
#129 = FACE_OUTER_BOUND('', #130, .T.);
#130 = EDGE_LOOP('', (#131));
#131 = ORIENTED_EDGE('', *, *, #132, .T.);
#132 = EDGE_CURVE('', #133, #133, #135, .T.);
#133 = VERTEX_POINT('', #134);
#134 = CARTESIAN_POINT('', (-7.85000000000026, 0., -115.));
#135 = CIRCLE('', #136, 7.85000000000026);
#136 = AXIS2_PLACEMENT_3D('', #137, #138, #139);
#137 = CARTESIAN_POINT('', (3.05311331771918E-16, 2.22044604925031E-15, -115.));
#138 = DIRECTION('', (0., 0., -1.));
#139 = DIRECTION('', (-1., -2.82859369331241E-16, 0.));
#140 = B_SPLINE_SURFACE_WITH_KNOTS('', 1, 1, ((#141, #142), (#143, #144)), .UNSPECIFIED., .F., .F., .U., (2, 2), (2, 2), (-15.8510000000005, -0.149000000000029), (-7.85100000000026, 7.85100000000026), .UNSPECIFIED.);
#141 = CARTESIAN_POINT('', (-7.85100000000026, 7.85100000000026, -115.));
#142 = CARTESIAN_POINT('', (-7.85100000000026, -7.85100000000026, -115.));
#143 = CARTESIAN_POINT('', (7.85100000000026, 7.85100000000026, -115.));
#144 = CARTESIAN_POINT('', (7.85100000000026, -7.85100000000026, -115.));
#145 = ADVANCED_FACE('', (#146), #173, .T.);
#146 = FACE_OUTER_BOUND('', #147, .T.);
#147 = EDGE_LOOP('', (#148, #158, #165, #166));
#148 = ORIENTED_EDGE('', *, *, #149, .T.);
#149 = EDGE_CURVE('', #150, #152, #154, .T.);
#150 = VERTEX_POINT('', #151);
#151 = CARTESIAN_POINT('', (-8.00000000000026, 0., -65.));
#152 = VERTEX_POINT('', #153);
#153 = CARTESIAN_POINT('', (-8.00000000000026, 0., -114.85));
#154 = LINE('', #155, #156);
#155 = CARTESIAN_POINT('', (-8.00000000000016, -2.46185923288391E-29, -65.));
#156 = VECTOR('', #157, 49.85);
#157 = DIRECTION('', (-8.88178419700125E-14, 2.20214834275532E-29, -49.85));
#158 = ORIENTED_EDGE('', *, *, #159, .T.);
#159 = EDGE_CURVE('', #152, #152, #160, .T.);
#160 = CIRCLE('', #161, 8.00000000000026);
#161 = AXIS2_PLACEMENT_3D('', #162, #163, #164);
#162 = CARTESIAN_POINT('', (1.4432899320127E-15, 2.22044604925031E-16, -114.85));
#163 = DIRECTION('', (-1.6780736330975E-31, 6.04589743097472E-15, 1.));
#164 = DIRECTION('', (-1., -2.7755575615628E-17, 0.));
#165 = ORIENTED_EDGE('', *, *, #149, .F.);
#166 = ORIENTED_EDGE('', *, *, #167, .F.);
#167 = EDGE_CURVE('', #150, #150, #168, .T.);
#168 = CIRCLE('', #169, 8.00000000000026);
#169 = AXIS2_PLACEMENT_3D('', #170, #171, #172);
#170 = CARTESIAN_POINT('', (1.4432899320127E-15, 2.22044604925031E-16, -65.));
#171 = DIRECTION('', (0., 0., 1.));
#172 = DIRECTION('', (-1., -2.7755575615628E-17, 0.));
#173 = (
   BOUNDED_SURFACE ()
   B_SPLINE_SURFACE (2, 1, ((#174, #175), (#176, #177), (#178, #179), (#180, #181), (#182, #183), (#184, #185), (#186, #187), (#188, #189), (#190, #191)), .UNSPECIFIED., .T., .F., .U.)
   B_SPLINE_SURFACE_WITH_KNOTS ((3, 2, 2, 2, 3), (2, 2), (0., 0.25, 0.5, 0.75, 1.), (0., 1.), .UNSPECIFIED.)
   GEOMETRIC_REPRESENTATION_ITEM ()
   RATIONAL_B_SPLINE_SURFACE (((1., 1.), (0.707106781186548, 0.707106781186548), (1., 1.), (0.707106781186548, 0.707106781186548), (1., 1.), (0.707106781186548, 0.707106781186548), (1., 1.), (0.707106781186548, 0.707106781186548), (1., 1.)))
   REPRESENTATION_ITEM ('')
   SURFACE ()
);
#174 = CARTESIAN_POINT('', (-8.00000000000026, -3.94430452610506E-31, -119.8362));
#175 = CARTESIAN_POINT('', (-8.00000000000015, -2.68212707775144E-29, -60.0138));
#176 = CARTESIAN_POINT('', (-8.00000000000026, -8.00000000000026, -119.8362));
#177 = CARTESIAN_POINT('', (-8.00000000000015, -8.00000000000026, -60.0138));
#178 = CARTESIAN_POINT('', (-1.46130386620597E-15, -8.00000000000026, -119.8362));
#179 = CARTESIAN_POINT('', (1.04804625523128E-13, -8.00000000000026, -60.0138));
#180 = CARTESIAN_POINT('', (8.00000000000026, -8.00000000000026, -119.8362));
#181 = CARTESIAN_POINT('', (8.00000000000036, -8.00000000000026, -60.0138));
#182 = CARTESIAN_POINT('', (8.00000000000026, -4.97652032796848E-15, -119.8362));
#183 = CARTESIAN_POINT('', (8.00000000000036, -4.9765203279685E-15, -60.0138));
#184 = CARTESIAN_POINT('', (8.00000000000026, 8.00000000000025, -119.8362));
#185 = CARTESIAN_POINT('', (8.00000000000037, 8.00000000000025, -60.0138));
#186 = CARTESIAN_POINT('', (4.49493390108042E-15, 8.00000000000026, -119.8362));
#187 = CARTESIAN_POINT('', (1.10760863290415E-13, 8.00000000000026, -60.0138));
#188 = CARTESIAN_POINT('', (-8.00000000000025, 8.00000000000026, -119.8362));
#189 = CARTESIAN_POINT('', (-8.00000000000015, 8.00000000000026, -60.0138));
#190 = CARTESIAN_POINT('', (-8.00000000000026, -3.94430452610506E-31, -119.8362));
#191 = CARTESIAN_POINT('', (-8.00000000000015, -2.68212707775144E-29, -60.0138));
#192 = ADVANCED_FACE('', (#193), #204, .T.);
#193 = FACE_OUTER_BOUND('', #194, .T.);
#194 = EDGE_LOOP('', (#195, #201, #202, #203));
#195 = ORIENTED_EDGE('', *, *, #196, .T.);
#196 = EDGE_CURVE('', #152, #133, #197, .T.);
#197 = LINE('', #198, #199);
#198 = CARTESIAN_POINT('', (-8.00000000000026, -2.439236798649E-15, -114.85));
#199 = VECTOR('', #200, 0.212132034355971);
#200 = DIRECTION('', (0.150000000000004, 2.42308291256508E-15, -0.150000000000006));
#201 = ORIENTED_EDGE('', *, *, #132, .F.);
#202 = ORIENTED_EDGE('', *, *, #196, .F.);
#203 = ORIENTED_EDGE('', *, *, #159, .F.);
#204 = (
   BOUNDED_SURFACE ()
   B_SPLINE_SURFACE (2, 1, ((#205, #206), (#207, #208), (#209, #210), (#211, #212), (#213, #214), (#215, #216), (#217, #218), (#219, #220), (#221, #222)), .UNSPECIFIED., .T., .F., .U.)
   B_SPLINE_SURFACE_WITH_KNOTS ((3, 2, 2, 2, 3), (2, 2), (0., 0.25, 0.5, 0.75, 1.), (0., 1.), .UNSPECIFIED.)
   GEOMETRIC_REPRESENTATION_ITEM ()
   RATIONAL_B_SPLINE_SURFACE (((1., 1.), (0.707106781186548, 0.707106781186548), (1., 1.), (0.707106781186548, 0.707106781186548), (1., 1.), (0.707106781186548, 0.707106781186548), (1., 1.), (0.707106781186548, 0.707106781186548), (1., 1.)))
   REPRESENTATION_ITEM ('')
   SURFACE ()
);
#205 = CARTESIAN_POINT('', (-7.84900000000025, 0., -115.001));
#206 = CARTESIAN_POINT('', (-8.00100000000026, -2.45539068473284E-15, -114.849));
#207 = CARTESIAN_POINT('', (-7.84900000000024, -7.84900000000024, -115.001));
#208 = CARTESIAN_POINT('', (-8.00100000000026, -8.00100000000027, -114.849));
#209 = CARTESIAN_POINT('', (2.41032329680958E-16, -7.84900000000024, -115.001));
#210 = CARTESIAN_POINT('', (2.44625044564938E-16, -8.00100000000027, -114.849));
#211 = CARTESIAN_POINT('', (7.84900000000024, -7.84900000000024, -115.001));
#212 = CARTESIAN_POINT('', (8.00100000000026, -8.00100000000027, -114.849));
#213 = CARTESIAN_POINT('', (7.84900000000025, 3.710423568994E-16, -115.001));
#214 = CARTESIAN_POINT('', (8.00100000000026, -2.07716289806549E-15, -114.849));
#215 = CARTESIAN_POINT('', (7.84900000000024, 7.84900000000024, -115.001));
#216 = CARTESIAN_POINT('', (8.00100000000026, 8.00100000000026, -114.849));
#217 = CARTESIAN_POINT('', (8.31215245432345E-16, 7.84900000000025, -115.001));
#218 = CARTESIAN_POINT('', (8.46237161895408E-16, 8.00100000000026, -114.849));
#219 = CARTESIAN_POINT('', (-7.84900000000024, 7.84900000000025, -115.001));
#220 = CARTESIAN_POINT('', (-8.00100000000026, 8.00100000000026, -114.849));
#221 = CARTESIAN_POINT('', (-7.84900000000025, 0., -115.001));
#222 = CARTESIAN_POINT('', (-8.00100000000026, -2.45539068473284E-15, -114.849));
#223 = ADVANCED_FACE('', (#224), #227, .T.);
#224 = FACE_OUTER_BOUND('', #225, .T.);
#225 = EDGE_LOOP('', (#226));
#226 = ORIENTED_EDGE('', *, *, #167, .T.);
#227 = B_SPLINE_SURFACE_WITH_KNOTS('', 1, 1, ((#228, #229), (#230, #231)), .UNSPECIFIED., .F., .F., .U., (2, 2), (2, 2), (-8.00100000000026, 8.00100000000026), (-8.00100000000026, 8.00100000000026), .UNSPECIFIED.);
#228 = CARTESIAN_POINT('', (-8.00100000000026, -8.00100000000026, -65.));
#229 = CARTESIAN_POINT('', (-8.00100000000026, 8.00100000000026, -65.));
#230 = CARTESIAN_POINT('', (8.00100000000026, -8.00100000000026, -65.));
#231 = CARTESIAN_POINT('', (8.00100000000026, 8.00100000000026, -65.));
#232 = PRESENTATION_STYLE_ASSIGNMENT((#233));
#233 = SURFACE_STYLE_USAGE(.POSITIVE., #234);
#234 = SURFACE_SIDE_STYLE('', (#235));
#235 = SURFACE_STYLE_FILL_AREA(#236);
#236 = FILL_AREA_STYLE('', (#237));
#237 = FILL_AREA_STYLE_COLOUR('', #238);
#238 = COLOUR_RGB('', 0.8, 0.8, 0.8);
#239 = STYLED_ITEM('', (#232), #126);
#240 = TRIMMED_CURVE('cutting part line', #241, (#245), (#246), .T., .CARTESIAN.);
#241 = LINE('', #242, #243);
#242 = CARTESIAN_POINT('', (3.60822483003176E-16, 0., -115.));
#243 = VECTOR('', #244, 7.85000000000026);
#244 = DIRECTION('', (7.85000000000026, 0., 0.));
#245 = CARTESIAN_POINT('', (3.60822483003176E-16, 0., -115.));
#246 = CARTESIAN_POINT('', (7.85000000000026, 0., -115.));
#247 = TRIMMED_CURVE('cutting part line', #248, (#252), (#253), .T., .CARTESIAN.);
#248 = LINE('', #249, #250);
#249 = CARTESIAN_POINT('', (7.85000000000012, 6.50934592471192E-16, -115.));
#250 = VECTOR('', #251, 0.2121320343563);
#251 = DIRECTION('', (0.150000000000242, -2.40998551087687E-15, 0.150000000000233));
#252 = CARTESIAN_POINT('', (7.85000000000012, 6.50934592471192E-16, -115.));
#253 = CARTESIAN_POINT('', (8.00000000000036, -1.75905091840568E-15, -114.85));
#254 = TRIMMED_CURVE('cutting part line', #255, (#259), (#260), .T., .CARTESIAN.);
#255 = LINE('', #256, #257);
#256 = CARTESIAN_POINT('', (8.00000000000027, 0., -114.85));
#257 = VECTOR('', #258, 49.85);
#258 = DIRECTION('', (8.88178419700125E-14, 1.54543482171217E-15, 49.85));
#259 = CARTESIAN_POINT('', (8.00000000000027, 0., -114.85));
#260 = CARTESIAN_POINT('', (8.00000000000036, 1.54543482171217E-15, -65.));
#261 = TRIMMED_CURVE('cutting part line', #262, (#266), (#267), .T., .CARTESIAN.);
#262 = LINE('', #263, #264);
#263 = CARTESIAN_POINT('', (8.00000000000026, 0., -65.));
#264 = VECTOR('', #265, 8.00000000000026);
#265 = DIRECTION('', (-8.00000000000026, 0., 0.));
#266 = CARTESIAN_POINT('', (8.00000000000026, 0., -65.));
#267 = CARTESIAN_POINT('', (0., 0., -65.));
#268 = TRIMMED_CURVE('cutting part line', #269, (#273), (#274), .T., .CARTESIAN.);
#269 = LINE('', #270, #271);
#270 = CARTESIAN_POINT('', (0., 0., -65.));
#271 = VECTOR('', #272, 50.);
#272 = DIRECTION('', (0., 0., -50.));
#273 = CARTESIAN_POINT('', (0., 0., -65.));
#274 = CARTESIAN_POINT('', (0., 0., -115.));
#275 = COMPOSITE_CURVE('cutting part line', (#276, #277, #278, #279, #280), .U.);
#276 = COMPOSITE_CURVE_SEGMENT(.CONTINUOUS., .T., #240);
#277 = COMPOSITE_CURVE_SEGMENT(.CONTINUOUS., .T., #247);
#278 = COMPOSITE_CURVE_SEGMENT(.CONTINUOUS., .T., #254);
#279 = COMPOSITE_CURVE_SEGMENT(.CONTINUOUS., .T., #261);
#280 = COMPOSITE_CURVE_SEGMENT(.CONTINUOUS., .T., #268);
#281 = GEOMETRIC_SET('', (#275, #324));
#282 = PRESENTATION_STYLE_ASSIGNMENT((#283));
#283 = CURVE_STYLE('', #285, POSITIVE_LENGTH_MEASURE(1.E-6), #284);
#284 = COLOUR_RGB('', 0., 0., 1.);
#285 = DRAUGHTING_PRE_DEFINED_CURVE_FONT('continuous');
#286 = STYLED_ITEM('', (#282), #275);
#287 = PRESENTATION_STYLE_ASSIGNMENT((#288));
#288 = CURVE_STYLE('', #290, POSITIVE_LENGTH_MEASURE(1.E-6), #289);
#289 = COLOUR_RGB('', 0., 0., 1.);
#290 = DRAUGHTING_PRE_DEFINED_CURVE_FONT('continuous');
#291 = OVER_RIDING_STYLED_ITEM('', (#287), #240, #286);
#292 = PRESENTATION_STYLE_ASSIGNMENT((#293));
#293 = CURVE_STYLE('', #295, POSITIVE_LENGTH_MEASURE(1.E-6), #294);
#294 = COLOUR_RGB('', 0., 0., 1.);
#295 = DRAUGHTING_PRE_DEFINED_CURVE_FONT('continuous');
#296 = OVER_RIDING_STYLED_ITEM('', (#292), #247, #286);
#297 = PRESENTATION_STYLE_ASSIGNMENT((#298));
#298 = CURVE_STYLE('', #300, POSITIVE_LENGTH_MEASURE(1.E-6), #299);
#299 = COLOUR_RGB('', 0., 0., 1.);
#300 = DRAUGHTING_PRE_DEFINED_CURVE_FONT('continuous');
#301 = OVER_RIDING_STYLED_ITEM('', (#297), #254, #286);
#302 = PRESENTATION_STYLE_ASSIGNMENT((#303));
#303 = CURVE_STYLE('', #305, POSITIVE_LENGTH_MEASURE(1.E-6), #304);
#304 = COLOUR_RGB('', 0., 0., 1.);
#305 = DRAUGHTING_PRE_DEFINED_CURVE_FONT('continuous');
#306 = OVER_RIDING_STYLED_ITEM('', (#302), #261, #286);
#307 = PRESENTATION_STYLE_ASSIGNMENT((#308));
#308 = CURVE_STYLE('', #310, POSITIVE_LENGTH_MEASURE(1.E-6), #309);
#309 = COLOUR_RGB('', 0., 0., 1.);
#310 = DRAUGHTING_PRE_DEFINED_CURVE_FONT('continuous');
#311 = OVER_RIDING_STYLED_ITEM('', (#307), #268, #286);
#312 = AXIS2_PLACEMENT_3D('MCS', #313, #314, #315);
#313 = CARTESIAN_POINT('', (0., 0., -48.));
#314 = DIRECTION('', (0., 0., 1.));
#315 = DIRECTION('', (1., 0., 0.));
#316 = AXIS2_PLACEMENT_3D('PCS', #317, #318, #319);
#317 = CARTESIAN_POINT('', (0., 0., 0.));
#318 = DIRECTION('', (0., 0., 1.));
#319 = DIRECTION('', (1., 0., 0.));
#320 = AXIS2_PLACEMENT_3D('CIP', #321, #322, #323);
#321 = CARTESIAN_POINT('', (0., 0., -115.));
#322 = DIRECTION('', (0., 0., 1.));
#323 = DIRECTION('', (1., 0., 0.));
#324 = CARTESIAN_POINT('CRP', (8.00000000000036, 0., -115.));
#325 = (
   GEOMETRIC_REPRESENTATION_CONTEXT (3)
   GLOBAL_UNCERTAINTY_ASSIGNED_CONTEXT ((#327))
   GLOBAL_UNIT_ASSIGNED_CONTEXT ((#326, #328, #329))
   REPRESENTATION_CONTEXT ('', '3D')
);
#326 = (
   LENGTH_UNIT ()
   NAMED_UNIT (*)
   SI_UNIT (.MILLI., .METRE.)
);
#327 = UNCERTAINTY_MEASURE_WITH_UNIT(LENGTH_MEASURE(1.E-6), #326, 'DISTANCE_ACCURACY_VALUE', '');
#328 = (
   NAMED_UNIT (*)
   SI_UNIT ($, .STERADIAN.)
   SOLID_ANGLE_UNIT ()
);
#329 = (
   NAMED_UNIT (*)
   PLANE_ANGLE_UNIT ()
   SI_UNIT ($, .RADIAN.)
);
#330 = SHAPE_REPRESENTATION('', (), #325);
#331 = PRODUCT_DEFINITION_SHAPE('', '', #332);
#332 = PRODUCT_DEFINITION('', '', #335, #339);
#333 = APPLICATION_CONTEXT('configuration controlled 3D designs of mechanical parts and assemblies');
#334 = APPLICATION_PROTOCOL_DEFINITION('International Standard', 'automotive_design', 2002, #333);
#335 = PRODUCT_DEFINITION_FORMATION_WITH_SPECIFIED_SOURCE('', '', #336, .NOT_KNOWN.);
#336 = PRODUCT('1P360-1600-XA-634837507521454523-1', '1P360-1600-XA       1620', '', (#337));
#337 = PRODUCT_CONTEXT('', #333, 'mechanical');
#338 = PRODUCT_RELATED_PRODUCT_CATEGORY('detail', '', (#336));
#339 = PRODUCT_DEFINITION_CONTEXT('part definition', #333, 'design');
#340 = SHAPE_DEFINITION_REPRESENTATION(#331, #330);
#341 = CONSTRUCTIVE_GEOMETRY_REPRESENTATION('supplemental geometry', (#312, #316, #320), #325);
#342 = CONSTRUCTIVE_GEOMETRY_REPRESENTATION_RELATIONSHIP('', '', #330, #341);
#343 = SHAPE_REPRESENTATION_RELATIONSHIP('', '', #330, #344);
#344 = SHAPE_REPRESENTATION('', (#281), #325);
#345 = SHAPE_REPRESENTATION_RELATIONSHIP('', '', #330, #346);
#346 = ADVANCED_BREP_SHAPE_REPRESENTATION('', (#1, #126), #325);
ENDSEC;
END-ISO-10303-21;
